  0
SECTION
  2
HEADER
  9
$ACADVER
  1
AC1015
  9
$ACADMAINTVER
 70
     6
  9
$DWGCODEPAGE
  3
ANSI_932
  9
$INSBASE
 10
0.0
 20
0.0
 30
0.0
  9
$EXTMIN
 10
570.3080952156764
 20
-3611.475718225896
 30
0.0
  9
$EXTMAX
 10
863.5113086849463
 20
-3128.060147756405
 30
0.0
  9
$LIMMIN
 10
0.0
 20
0.0
  9
$LIMMAX
 10
420.0
 20
297.0
  9
$ORTHOMODE
 70
     0
  9
$REGENMODE
 70
     1
  9
$FILLMODE
 70
     1
  9
$QTEXTMODE
 70
     0
  9
$MIRRTEXT
 70
     1
  9
$LTSCALE
 40
1.0
  9
$ATTMODE
 70
     1
  9
$TEXTSIZE
 40
3.799999999999999
  9
$TRACEWID
 40
1.0
  9
$TEXTSTYLE
  7
STANDARD
  9
$CLAYER
  8
0
  9
$CELTYPE
  6
BYLAYER
  9
$CECOLOR
 62
   256
  9
$CELTSCALE
 40
1.0
  9
$DISPSILH
 70
     0
  9
$DIMSCALE
 40
1.0
  9
$DIMASZ
 40
2.5
  9
$DIMEXO
 40
1.0
  9
$DIMDLI
 40
8.0
  9
$DIMRND
 40
0.0
  9
$DIMDLE
 40
0.0
  9
$DIMEXE
 40
1.0
  9
$DIMTP
 40
0.0
  9
$DIMTM
 40
0.0
  9
$DIMTXT
 40
2.5
  9
$DIMCEN
 40
0.0
  9
$DIMTSZ
 40
0.0
  9
$DIMTOL
 70
     0
  9
$DIMLIM
 70
     0
  9
$DIMTIH
 70
     0
  9
$DIMTOH
 70
     0
  9
$DIMSE1
 70
     0
  9
$DIMSE2
 70
     0
  9
$DIMTAD
 70
     3
  9
$DIMZIN
 70
     9
  9
$DIMBLK
  1
Open
  9
$DIMASO
 70
     1
  9
$DIMSHO
 70
     1
  9
$DIMPOST
  1

  9
$DIMAPOST
  1

  9
$DIMALT
 70
     0
  9
$DIMALTD
 70
     2
  9
$DIMALTF
 40
25.4
  9
$DIMLFAC
 40
1.0
  9
$DIMTOFL
 70
     1
  9
$DIMTVP
 40
0.0
  9
$DIMTIX
 70
     0
  9
$DIMSOXD
 70
     0
  9
$DIMSAH
 70
     0
  9
$DIMBLK1
  1

  9
$DIMBLK2
  1

  9
$DIMSTYLE
  2
iai
  9
$DIMCLRD
 70
     3
  9
$DIMCLRE
 70
     3
  9
$DIMCLRT
 70
     2
  9
$DIMTFAC
 40
1.0
  9
$DIMGAP
 40
1.0
  9
$DIMJUST
 70
     0
  9
$DIMSD1
 70
     0
  9
$DIMSD2
 70
     0
  9
$DIMTOLJ
 70
     1
  9
$DIMTZIN
 70
    12
  9
$DIMALTZ
 70
     0
  9
$DIMALTTZ
 70
     0
  9
$DIMUPT
 70
     0
  9
$DIMDEC
 70
     5
  9
$DIMTDEC
 70
     5
  9
$DIMALTU
 70
     2
  9
$DIMALTTD
 70
     2
  9
$DIMTXSTY
  7
romans
  9
$DIMAUNIT
 70
     0
  9
$DIMADEC
 70
     5
  9
$DIMALTRND
 40
0.0
  9
$DIMAZIN
 70
     2
  9
$DIMDSEP
 70
    46
  9
$DIMATFIT
 70
     3
  9
$DIMFRAC
 70
     2
  9
$DIMLDRBLK
  1
Open
  9
$DIMLUNIT
 70
     2
  9
$DIMLWD
 70
    -1
  9
$DIMLWE
 70
    -1
  9
$DIMTMOVE
 70
     0
  9
$LUNITS
 70
     2
  9
$LUPREC
 70
     4
  9
$SKETCHINC
 40
1.0
  9
$FILLETRAD
 40
10.0
  9
$AUNITS
 70
     0
  9
$AUPREC
 70
     0
  9
$MENU
  1
acad
  9
$ELEVATION
 40
0.0
  9
$PELEVATION
 40
0.0
  9
$THICKNESS
 40
0.0
  9
$LIMCHECK
 70
     0
  9
$CHAMFERA
 40
10.0
  9
$CHAMFERB
 40
10.0
  9
$CHAMFERC
 40
20.0
  9
$CHAMFERD
 40
0.0
  9
$SKPOLY
 70
     0
  9
$TDCREATE
 40
2452240.643004375
  9
$TDUCREATE
 40
2452240.268004375
  9
$TDUPDATE
 40
2456868.693667893
  9
$TDUUPDATE
 40
2456868.318667893
  9
$TDINDWG
 40
1.9599479630
  9
$TDUSRTIMER
 40
2456868.162140509
  9
$USRTIMER
 70
     1
  9
$ANGBASE
 50
0.0
  9
$ANGDIR
 70
     0
  9
$PDMODE
 70
     0
  9
$PDSIZE
 40
0.0
  9
$PLINEWID
 40
0.0
  9
$SPLFRAME
 70
     0
  9
$SPLINETYPE
 70
     6
  9
$SPLINESEGS
 70
     8
  9
$HANDSEED
  5
1AF20
  9
$SURFTAB1
 70
     6
  9
$SURFTAB2
 70
     6
  9
$SURFTYPE
 70
     6
  9
$SURFU
 70
     6
  9
$SURFV
 70
     6
  9
$UCSBASE
  2

  9
$UCSNAME
  2

  9
$UCSORG
 10
0.0
 20
0.0
 30
0.0
  9
$UCSXDIR
 10
1.0
 20
0.0
 30
0.0
  9
$UCSYDIR
 10
0.0
 20
1.0
 30
0.0
  9
$UCSORTHOREF
  2

  9
$UCSORTHOVIEW
 70
     0
  9
$UCSORGTOP
 10
0.0
 20
0.0
 30
0.0
  9
$UCSORGBOTTOM
 10
0.0
 20
0.0
 30
0.0
  9
$UCSORGLEFT
 10
0.0
 20
0.0
 30
0.0
  9
$UCSORGRIGHT
 10
0.0
 20
0.0
 30
0.0
  9
$UCSORGFRONT
 10
0.0
 20
0.0
 30
0.0
  9
$UCSORGBACK
 10
0.0
 20
0.0
 30
0.0
  9
$PUCSBASE
  2

  9
$PUCSNAME
  2

  9
$PUCSORG
 10
0.0
 20
0.0
 30
0.0
  9
$PUCSXDIR
 10
1.0
 20
0.0
 30
0.0
  9
$PUCSYDIR
 10
0.0
 20
1.0
 30
0.0
  9
$PUCSORTHOREF
  2

  9
$PUCSORTHOVIEW
 70
     0
  9
$PUCSORGTOP
 10
0.0
 20
0.0
 30
0.0
  9
$PUCSORGBOTTOM
 10
0.0
 20
0.0
 30
0.0
  9
$PUCSORGLEFT
 10
0.0
 20
0.0
 30
0.0
  9
$PUCSORGRIGHT
 10
0.0
 20
0.0
 30
0.0
  9
$PUCSORGFRONT
 10
0.0
 20
0.0
 30
0.0
  9
$PUCSORGBACK
 10
0.0
 20
0.0
 30
0.0
  9
$USERI1
 70
     0
  9
$USERI2
 70
     0
  9
$USERI3
 70
     0
  9
$USERI4
 70
     0
  9
$USERI5
 70
     0
  9
$USERR1
 40
0.0
  9
$USERR2
 40
0.0
  9
$USERR3
 40
0.0
  9
$USERR4
 40
0.0
  9
$USERR5
 40
0.0
  9
$WORLDVIEW
 70
     1
  9
$SHADEDGE
 70
     3
  9
$SHADEDIF
 70
    70
  9
$TILEMODE
 70
     1
  9
$MAXACTVP
 70
    48
  9
$PINSBASE
 10
0.0
 20
0.0
 30
0.0
  9
$PLIMCHECK
 70
     0
  9
$PEXTMIN
 10
0.0
 20
0.0
 30
0.0
  9
$PEXTMAX
 10
420.0
 20
297.0
 30
0.0
  9
$PLIMMIN
 10
-4.911043744612356
 20
-4.921150662038712
  9
$PLIMMAX
 10
415.0779394096844
 20
292.0894999727268
  9
$UNITMODE
 70
     0
  9
$VISRETAIN
 70
     1
  9
$PLINEGEN
 70
     0
  9
$PSLTSCALE
 70
     1
  9
$TREEDEPTH
 70
  3020
  9
$CMLSTYLE
  2
STANDARD
  9
$CMLJUST
 70
     0
  9
$CMLSCALE
 40
20.0
  9
$PROXYGRAPHICS
 70
     1
  9
$MEASUREMENT
 70
     1
  9
$CELWEIGHT
370
    -1
  9
$ENDCAPS
280
     0
  9
$JOINSTYLE
280
     0
  9
$LWDISPLAY
290
     0
  9
$INSUNITS
 70
     0
  9
$HYPERLINKBASE
  1

  9
$STYLESHEET
  1

  9
$XEDIT
290
     1
  9
$CEPSNTYPE
380
     0
  9
$PSTYLEMODE
290
     1
  9
$FINGERPRINTGUID
  2
{6FDF5DD9-E1C4-4B83-93D0-8D8DAA8CABC8}
  9
$VERSIONGUID
  2
{9B08EC99-FDFE-49A3-8462-E174351C506D}
  9
$EXTNAMES
290
     1
  9
$PSVPSCALE
 40
0.0
  9
$OLESTARTUP
290
     0
  0
ENDSEC
  0
SECTION
  2
CLASSES
  0
CLASS
  1
LWPOLYLINE
  2
AcDbPolyline
  3
AutoCAD 2000
 90
    32768
280
     0
281
     1
  0
CLASS
  1
HATCH
  2
AcDbHatch
  3
AutoCAD 2000
 90
    32768
280
     0
281
     1
  0
CLASS
  1
ACDBDICTIONARYWDFLT
  2
AcDbDictionaryWithDefault
  3
AutoCAD 2000
 90
        0
280
     0
281
     0
  0
CLASS
  1
ACDBPLACEHOLDER
  2
AcDbPlaceHolder
  3
AutoCAD 2000
 90
        0
280
     0
281
     0
  0
CLASS
  1
LAYOUT
  2
AcDbLayout
  3
AutoCAD 2000
 90
        0
280
     0
281
     0
  0
CLASS
  1
DICTIONARYVAR
  2
AcDbDictionaryVar
  3
AutoCAD 2000
 90
        0
280
     0
281
     0
  0
CLASS
  1
LONG_TRANSACTION
  2
AcDbLongTransaction
  3
AutoCAD 2000
 90
    32768
280
     0
281
     0
  0
CLASS
  1
LWPOLYLINE
  2
AcDbPolyline
  3
AutoCAD 2000
 90
    32768
280
     0
281
     1
  0
CLASS
  1
HATCH
  2
AcDbHatch
  3
AutoCAD 2000
 90
    32768
280
     0
281
     1
  0
CLASS
  1
XRECORD
  2
AcDbXrecord
  3
AutoCAD 2000
 90
    32768
280
     0
281
     0
  0
CLASS
  1
OLE2FRAME
  2
AcDbOle2Frame
  3
AutoCAD 2000
 90
    32768
280
     0
281
     1
  0
CLASS
  1
SORTENTSTABLE
  2
AcDbSortentsTable
  3
AutoCAD 2000
 90
        0
280
     0
281
     0
  0
CLASS
  1
VISUALSTYLE
  2
AcDbVisualStyle
  3
ObjectDBX Classes
 90
    36863
280
     0
281
     0
  0
CLASS
  1
SCALE
  2
AcDbScale
  3
ObjectDBX Classes
 90
     1153
280
     0
281
     0
  0
CLASS
  1
MATERIAL
  2
AcDbMaterial
  3
ObjectDBX Classes
 90
    33921
280
     0
281
     0
  0
CLASS
  1
TABLESTYLE
  2
AcDbTableStyle
  3
ObjectDBX Classes
 90
    36863
280
     0
281
     0
  0
CLASS
  1
SUN
  2
AcDbSun
  3
SCENEOE
 90
    33921
280
     0
281
     0
  0
CLASS
  1
RASTERVARIABLES
  2
AcDbRasterVariables
  3
ISM
 90
        0
280
     0
281
     0
  0
ENDSEC
  0
SECTION
  2
TABLES
  0
TABLE
  2
VPORT
  5
8
330
0
100
AcDbSymbolTable
 70
     2
  0
VPORT
  5
1AEFE
330
8
100
AcDbSymbolTableRecord
100
AcDbViewportTableRecord
  2
*Active
 70
     0
 10
0.0
 20
0.0
 11
1.0
 21
1.0
 12
716.9051576477995
 22
-3369.68601521563
 13
0.0
 23
0.0
 14
10.0
 24
10.0
 15
10.0
 25
10.0
 16
0.0
 26
0.0
 36
1.0
 17
0.0
 27
0.0
 37
0.0
 40
488.1092397321108
 41
2.319634703196347
 42
50.0
 43
0.0
 44
0.0
 50
0.0
 51
0.0
 71
    16
 72
   100
 73
     1
 74
     1
 75
     0
 76
     0
 77
     0
 78
     0
281
     0
 65
     1
110
0.0
120
0.0
130
0.0
111
1.0
121
0.0
131
0.0
112
0.0
122
1.0
132
0.0
 79
     0
146
0.0
  0
ENDTAB
  0
TABLE
  2
LTYPE
  5
5
330
0
100
AcDbSymbolTable
 70
     1
  0
LTYPE
  5
12
330
5
100
AcDbSymbolTableRecord
100
AcDbLinetypeTableRecord
  2
BYBLOCK
 70
     0
  3

 72
    65
 73
     0
 40
0.0
  0
LTYPE
  5
13
330
5
100
AcDbSymbolTableRecord
100
AcDbLinetypeTableRecord
  2
BYLAYER
 70
     0
  3

 72
    65
 73
     0
 40
0.0
  0
LTYPE
  5
14
330
5
100
AcDbSymbolTableRecord
100
AcDbLinetypeTableRecord
  2
CONTINUOUS
 70
     0
  3
Solid line
 72
    65
 73
     0
 40
0.0
  0
ENDTAB
  0
TABLE
  2
LAYER
  5
2
102
{ACAD_XDICTIONARY
360
10A43
102
}
330
0
100
AcDbSymbolTable
 70
     8
  0
LAYER
  5
E
330
2
100
AcDbSymbolTableRecord
100
AcDbLayerTableRecord
  2
0
 70
     0
 62
     7
  6
CONTINUOUS
370
    -3
390
1B72
  0
LAYER
  5
24
330
2
100
AcDbSymbolTableRecord
100
AcDbLayerTableRecord
  2
図面範囲
 70
     0
 62
    -7
  6
CONTINUOUS
370
    -3
390
1B72
  0
LAYER
  5
2E
330
2
100
AcDbSymbolTableRecord
100
AcDbLayerTableRecord
  2
外枠
 70
     0
 62
     7
  6
CONTINUOUS
370
    -3
390
1B72
  0
LAYER
  5
10A
330
2
100
AcDbSymbolTableRecord
100
AcDbLayerTableRecord
  2
VIEWPORT枠
 70
     0
 62
    -7
  6
CONTINUOUS
370
    -3
390
1B72
  0
LAYER
  5
16C
330
2
100
AcDbSymbolTableRecord
100
AcDbLayerTableRecord
  2
DEFPOINTS
 70
     0
 62
    -7
  6
CONTINUOUS
290
     0
370
    -3
390
1B72
  0
LAYER
  5
172
330
2
100
AcDbSymbolTableRecord
100
AcDbLayerTableRecord
  2
1
 70
     0
 62
     3
  6
CONTINUOUS
370
    -3
390
1B72
  0
LAYER
  5
10A42
330
2
100
AcDbSymbolTableRecord
100
AcDbLayerTableRecord
  2
3_表示パネル
 70
     0
 62
     7
  6
CONTINUOUS
370
    -3
390
1B72
  0
LAYER
  5
16E9E
330
2
100
AcDbSymbolTableRecord
100
AcDbLayerTableRecord
  2
外形
 70
     0
 62
     3
  6
CONTINUOUS
370
    25
390
1B72
  0
ENDTAB
  0
TABLE
  2
STYLE
  5
3
330
0
100
AcDbSymbolTable
 70
     3
  0
STYLE
  5
F
330
3
100
AcDbSymbolTableRecord
100
AcDbTextStyleTableRecord
  2
STANDARD
 70
     0
 40
0.0
 41
0.8
 50
0.0
 71
     0
 42
3.799999999999999
  3
txt.shx
  4

  0
STYLE
  5
2F
330
3
100
AcDbSymbolTableRecord
100
AcDbTextStyleTableRecord
  2
BIGFONT
 70
     0
 40
0.0
 41
1.0
 50
0.0
 71
     0
 42
1.913529
  3
txt
  4
bigfont
  0
STYLE
  5
1AA98
330
3
100
AcDbSymbolTableRecord
100
AcDbTextStyleTableRecord
  2
romans
 70
     0
 40
0.0
 41
0.8
 50
0.0
 71
     0
 42
3.5
  3
romans.shx
  4
bigfont.shx
  0
ENDTAB
  0
TABLE
  2
VIEW
  5
6
330
0
100
AcDbSymbolTable
 70
     0
  0
ENDTAB
  0
TABLE
  2
UCS
  5
7
330
0
100
AcDbSymbolTable
 70
     0
  0
ENDTAB
  0
TABLE
  2
APPID
  5
9
330
0
100
AcDbSymbolTable
 70
     5
  0
APPID
  5
10
330
9
100
AcDbSymbolTableRecord
100
AcDbRegAppTableRecord
  2
ACAD
 70
     0
  0
APPID
  5
309
330
9
100
AcDbSymbolTableRecord
100
AcDbRegAppTableRecord
  2
CONTENTBLOCKDESCRIPTION
 70
     0
  0
APPID
  5
30B
330
9
100
AcDbSymbolTableRecord
100
AcDbRegAppTableRecord
  2
CONTENTTABDATA
 70
     0
  0
APPID
  5
30C
330
9
100
AcDbSymbolTableRecord
100
AcDbRegAppTableRecord
  2
CONTENTCURRENTTAB
 70
     0
  0
APPID
  5
348
330
9
100
AcDbSymbolTableRecord
100
AcDbRegAppTableRecord
  2
CONTENTBLOCKICON
 70
     0
  0
ENDTAB
  0
TABLE
  2
DIMSTYLE
  5
A
330
0
100
AcDbSymbolTable
 70
     1
100
AcDbDimStyleTable
 71
     1
340
1AA99
  0
DIMSTYLE
105
1AA99
330
A
100
AcDbSymbolTableRecord
100
AcDbDimStyleTableRecord
  2
iai
 70
     0
 41
2.5
 42
1.0
 43
8.0
 44
1.0
 73
     0
 74
     0
 77
     3
 78
     9
 79
     2
140
2.5
141
0.0
147
1.0
172
     1
176
     3
177
     3
178
     2
179
     5
271
     5
272
     5
276
     2
284
    12
340
1AA98
341
1AA06
342
1AA06
371
    -1
372
    -1
  0
ENDTAB
  0
TABLE
  2
BLOCK_RECORD
  5
1
330
0
100
AcDbSymbolTable
 70
     6
  0
BLOCK_RECORD
  5
18
102
{ACAD_XDICTIONARY
360
87B9
102
}
330
1
100
AcDbSymbolTableRecord
100
AcDbBlockTableRecord
  2
*MODEL_SPACE
340
1B75
  0
BLOCK_RECORD
  5
1A4A9
330
1
100
AcDbSymbolTableRecord
100
AcDbBlockTableRecord
  2
*PAPER_SPACE
340
1A501
  0
BLOCK_RECORD
  5
2A
330
1
100
AcDbSymbolTableRecord
100
AcDbBlockTableRecord
  2
A$C338010C9
340
0
310
280000002000000020000000010004000000000000020000000000000000000000000000000000000000000000008000008000000080800080000000800080008080000080808000C0C0C0000000FF0000FF000000FFFF00FF000000FF00FF00FFFF0000FFFFFF00FFFFFFFFFFFFFFFFFFFFFFFFFFFFFFFFFFFFFFFFFFFFFF
310
FFFFFFFFFFFFFFFFFFFFFFFFFFFFFFFFFFFFFFFFFFFFFFFFFFFFFFFFFFFFFFFFFFFFFFFFFFFFFFFFFFFFFFFFFFFFFFFFFFFFFFFFFFFFFFFFFFFFFFFFFFFFFFFFFFFFFFFFFFFFFFFFFFFFFFFFFFFFFFFFFFFFFFFFFFFFFFFFFFFFFFFFFFFFFFFFFFFFFFFFFFFFFFFFFFFFFFFFFFFFFFFFFFFFFFFFFFFFFFFFFFFFFFFFFFFFFF
310
FFFFFFFFFFFFFFFFFFFFFFFFFFFFFFFFFFFFFFFFFFFFFFFFFFFFFFFFFFFFFFFFFFFFFFFFFFFFFFFFFFFFFFFFFFFFFFFFFFFFFFFFFFFFFFFFFFFFFFFFFFFFFFFFFFFFFFFFFFFFFFFFFFFFFFFFFFFFFFFFFFFFFFFFFFFFFFFFFFFF0F0F0F0FF0F0FFF00F0F0F0F00F0F00F0F000F0F0FF0FFF0FFF00F00000F000F0FF00F0F0F
310
0F0FF00FFF00FF0FF0F0FF0FF0FF0FFFFFFFFFFFFFFFFFFFFFFFFFFFFFFFFFFFFFFFFFFFFFFFFFFFFFFFFFFFFFFFFFFFFFFFFFFFFFFFFFFFFFFFFFFFFFFFFFFFFFFFFFFFFFFFFFFFFFFFFFFFFFFFFFFFFFFFFFFFFFFFFFFFFFFFFFFFFFFFFFFFFFFFFFFFFFFFFFFFFFFFFFFFFFFFFFFFFFFFFFFFFFFFFFFFFFFFFFFFFFFFFF
310
FFFFFFFFFFFFFFFFFFFFFFFFFFFFFFFFFFFFFFFFFFFFFFFFFFFFFFFFFFFFFFFFFFFFFFFFFFFFFFFFFFFFFFFFFFFFFFFFFFFFFFFFFFFFFFFFFFFFFFFFFFFFFFFFFFFFFFFFFFFFFFFFFFFFFFFFFFFFFFFFFFFFFFFFFFFFFFFFFFFFFFFFFFFFFFFFFFFFFFFFFFFFFFFFFFFFFFFF
102
{BLKREFS
331
1A4FA
102
}
  0
BLOCK_RECORD
  5
EED1
330
1
100
AcDbSymbolTableRecord
100
AcDbBlockTableRecord
  2
A$C7A762DB8
340
0
102
{BLKREFS
331
17EDF
102
}
  0
BLOCK_RECORD
  5
FD45
330
1
100
AcDbSymbolTableRecord
100
AcDbBlockTableRecord
  2
A$C413B70EE
340
0
102
{BLKREFS
331
17EE0
102
}
  0
BLOCK_RECORD
  5
19F7E
330
1
100
AcDbSymbolTableRecord
100
AcDbBlockTableRecord
  2
A$C60EC01A6
340
0
102
{BLKREFS
331
1A64E
102
}
  0
BLOCK_RECORD
  5
1A1B9
330
1
100
AcDbSymbolTableRecord
100
AcDbBlockTableRecord
  2
A$C582506EE
340
0
102
{BLKREFS
331
1A64F
102
}
  0
BLOCK_RECORD
  5
1AA06
330
1
100
AcDbSymbolTableRecord
100
AcDbBlockTableRecord
  2
_Open
340
0
  0
ENDTAB
  0
ENDSEC
  0
SECTION
  2
BLOCKS
  0
BLOCK
  5
19
330
18
100
AcDbEntity
  8
0
100
AcDbBlockBegin
  2
*MODEL_SPACE
 70
     0
 10
0.0
 20
0.0
 30
0.0
  3
*MODEL_SPACE
  1
*MODEL_SPACE
  0
ENDBLK
  5
1A
330
18
100
AcDbEntity
  8
0
100
AcDbBlockEnd
  0
BLOCK
  5
1A4FF
330
1A4A9
100
AcDbEntity
 67
     1
  8
0
100
AcDbBlockBegin
  2
*PAPER_SPACE
 70
     0
 10
0.0
 20
0.0
 30
0.0
  3
*PAPER_SPACE
  1
*PAPER_SPACE
  0
ENDBLK
  5
1A500
330
1A4A9
100
AcDbEntity
 67
     1
  8
0
100
AcDbBlockEnd
  0
BLOCK
  5
2C
330
2A
100
AcDbEntity
  8
0
100
AcDbBlockBegin
  2
A$C338010C9
 70
     0
 10
0.0
 20
0.0
 30
0.0
  3
A$C338010C9
  1
A$C338010C9
  0
HATCH
  5
2B
330
2A
100
AcDbEntity
  8
0
100
AcDbHatch
 10
0.0
 20
0.0
 30
0.0
210
0.0
220
0.0
230
1.0
  2
SOLID
 70
     1
 71
     0
 91
       21
 92
        1
 93
        4
 72
     1
 10
0.0
 20
2.678357
 11
2.678357
 21
19.046092
 72
     1
 10
2.678357
 20
19.046092
 11
6.844689999999999
 21
19.046092
 72
     1
 10
6.844689999999999
 20
19.046092
 11
3.868737999999999
 21
2.678356999999998
 72
     1
 10
3.868737999999999
 20
2.678357
 11
0.0
 21
2.678357
 97
        0
 92
       16
 93
        3
 72
     1
 10
19.04609299999999
 20
14.87976
 11
20.23647299999999
 21
8.927856
 72
     1
 10
20.23647299999999
 20
8.927856
 11
15.77254599999999
 21
8.927856
 72
     1
 10
15.77254599999999
 20
8.927856
 11
19.04609299999999
 21
14.87976
 97
        0
 92
        1
 93
        8
 72
     1
 10
12.20140299999999
 20
2.678357
 11
13.98697399999999
 21
5.951903999999999
 72
     1
 10
13.98697399999999
 20
5.951903999999999
 11
20.831664
 21
5.951903999999999
 72
     1
 10
20.831664
 20
5.951903999999999
 11
21.426854
 21
2.678357
 72
     1
 10
21.426854
 20
2.678357
 11
25.593187
 21
2.678357
 72
     1
 10
25.593187
 20
2.678357
 11
22.022045
 21
19.046092
 72
     1
 10
22.022045
 20
19.046092
 11
17.558117
 21
19.046092
 72
     1
 10
17.558117
 20
19.046092
 11
8.035071
 21
2.678356999999998
 72
     1
 10
8.035071
 20
2.678357
 11
12.20140299999999
 21
2.678357
 97
        0
 92
        1
 93
        4
 72
     1
 10
30.35470999999999
 20
2.678357
 11
33.33066199999999
 21
19.046092
 72
     1
 10
33.33066199999999
 20
19.046092
 11
37.19939899999999
 21
19.046092
 72
     1
 10
37.19939899999999
 20
19.046092
 11
34.223447
 21
2.678356999999998
 72
     1
 10
34.223447
 20
2.678357
 11
30.35470999999999
 21
2.678357
 97
        0
 92
        1
 93
       53
 72
     1
 10
58.031063
 20
14.284569
 11
57.138277
 21
16.07014099999999
 72
     1
 10
57.138277
 20
16.07014099999999
 11
56.245491
 21
16.66533099999999
 72
     1
 10
56.245491
 20
16.66533099999999
 11
55.05511099999999
 21
17.260521
 72
     1
 10
55.05511099999999
 20
17.260521
 11
53.86473
 21
17.558116
 72
     1
 10
53.86473
 20
17.558116
 11
52.376754
 21
17.558116
 72
     1
 10
52.376754
 20
17.558116
 11
50.888778
 21
17.558116
 72
     1
 10
50.888778
 20
17.558116
 11
49.10320699999999
 21
17.260521
 72
     1
 10
49.10320699999999
 20
17.260521
 11
47.912826
 21
16.66533099999999
 72
     1
 10
47.912826
 20
16.66533099999999
 11
46.722445
 21
15.772545
 72
     1
 10
46.722445
 20
15.772545
 11
45.23446899999999
 21
14.58216499999999
 72
     1
 10
45.23446899999999
 20
14.58216499999999
 11
44.34168399999999
 21
13.39178399999999
 72
     1
 10
44.34168399999999
 20
13.39178399999999
 11
43.746493
 21
11.903808
 72
     1
 10
43.746493
 20
11.903808
 11
43.151303
 21
10.11823699999999
 72
     1
 10
43.151303
 20
10.11823699999999
 11
42.853708
 21
8.332665999999999
 72
     1
 10
42.853708
 20
8.332665999999999
 11
43.151303
 21
6.844689999999999
 72
     1
 10
43.151303
 20
6.844689999999999
 11
43.746493
 21
5.654308999999999
 72
     1
 10
43.746493
 20
5.654308999999999
 11
44.34168399999999
 21
4.463928
 72
     1
 10
44.34168399999999
 20
4.463928
 11
45.532065
 21
3.571143
 72
     1
 10
45.532065
 20
3.571143
 11
46.722445
 21
2.975951999999999
 72
     1
 10
46.722445
 20
2.975951999999999
 11
48.210421
 21
2.678357
 72
     1
 10
48.210421
 20
2.678357
 11
49.698397
 21
2.678357
 72
     1
 10
49.698397
 20
2.678357
 11
51.18637299999999
 21
2.678357
 72
     1
 10
51.18637299999999
 20
2.678357
 11
52.674349
 21
2.975951999999999
 72
     1
 10
52.674349
 20
2.975951999999999
 11
53.86473
 21
3.273547
 72
     1
 10
53.86473
 20
3.273547
 11
55.05511099999999
 21
3.868737999999999
 72
     1
 10
55.05511099999999
 20
3.868737999999999
 11
55.94789599999999
 21
4.761523
 72
     1
 10
55.94789599999999
 20
4.761523
 11
56.543087
 21
5.654308999999999
 72
     1
 10
56.543087
 20
5.654308999999999
 11
57.138277
 21
6.844689999999999
 72
     1
 10
57.138277
 20
6.844689999999999
 11
57.73346700000001
 21
8.035069999999999
 72
     1
 10
57.73346700000001
 20
8.035069999999999
 11
54.45992
 21
8.035069999999999
 72
     1
 10
54.45992
 20
8.035069999999999
 11
53.86473
 21
6.844689999999999
 72
     1
 10
53.86473
 20
6.844689999999999
 11
52.97194399999999
 21
5.951903999999999
 72
     1
 10
52.97194399999999
 20
5.951903999999999
 11
51.781564
 21
5.356714
 72
     1
 10
51.781564
 20
5.356714
 11
50.293588
 21
5.059117999999999
 72
     1
 10
50.293588
 20
5.059117999999999
 11
48.508016
 21
5.356714
 72
     1
 10
48.508016
 20
5.356714
 11
47.31763599999999
 21
6.249499
 72
     1
 10
47.31763599999999
 20
6.249499
 11
47.02004099999999
 21
6.844689999999999
 72
     1
 10
47.02004099999999
 20
6.844689999999999
 11
46.42484999999999
 21
7.737474999999999
 72
     1
 10
46.42484999999999
 20
7.737474999999999
 11
46.42484999999999
 21
8.927856
 72
     1
 10
46.42484999999999
 20
8.927856
 11
46.722445
 21
10.11823699999999
 72
     1
 10
46.722445
 20
10.11823699999999
 11
47.02004099999999
 21
11.308617
 72
     1
 10
47.02004099999999
 20
11.308617
 11
47.31763599999999
 21
12.498998
 72
     1
 10
47.31763599999999
 20
12.498998
 11
47.912826
 21
13.39178399999999
 72
     1
 10
47.912826
 20
13.39178399999999
 11
48.80561199999999
 21
13.98697399999999
 72
     1
 10
48.80561199999999
 20
13.98697399999999
 11
50.293588
 21
14.87976
 72
     1
 10
50.293588
 20
14.87976
 11
51.781564
 21
15.17735499999999
 72
     1
 10
51.781564
 20
15.17735499999999
 11
53.26954
 21
14.87976
 72
     1
 10
53.26954
 20
14.87976
 11
54.45992
 21
14.284569
 72
     1
 10
54.45992
 20
14.284569
 11
54.75751500000001
 21
13.39178399999999
 72
     1
 10
54.75751500000001
 20
13.39178399999999
 11
55.05511099999999
 21
12.498998
 72
     1
 10
55.05511099999999
 20
12.498998
 11
58.328658
 21
12.498998
 72
     1
 10
58.328658
 20
12.498998
 11
58.328658
 21
13.39178399999999
 72
     1
 10
58.328658
 20
13.39178399999999
 11
58.031063
 21
14.284569
 97
        0
 92
        1
 93
       14
 72
     1
 10
78.26753499999999
 20
13.094189
 11
77.37475
 21
12.498998
 72
     1
 10
77.37475
 20
12.498998
 11
76.77956
 21
11.903808
 72
     1
 10
76.77956
 20
11.903808
 11
77.077155
 21
13.689379
 72
     1
 10
77.077155
 20
13.689379
 11
73.50601199999999
 21
13.689379
 72
     1
 10
73.50601199999999
 20
13.689379
 11
71.720441
 21
2.678357
 72
     1
 10
71.720441
 20
2.678357
 11
74.993988
 21
2.678357
 72
     1
 10
74.993988
 20
2.678357
 11
76.18436899999998
 21
8.927856
 72
     1
 10
76.18436899999998
 20
8.927856
 11
76.77956
 21
10.11823699999999
 72
     1
 10
76.77956
 20
10.11823699999999
 11
77.67234499999999
 21
10.713427
 72
     1
 10
77.67234499999999
 20
10.713427
 11
78.86272599999999
 21
11.011022
 72
     1
 10
78.86272599999999
 20
11.011022
 11
80.053107
 21
10.713427
 72
     1
 10
80.053107
 20
10.713427
 11
80.648297
 21
13.689379
 72
     1
 10
80.648297
 20
13.689379
 11
79.45791599999999
 21
13.689379
 72
     1
 10
79.45791599999999
 20
13.689379
 11
78.26753499999999
 21
13.094189
 97
        0
 92
        1
 93
       14
 72
     1
 10
113.681363
 20
13.094189
 11
112.7885779999999
 21
12.498998
 72
     1
 10
112.7885779999999
 20
12.498998
 11
111.8957919999999
 21
11.903808
 72
     1
 10
111.8957919999999
 20
11.903808
 11
112.193387
 21
13.689379
 72
     1
 10
112.193387
 20
13.689379
 11
108.9198399999999
 21
13.689379
 72
     1
 10
108.9198399999999
 20
13.689379
 11
107.1342689999999
 21
2.678357
 72
     1
 10
107.1342689999999
 20
2.678357
 11
110.407816
 21
2.678357
 72
     1
 10
110.407816
 20
2.678357
 11
111.5981969999999
 21
8.927856
 72
     1
 10
111.5981969999999
 20
8.927856
 11
112.193387
 21
10.11823699999999
 72
     1
 10
112.193387
 20
10.11823699999999
 11
113.086173
 21
10.713427
 72
     1
 10
113.086173
 20
10.713427
 11
114.276554
 21
11.011022
 72
     1
 10
114.276554
 20
11.011022
 11
115.466934
 21
10.713427
 72
     1
 10
115.466934
 20
10.713427
 11
116.0621249999999
 21
13.689379
 72
     1
 10
116.0621249999999
 20
13.689379
 11
114.8717439999999
 21
13.689379
 72
     1
 10
114.8717439999999
 20
13.689379
 11
113.681363
 21
13.094189
 97
        0
 92
        1
 93
       24
 72
     1
 10
133.917836
 20
13.39178399999999
 11
133.917836
 21
13.689379
 72
     1
 10
133.917836
 20
13.689379
 11
134.2154309999999
 21
16.36773599999999
 72
     1
 10
134.2154309999999
 20
16.36773599999999
 11
130.941884
 21
16.36773599999999
 72
     1
 10
130.941884
 20
16.36773599999999
 11
130.3466939999999
 21
13.689379
 72
     1
 10
130.3466939999999
 20
13.689379
 11
130.3466939999999
 21
13.39178399999999
 72
     1
 10
130.3466939999999
 20
13.39178399999999
 11
128.8587179999999
 21
13.39178399999999
 72
     1
 10
128.8587179999999
 20
13.39178399999999
 11
128.561123
 21
11.903808
 72
     1
 10
128.561123
 20
11.903808
 11
130.049099
 21
11.903808
 72
     1
 10
130.049099
 20
11.903808
 11
128.8587179999999
 21
4.463928
 72
     1
 10
128.8587179999999
 20
4.463928
 11
128.8587179999999
 21
3.571143
 72
     1
 10
128.8587179999999
 20
3.571143
 11
129.1563129999999
 21
2.975951999999999
 72
     1
 10
129.1563129999999
 20
2.975951999999999
 11
130.049099
 21
2.678357
 72
     1
 10
130.049099
 20
2.678357
 11
131.5370749999999
 21
2.380761999999999
 72
     1
 10
131.5370749999999
 20
2.380761999999999
 11
132.42986
 21
2.380761999999999
 72
     1
 10
132.42986
 20
2.380761999999999
 11
133.620241
 21
2.678357
 72
     1
 10
133.620241
 20
2.678357
 11
133.917836
 21
4.463928
 72
     1
 10
133.917836
 20
4.463928
 11
133.0250509999999
 21
4.463928
 72
     1
 10
133.0250509999999
 20
4.463928
 11
132.727455
 21
4.463928
 72
     1
 10
132.727455
 20
4.463928
 11
132.42986
 21
4.761523
 72
     1
 10
132.42986
 20
4.761523
 11
132.42986
 21
5.059117999999999
 72
     1
 10
132.42986
 20
5.059117999999999
 11
133.620241
 21
11.903808
 72
     1
 10
133.620241
 20
11.903808
 11
135.1082169999999
 21
11.903808
 72
     1
 10
135.1082169999999
 20
11.903808
 11
135.4058119999999
 21
13.39178399999999
 72
     1
 10
135.4058119999999
 20
13.39178399999999
 11
133.917836
 21
13.39178399999999
 97
        0
 92
        1
 93
        4
 72
     1
 10
136.893788
 20
13.39178399999999
 11
135.1082169999999
 21
2.678357
 72
     1
 10
135.1082169999999
 20
2.678357
 11
138.3817639999999
 21
2.678357
 72
     1
 10
138.3817639999999
 20
2.678357
 11
140.167335
 21
13.39178399999999
 72
     1
 10
140.167335
 20
13.39178399999999
 11
136.893788
 21
13.39178399999999
 97
        0
 92
        1
 93
        4
 72
     1
 10
137.4889779999999
 20
17.260521
 11
137.191383
 21
14.58216499999999
 72
     1
 10
137.191383
 20
14.58216499999999
 11
140.46493
 21
14.58216499999999
 72
     1
 10
140.46493
 20
14.58216499999999
 11
140.762525
 21
17.260521
 72
     1
 10
140.762525
 20
17.260521
 11
137.4889779999999
 21
17.260521
 97
        0
 92
        1
 93
       31
 72
     1
 10
166.0581169999999
 20
12.796593
 11
164.867736
 21
13.39178399999999
 72
     1
 10
164.867736
 20
13.39178399999999
 11
163.37976
 21
13.689379
 72
     1
 10
163.37976
 20
13.689379
 11
162.189379
 21
13.689379
 72
     1
 10
162.189379
 20
13.689379
 11
160.9989979999999
 21
13.39178399999999
 72
     1
 10
160.9989979999999
 20
13.39178399999999
 11
160.106213
 21
12.796593
 72
     1
 10
160.106213
 20
12.796593
 11
158.9158319999999
 21
12.20140299999999
 72
     1
 10
158.9158319999999
 20
12.20140299999999
 11
159.213427
 21
13.689379
 72
     1
 10
159.213427
 20
13.689379
 11
155.93988
 21
13.689379
 72
     1
 10
155.93988
 20
13.689379
 11
154.154309
 21
2.678357
 72
     1
 10
154.154309
 20
2.678357
 11
157.427856
 21
2.678357
 72
     1
 10
157.427856
 20
2.678357
 11
158.618237
 21
9.820641999999999
 72
     1
 10
158.618237
 20
9.820641999999999
 11
159.213427
 21
10.415832
 72
     1
 10
159.213427
 20
10.415832
 11
159.8086179999999
 21
11.011022
 72
     1
 10
159.8086179999999
 20
11.011022
 11
160.403808
 21
11.308617
 72
     1
 10
160.403808
 20
11.308617
 11
161.594189
 21
11.308617
 72
     1
 10
161.594189
 20
11.308617
 11
162.486974
 21
11.011022
 72
     1
 10
162.486974
 20
11.011022
 11
163.082165
 21
10.713427
 72
     1
 10
163.082165
 20
10.713427
 11
163.082165
 21
10.11823699999999
 72
     1
 10
163.082165
 20
10.11823699999999
 11
163.082165
 21
9.523046
 72
     1
 10
163.082165
 20
9.523046
 11
161.8917839999999
 21
2.678357
 72
     1
 10
161.8917839999999
 20
2.678357
 11
165.462926
 21
2.678357
 72
     1
 10
165.462926
 20
2.678357
 11
165.462926
 21
2.975951999999999
 72
     1
 10
165.462926
 20
2.975951999999999
 11
165.7605209999999
 21
3.868737999999999
 72
     1
 10
165.7605209999999
 20
3.868737999999999
 11
165.7605209999999
 21
5.059117999999999
 72
     1
 10
165.7605209999999
 20
5.059117999999999
 11
166.0581169999999
 21
6.547094
 72
     1
 10
166.0581169999999
 20
6.547094
 11
166.355712
 21
8.035069999999999
 72
     1
 10
166.355712
 20
8.035069999999999
 11
166.355712
 21
9.225450999999999
 72
     1
 10
166.355712
 20
9.225450999999999
 11
166.653307
 21
10.11823699999999
 72
     1
 10
166.653307
 20
10.11823699999999
 11
166.653307
 21
10.415832
 72
     1
 10
166.653307
 20
10.415832
 11
166.653307
 21
11.903808
 72
     1
 10
166.653307
 20
11.903808
 11
166.0581169999999
 21
12.796593
 97
        0
 92
        1
 93
       28
 72
     1
 10
71.125251
 20
10.713427
 11
70.232465
 21
12.498998
 72
     1
 10
70.232465
 20
12.498998
 11
69.33968
 21
13.094189
 72
     1
 10
69.33968
 20
13.094189
 11
68.446894
 21
13.39178399999999
 72
     1
 10
68.446894
 20
13.39178399999999
 11
67.25651299999999
 21
13.689379
 72
     1
 10
67.25651299999999
 20
13.689379
 11
65.76853800000001
 21
13.98697399999999
 72
     1
 10
65.76853800000001
 20
13.98697399999999
 11
64.57815699999999
 21
13.689379
 72
     1
 10
64.57815699999999
 20
13.689379
 11
63.387776
 21
13.39178399999999
 72
     1
 10
63.387776
 20
13.39178399999999
 11
62.19739499999999
 21
13.094189
 72
     1
 10
62.19739499999999
 20
13.094189
 11
61.007014
 21
12.498998
 72
     1
 10
61.007014
 20
12.498998
 11
60.114229
 21
11.606213
 72
     1
 10
60.114229
 20
11.606213
 11
59.519039
 21
10.713427
 72
     1
 10
59.519039
 20
10.713427
 11
58.62625300000001
 21
8.035069999999999
 72
     1
 10
58.62625300000001
 20
8.035069999999999
 11
58.62625300000001
 21
6.844689999999999
 72
     1
 10
58.62625300000001
 20
6.844689999999999
 11
58.62625300000001
 21
5.654308999999999
 72
     1
 10
58.62625300000001
 20
5.654308999999999
 11
59.519039
 21
3.868737999999999
 72
     1
 10
59.519039
 20
3.868737999999999
 11
60.411824
 21
3.273547
 72
     1
 10
60.411824
 20
3.273547
 11
61.30461
 21
2.975951999999999
 72
     1
 10
61.30461
 20
2.975951999999999
 11
62.792586
 21
2.678357
 72
     1
 10
62.792586
 20
2.678357
 11
63.982966
 21
2.380761999999999
 72
     1
 10
63.982966
 20
2.380761999999999
 11
65.17334699999999
 21
2.678357
 72
     1
 10
65.17334699999999
 20
2.678357
 11
66.36372800000001
 21
2.975951999999999
 72
     1
 10
66.36372800000001
 20
2.975951999999999
 11
67.554109
 21
3.273547
 72
     1
 10
67.554109
 20
3.273547
 11
68.744489
 21
3.868737999999999
 72
     1
 10
68.744489
 20
3.868737999999999
 11
69.637275
 21
4.761523
 72
     1
 10
69.637275
 20
4.761523
 11
70.232465
 21
5.654308999999999
 72
     1
 10
70.232465
 20
5.654308999999999
 11
70.827656
 21
6.844689999999999
 72
     1
 10
70.827656
 20
6.844689999999999
 11
71.125251
 21
8.035069999999999
 72
     1
 10
71.125251
 20
8.035069999999999
 11
71.125251
 21
10.713427
 97
        0
 92
       16
 93
       16
 72
     1
 10
67.554109
 20
8.035069999999999
 11
67.25651299999999
 21
6.547094
 72
     1
 10
67.25651299999999
 20
6.547094
 11
66.06613299999999
 21
5.356714
 72
     1
 10
66.06613299999999
 20
5.356714
 11
65.17334699999999
 21
5.059117999999999
 72
     1
 10
65.17334699999999
 20
5.059117999999999
 11
64.280562
 21
4.761523
 72
     1
 10
64.280562
 20
4.761523
 11
63.387776
 21
5.059117999999999
 72
     1
 10
63.387776
 20
5.059117999999999
 11
62.49499
 21
5.356714
 72
     1
 10
62.49499
 20
5.356714
 11
62.19739499999999
 21
6.547094
 72
     1
 10
62.19739499999999
 20
6.547094
 11
62.19739499999999
 21
8.035069999999999
 72
     1
 10
62.19739499999999
 20
8.035069999999999
 11
62.49499
 21
9.523046
 72
     1
 10
62.49499
 20
9.523046
 11
63.685371
 21
10.713427
 72
     1
 10
63.685371
 20
10.713427
 11
64.57815699999999
 21
11.308617
 72
     1
 10
64.57815699999999
 20
11.308617
 11
65.470942
 21
11.308617
 72
     1
 10
65.470942
 20
11.308617
 11
66.36372800000001
 21
11.308617
 72
     1
 10
66.36372800000001
 20
11.308617
 11
67.25651299999999
 21
10.713427
 72
     1
 10
67.25651299999999
 20
10.713427
 11
67.554109
 21
9.523046
 72
     1
 10
67.554109
 20
9.523046
 11
67.554109
 21
8.035069999999999
 97
        0
 92
        1
 93
       24
 72
     1
 10
93.147295
 20
10.713427
 11
92.55210500000002
 21
11.903808
 72
     1
 10
92.55210500000002
 20
11.903808
 11
91.95691399999999
 21
12.796593
 72
     1
 10
91.95691399999999
 20
12.796593
 11
90.766533
 21
13.39178399999999
 72
     1
 10
90.766533
 20
13.39178399999999
 11
88.98096200000001
 21
13.689379
 72
     1
 10
88.98096200000001
 20
13.689379
 11
87.79058199999999
 21
13.689379
 72
     1
 10
87.79058199999999
 20
13.689379
 11
86.89779599999999
 21
13.39178399999999
 72
     1
 10
86.89779599999999
 20
13.39178399999999
 11
86.00500999999999
 21
12.796593
 72
     1
 10
86.00500999999999
 20
12.796593
 11
85.112225
 21
12.20140299999999
 72
     1
 10
85.112225
 20
12.20140299999999
 11
85.40981999999999
 21
13.689379
 72
     1
 10
85.40981999999999
 20
13.689379
 11
82.136273
 21
13.689379
 72
     1
 10
82.136273
 20
13.689379
 11
79.755511
 21
0.0
 72
     1
 10
79.755511
 20
0.0
 11
83.029059
 21
0.0
 72
     1
 10
83.029059
 20
0.0
 11
83.624249
 21
3.868737999999999
 72
     1
 10
83.624249
 20
3.868737999999999
 11
84.219439
 21
3.273547
 72
     1
 10
84.219439
 20
3.273547
 11
84.81463000000001
 21
2.678357
 72
     1
 10
84.81463000000001
 20
2.678357
 11
85.707415
 21
2.380761999999999
 72
     1
 10
85.707415
 20
2.380761999999999
 11
86.600201
 21
2.380761999999999
 72
     1
 10
86.600201
 20
2.380761999999999
 11
88.683367
 21
2.678357
 72
     1
 10
88.683367
 20
2.678357
 11
90.46893799999999
 21
3.571143
 72
     1
 10
90.46893799999999
 20
3.571143
 11
92.254509
 21
5.356714
 72
     1
 10
92.254509
 20
5.356714
 11
92.55210500000002
 21
6.547094
 72
     1
 10
92.55210500000002
 20
6.547094
 11
92.84969999999999
 21
7.737474999999999
 72
     1
 10
92.84969999999999
 20
7.737474999999999
 11
93.147295
 21
9.225450999999999
 72
     1
 10
93.147295
 20
9.225450999999999
 11
93.147295
 21
10.713427
 97
        0
 92
       16
 93
       16
 72
     1
 10
89.576153
 20
8.035069999999999
 11
89.27855799999999
 21
6.249499
 72
     1
 10
89.27855799999999
 20
6.249499
 11
88.088177
 21
5.059117999999999
 72
     1
 10
88.088177
 20
5.059117999999999
 11
87.49298600000001
 21
4.761523
 72
     1
 10
87.49298600000001
 20
4.761523
 11
86.30260600000001
 21
4.463928
 72
     1
 10
86.30260600000001
 20
4.463928
 11
85.40981999999999
 21
4.761523
 72
     1
 10
85.40981999999999
 20
4.761523
 11
84.81463000000001
 21
5.059117999999999
 72
     1
 10
84.81463000000001
 20
5.059117999999999
 11
84.219439
 21
6.249499
 72
     1
 10
84.219439
 20
6.249499
 11
84.219439
 21
8.035069999999999
 72
     1
 10
84.219439
 20
8.035069999999999
 11
84.81463000000001
 21
9.523046
 72
     1
 10
84.81463000000001
 20
9.523046
 11
86.00500999999999
 21
10.713427
 72
     1
 10
86.00500999999999
 20
10.713427
 11
86.600201
 21
11.011022
 72
     1
 10
86.600201
 20
11.011022
 11
87.49298600000001
 21
11.308617
 72
     1
 10
87.49298600000001
 20
11.308617
 11
88.683367
 21
11.011022
 72
     1
 10
88.683367
 20
11.011022
 11
89.27855799999999
 21
10.713427
 72
     1
 10
89.27855799999999
 20
10.713427
 11
89.87374799999999
 21
9.523046
 72
     1
 10
89.87374799999999
 20
9.523046
 11
89.576153
 21
8.035069999999999
 97
        0
 92
        1
 93
       31
 72
     1
 10
106.241483
 20
10.713427
 11
105.9438879999999
 21
11.606213
 72
     1
 10
105.9438879999999
 20
11.606213
 11
105.3486979999999
 21
12.498998
 72
     1
 10
105.3486979999999
 20
12.498998
 11
104.7535069999999
 21
13.094189
 72
     1
 10
104.7535069999999
 20
13.094189
 11
103.563127
 21
13.39178399999999
 72
     1
 10
103.563127
 20
13.39178399999999
 11
102.3727459999999
 21
13.689379
 72
     1
 10
102.3727459999999
 20
13.689379
 11
101.1823649999999
 21
13.98697399999999
 72
     1
 10
101.1823649999999
 20
13.98697399999999
 11
99.991984
 21
13.689379
 72
     1
 10
99.991984
 20
13.689379
 11
98.504008
 21
13.39178399999999
 72
     1
 10
98.504008
 20
13.39178399999999
 11
97.611223
 21
13.094189
 72
     1
 10
97.611223
 20
13.094189
 11
96.42084200000001
 21
12.498998
 72
     1
 10
96.42084200000001
 20
12.498998
 11
95.52805699999998
 21
11.606213
 72
     1
 10
95.52805699999998
 20
11.606213
 11
94.93286600000001
 21
10.713427
 72
     1
 10
94.93286600000001
 20
10.713427
 11
94.33767600000001
 21
9.225450999999999
 72
     1
 10
94.33767600000001
 20
9.225450999999999
 11
94.040081
 21
8.035069999999999
 72
     1
 10
94.040081
 20
8.035069999999999
 11
93.742485
 21
6.844689999999999
 72
     1
 10
93.742485
 20
6.844689999999999
 11
94.040081
 21
5.654308999999999
 72
     1
 10
94.040081
 20
5.654308999999999
 11
94.33767600000001
 21
4.761523
 72
     1
 10
94.33767600000001
 20
4.761523
 11
94.93286600000001
 21
3.868737999999999
 72
     1
 10
94.93286600000001
 20
3.868737999999999
 11
95.82565200000001
 21
3.273547
 72
     1
 10
95.82565200000001
 20
3.273547
 11
96.718437
 21
2.975951999999999
 72
     1
 10
96.718437
 20
2.975951999999999
 11
97.90881800000001
 21
2.678357
 72
     1
 10
97.90881800000001
 20
2.678357
 11
99.099199
 21
2.380761999999999
 72
     1
 10
99.099199
 20
2.380761999999999
 11
100.587175
 21
2.678357
 72
     1
 10
100.587175
 20
2.678357
 11
101.777556
 21
2.975951999999999
 72
     1
 10
101.777556
 20
2.975951999999999
 11
102.967936
 21
3.273547
 72
     1
 10
102.967936
 20
3.273547
 11
103.860722
 21
3.868737999999999
 72
     1
 10
103.860722
 20
3.868737999999999
 11
105.6462929999999
 21
5.654308999999999
 72
     1
 10
105.6462929999999
 20
5.654308999999999
 11
105.9438879999999
 21
6.844689999999999
 72
     1
 10
105.9438879999999
 20
6.844689999999999
 11
106.241483
 21
8.035069999999999
 72
     1
 10
106.241483
 20
8.035069999999999
 11
106.5390789999999
 21
9.225450999999999
 72
     1
 10
106.5390789999999
 20
9.225450999999999
 11
106.241483
 21
10.713427
 97
        0
 92
       16
 93
       16
 72
     1
 10
102.967936
 20
8.035069999999999
 11
102.3727459999999
 21
6.547094
 72
     1
 10
102.3727459999999
 20
6.547094
 11
101.4799599999999
 21
5.356714
 72
     1
 10
101.4799599999999
 20
5.356714
 11
100.587175
 21
5.059117999999999
 72
     1
 10
100.587175
 20
5.059117999999999
 11
99.694389
 21
4.761523
 72
     1
 10
99.694389
 20
4.761523
 11
98.504008
 21
5.059117999999999
 72
     1
 10
98.504008
 20
5.059117999999999
 11
97.90881800000001
 21
5.356714
 72
     1
 10
97.90881800000001
 20
5.356714
 11
97.31362800000001
 21
6.547094
 72
     1
 10
97.31362800000001
 20
6.547094
 11
97.31362800000001
 21
8.035069999999999
 72
     1
 10
97.31362800000001
 20
8.035069999999999
 11
97.90881800000001
 21
9.523046
 72
     1
 10
97.90881800000001
 20
9.523046
 11
98.80160400000001
 21
10.713427
 72
     1
 10
98.80160400000001
 20
10.713427
 11
99.694389
 21
11.308617
 72
     1
 10
99.694389
 20
11.308617
 11
100.88477
 21
11.308617
 72
     1
 10
100.88477
 20
11.308617
 11
101.777556
 21
11.308617
 72
     1
 10
101.777556
 20
11.308617
 11
102.3727459999999
 21
10.713427
 72
     1
 10
102.3727459999999
 20
10.713427
 11
102.967936
 21
9.523046
 72
     1
 10
102.967936
 20
9.523046
 11
102.967936
 21
8.035069999999999
 97
        0
 92
        1
 93
       50
 72
     1
 10
127.0731469999999
 20
10.415832
 11
127.0731469999999
 21
11.606213
 72
     1
 10
127.0731469999999
 20
11.606213
 11
126.477956
 21
12.796593
 72
     1
 10
126.477956
 20
12.796593
 11
125.8827659999999
 21
13.094189
 72
     1
 10
125.8827659999999
 20
13.094189
 11
124.98998
 21
13.39178399999999
 72
     1
 10
124.98998
 20
13.39178399999999
 11
122.6092189999999
 21
13.689379
 72
     1
 10
122.6092189999999
 20
13.689379
 11
121.4188379999999
 21
13.689379
 72
     1
 10
121.4188379999999
 20
13.689379
 11
120.2284569999999
 21
13.39178399999999
 72
     1
 10
120.2284569999999
 20
13.39178399999999
 11
119.0380769999999
 21
13.094189
 72
     1
 10
119.0380769999999
 20
13.094189
 11
118.1452909999999
 21
12.498998
 72
     1
 10
118.1452909999999
 20
12.498998
 11
116.95491
 21
11.308617
 72
     1
 10
116.95491
 20
11.308617
 11
116.3597199999999
 21
9.820641999999999
 72
     1
 10
116.3597199999999
 20
9.820641999999999
 11
119.6332669999999
 21
9.820641999999999
 72
     1
 10
119.6332669999999
 20
9.820641999999999
 11
119.930862
 21
10.713427
 72
     1
 10
119.930862
 20
10.713427
 11
120.526053
 21
11.308617
 72
     1
 10
120.526053
 20
11.308617
 11
121.121243
 21
11.606213
 72
     1
 10
121.121243
 20
11.606213
 11
122.3116239999999
 21
11.606213
 72
     1
 10
122.3116239999999
 20
11.606213
 11
123.204409
 21
11.606213
 72
     1
 10
123.204409
 20
11.606213
 11
123.7996
 21
11.308617
 72
     1
 10
123.7996
 20
11.308617
 11
124.097195
 21
11.011022
 72
     1
 10
124.097195
 20
11.011022
 11
124.097195
 21
10.713427
 72
     1
 10
124.097195
 20
10.713427
 11
123.5020039999999
 21
9.820641999999999
 72
     1
 10
123.5020039999999
 20
9.820641999999999
 11
122.3116239999999
 21
9.225450999999999
 72
     1
 10
122.3116239999999
 20
9.225450999999999
 11
120.8236479999999
 21
8.927856
 72
     1
 10
120.8236479999999
 20
8.927856
 11
119.335672
 21
8.927856
 72
     1
 10
119.335672
 20
8.927856
 11
117.847696
 21
8.332665999999999
 72
     1
 10
117.847696
 20
8.332665999999999
 11
116.657315
 21
7.737474999999999
 72
     1
 10
116.657315
 20
7.737474999999999
 11
115.764529
 21
6.844689999999999
 72
     1
 10
115.764529
 20
6.844689999999999
 11
115.1693389999999
 21
5.356714
 72
     1
 10
115.1693389999999
 20
5.356714
 11
115.1693389999999
 21
4.166332999999999
 72
     1
 10
115.1693389999999
 20
4.166332999999999
 11
115.764529
 21
3.273547
 72
     1
 10
115.764529
 20
3.273547
 11
116.95491
 21
2.678357
 72
     1
 10
116.95491
 20
2.678357
 11
118.442886
 21
2.380761999999999
 72
     1
 10
118.442886
 20
2.380761999999999
 11
120.8236479999999
 21
2.678357
 72
     1
 10
120.8236479999999
 20
2.678357
 11
122.9068139999999
 21
3.868737999999999
 72
     1
 10
122.9068139999999
 20
3.868737999999999
 11
122.9068139999999
 21
3.273547
 72
     1
 10
122.9068139999999
 20
3.273547
 11
122.9068139999999
 21
2.678357
 72
     1
 10
122.9068139999999
 20
2.678357
 11
126.180361
 21
2.678357
 72
     1
 10
126.180361
 20
2.678357
 11
126.180361
 21
2.975951999999999
 72
     1
 10
126.180361
 20
2.975951999999999
 11
126.180361
 21
3.273547
 72
     1
 10
126.180361
 20
3.273547
 11
125.8827659999999
 21
3.273547
 72
     1
 10
125.8827659999999
 20
3.273547
 11
125.8827659999999
 21
3.571143
 72
     1
 10
125.8827659999999
 20
3.571143
 11
125.8827659999999
 21
3.868737999999999
 72
     1
 10
125.8827659999999
 20
3.868737999999999
 11
125.8827659999999
 21
4.166332999999999
 72
     1
 10
125.8827659999999
 20
4.166332999999999
 11
126.180361
 21
4.761523
 72
     1
 10
126.180361
 20
4.761523
 11
126.180361
 21
5.951903999999999
 72
     1
 10
126.180361
 20
5.951903999999999
 11
126.477956
 21
7.142285
 72
     1
 10
126.477956
 20
7.142285
 11
126.775552
 21
8.332665999999999
 72
     1
 10
126.775552
 20
8.332665999999999
 11
126.775552
 21
9.523046
 72
     1
 10
126.775552
 20
9.523046
 11
127.0731469999999
 21
10.11823699999999
 72
     1
 10
127.0731469999999
 20
10.11823699999999
 11
127.0731469999999
 21
10.415832
 97
        0
 92
       16
 93
       15
 72
     1
 10
123.5020039999999
 20
7.737474999999999
 11
123.5020039999999
 21
7.142285
 72
     1
 10
123.5020039999999
 20
7.142285
 11
122.9068139999999
 21
5.951903999999999
 72
     1
 10
122.9068139999999
 20
5.951903999999999
 11
122.3116239999999
 21
5.059117999999999
 72
     1
 10
122.3116239999999
 20
5.059117999999999
 11
121.4188379999999
 21
4.761523
 72
     1
 10
121.4188379999999
 20
4.761523
 11
119.930862
 21
4.463928
 72
     1
 10
119.930862
 20
4.463928
 11
119.335672
 21
4.463928
 72
     1
 10
119.335672
 20
4.463928
 11
119.0380769999999
 21
4.761523
 72
     1
 10
119.0380769999999
 20
4.761523
 11
118.740481
 21
5.356714
 72
     1
 10
118.740481
 20
5.356714
 11
118.740481
 21
5.951903999999999
 72
     1
 10
118.740481
 20
5.951903999999999
 11
119.0380769999999
 21
6.249499
 72
     1
 10
119.0380769999999
 20
6.249499
 11
119.335672
 21
6.844689999999999
 72
     1
 10
119.335672
 20
6.844689999999999
 11
119.930862
 21
7.142285
 72
     1
 10
119.930862
 20
7.142285
 11
120.8236479999999
 21
7.142285
 72
     1
 10
120.8236479999999
 20
7.142285
 11
122.3116239999999
 21
7.43988
 72
     1
 10
122.3116239999999
 20
7.43988
 11
123.5020039999999
 21
7.737474999999999
 97
        0
 92
        1
 93
       31
 72
     1
 10
153.261523
 20
10.713427
 11
152.963928
 21
11.606213
 72
     1
 10
152.963928
 20
11.606213
 11
152.3687379999999
 21
12.498998
 72
     1
 10
152.3687379999999
 20
12.498998
 11
151.7735479999999
 21
13.094189
 72
     1
 10
151.7735479999999
 20
13.094189
 11
150.583167
 21
13.39178399999999
 72
     1
 10
150.583167
 20
13.39178399999999
 11
149.392786
 21
13.689379
 72
     1
 10
149.392786
 20
13.689379
 11
148.2024049999999
 21
13.98697399999999
 72
     1
 10
148.2024049999999
 20
13.98697399999999
 11
147.0120239999999
 21
13.689379
 72
     1
 10
147.0120239999999
 20
13.689379
 11
145.5240489999999
 21
13.39178399999999
 72
     1
 10
145.5240489999999
 20
13.39178399999999
 11
144.6312629999999
 21
13.094189
 72
     1
 10
144.6312629999999
 20
13.094189
 11
143.440882
 21
12.498998
 72
     1
 10
143.440882
 20
12.498998
 11
142.5480969999999
 21
11.606213
 72
     1
 10
142.5480969999999
 20
11.606213
 11
141.952906
 21
10.713427
 72
     1
 10
141.952906
 20
10.713427
 11
141.3577159999999
 21
9.225450999999999
 72
     1
 10
141.3577159999999
 20
9.225450999999999
 11
141.060121
 21
8.035069999999999
 72
     1
 10
141.060121
 20
8.035069999999999
 11
140.762525
 21
6.844689999999999
 72
     1
 10
140.762525
 20
6.844689999999999
 11
141.060121
 21
5.654308999999999
 72
     1
 10
141.060121
 20
5.654308999999999
 11
141.3577159999999
 21
4.761523
 72
     1
 10
141.3577159999999
 20
4.761523
 11
141.952906
 21
3.868737999999999
 72
     1
 10
141.952906
 20
3.868737999999999
 11
142.8456919999999
 21
3.273547
 72
     1
 10
142.8456919999999
 20
3.273547
 11
143.7384769999999
 21
2.975951999999999
 72
     1
 10
143.7384769999999
 20
2.975951999999999
 11
144.928858
 21
2.678357
 72
     1
 10
144.928858
 20
2.678357
 11
146.1192389999999
 21
2.380761999999999
 72
     1
 10
146.1192389999999
 20
2.380761999999999
 11
147.607215
 21
2.678357
 72
     1
 10
147.607215
 20
2.678357
 11
148.7975959999999
 21
2.975951999999999
 72
     1
 10
148.7975959999999
 20
2.975951999999999
 11
149.9879759999999
 21
3.273547
 72
     1
 10
149.9879759999999
 20
3.273547
 11
150.8807619999999
 21
3.868737999999999
 72
     1
 10
150.8807619999999
 20
3.868737999999999
 11
152.666333
 21
5.654308999999999
 72
     1
 10
152.666333
 20
5.654308999999999
 11
152.963928
 21
6.844689999999999
 72
     1
 10
152.963928
 20
6.844689999999999
 11
153.261523
 21
8.035069999999999
 72
     1
 10
153.261523
 20
8.035069999999999
 11
153.5591189999999
 21
9.225450999999999
 72
     1
 10
153.5591189999999
 20
9.225450999999999
 11
153.261523
 21
10.713427
 97
        0
 92
       16
 93
       16
 72
     1
 10
149.9879759999999
 20
8.035069999999999
 11
149.392786
 21
6.547094
 72
     1
 10
149.392786
 20
6.547094
 11
148.5
 21
5.356714
 72
     1
 10
148.5
 20
5.356714
 11
147.607215
 21
5.059117999999999
 72
     1
 10
147.607215
 20
5.059117999999999
 11
146.714429
 21
4.761523
 72
     1
 10
146.714429
 20
4.761523
 11
145.5240489999999
 21
5.059117999999999
 72
     1
 10
145.5240489999999
 20
5.059117999999999
 11
144.928858
 21
5.356714
 72
     1
 10
144.928858
 20
5.356714
 11
144.3336679999999
 21
6.547094
 72
     1
 10
144.3336679999999
 20
6.547094
 11
144.3336679999999
 21
8.035069999999999
 72
     1
 10
144.3336679999999
 20
8.035069999999999
 11
144.928858
 21
9.523046
 72
     1
 10
144.928858
 20
9.523046
 11
145.8216439999999
 21
10.713427
 72
     1
 10
145.8216439999999
 20
10.713427
 11
146.714429
 21
11.308617
 72
     1
 10
146.714429
 20
11.308617
 11
147.9048099999999
 21
11.308617
 72
     1
 10
147.9048099999999
 20
11.308617
 11
148.7975959999999
 21
11.308617
 72
     1
 10
148.7975959999999
 20
11.308617
 11
149.392786
 21
10.713427
 72
     1
 10
149.392786
 20
10.713427
 11
149.9879759999999
 21
9.523046
 72
     1
 10
149.9879759999999
 20
9.523046
 11
149.9879759999999
 21
8.035069999999999
 97
        0
 75
     0
 76
     1
 98
        1
 10
-385.39247
 20
-115.107298
  0
ENDBLK
  5
2D
330
2A
100
AcDbEntity
  8
0
100
AcDbBlockEnd
  0
BLOCK
  5
F035
330
EED1
100
AcDbEntity
  8
0
100
AcDbBlockBegin
  2
A$C7A762DB8
 70
     0
 10
0.0
 20
0.0
 30
0.0
  3
A$C7A762DB8
  1
A$C7A762DB8
  0
LINE
  5
EED2
330
EED1
100
AcDbEntity
  8
0
100
AcDbLine
 10
67.49999625813416
 20
49.99999727219666
 30
0.0
 11
48.49999625813416
 21
49.99999727219668
 31
0.0
  0
LINE
  5
EED3
330
EED1
100
AcDbEntity
  8
0
100
AcDbLine
 10
48.55277444428816
 20
101.9999972721966
 30
0.0
 11
67.44721807197925
 21
101.9999972721966
 31
0.0
  0
LINE
  5
EED4
330
EED1
100
AcDbEntity
  8
0
100
AcDbLine
 10
48.49999625813416
 20
91.99999727219667
 30
0.0
 11
67.49999625813416
 21
91.99999727219665
 31
0.0
  0
LINE
  5
EED5
330
EED1
100
AcDbEntity
  8
0
100
AcDbLine
 10
48.49999625813416
 20
89.99999727219666
 30
0.0
 11
67.49999625813416
 21
89.99999727219664
 31
0.0
  0
LINE
  5
EED6
330
EED1
100
AcDbEntity
  8
0
100
AcDbLine
 10
67.49999625813416
 20
51.99999727219665
 30
0.0
 11
48.49999625813416
 21
51.99999727219666
 31
0.0
  0
LINE
  5
EED7
330
EED1
100
AcDbEntity
  8
0
100
AcDbLine
 10
17.99999625813416
 20
4.999997272197674
 30
0.0
 11
71.99999625813416
 21
3.585957507460648
 31
0.0
  0
LINE
  5
EED8
330
EED1
100
AcDbEntity
  8
0
100
AcDbLine
 10
71.99999625813416
 20
3.585957507460648
 30
0.0
 11
18.99999625813416
 21
4.973811350628693
 31
0.0
  0
LINE
  5
EED9
330
EED1
100
AcDbEntity
  8
0
100
AcDbLine
 10
68.49999625813416
 20
48.97381135062869
 30
0.0
 11
47.49999625813416
 21
48.97381135062869
 31
0.0
  0
LINE
  5
EEDA
330
EED1
100
AcDbEntity
  8
0
100
AcDbLine
 10
29.99999625813416
 20
21.97381135062869
 30
0.0
 11
71.99999625813416
 21
21.97381135062869
 31
0.0
  0
LINE
  5
EEDB
330
EED1
100
AcDbEntity
  8
0
100
AcDbLine
 10
70.99999625813416
 20
42.97381135062869
 30
0.0
 11
29.99999625813416
 21
42.97381135062869
 31
0.0
  0
LINE
  5
EEDC
330
EED1
100
AcDbEntity
  8
0
100
AcDbLine
 10
70.99999625813416
 20
40.97381135062869
 30
0.0
 11
29.99999625813416
 21
40.97381135062869
 31
0.0
  0
LINE
  5
EEDD
330
EED1
100
AcDbEntity
  8
0
100
AcDbLine
 10
70.99999625813416
 20
35.97381135062869
 30
0.0
 11
29.99999625813416
 21
35.97381135062869
 31
0.0
  0
LINE
  5
EEDE
330
EED1
100
AcDbEntity
  8
0
100
AcDbLine
 10
70.99999625813416
 20
33.97381135062869
 30
0.0
 11
29.99999625813416
 21
33.97381135062869
 31
0.0
  0
LINE
  5
EEDF
330
EED1
100
AcDbEntity
  8
0
100
AcDbLine
 10
70.99999625813416
 20
28.97381135062869
 30
0.0
 11
29.99999625813416
 21
28.97381135062869
 31
0.0
  0
LINE
  5
EEE0
330
EED1
100
AcDbEntity
  8
0
100
AcDbLine
 10
70.99999625813416
 20
26.97381135062869
 30
0.0
 11
29.99999625813416
 21
26.97381135062869
 31
0.0
  0
LINE
  5
EEE1
330
EED1
100
AcDbEntity
  8
0
100
AcDbLine
 10
19.99999625813416
 20
120.9738113506287
 30
0.0
 11
71.99999625813416
 21
120.9738113506287
 31
0.0
  0
LINE
  5
EEE2
330
EED1
100
AcDbEntity
  8
0
100
AcDbLine
 10
29.99999625813416
 20
103.9738113506286
 30
0.0
 11
71.99999625813416
 21
103.9738113506286
 31
0.0
  0
LINE
  5
EEE3
330
EED1
100
AcDbEntity
  8
0
100
AcDbLine
 10
-0.0000037418658394
 20
-0.0000027278023111
 30
0.0
 11
71.99999625813416
 21
-0.0000027278023254
 31
0.0
  0
LINE
  5
EEE4
330
EED1
100
AcDbEntity
  8
0
100
AcDbLine
 10
-0.0000037418658394
 20
78.99999727219769
 30
0.0
 11
-0.0000037418658394
 21
53.99999727219769
 31
0.0
  0
LINE
  5
EEE5
330
EED1
100
AcDbEntity
  8
0
100
AcDbLine
 10
48.49999625813416
 20
49.99999727219668
 30
0.0
 11
48.49999625813416
 21
91.99999727219667
 31
0.0
  0
LINE
  5
EEE6
330
EED1
100
AcDbEntity
  8
0
100
AcDbLine
 10
18.99999625813416
 20
70.99999727219767
 30
0.0
 11
18.99999625813416
 21
32.99999727219767
 31
0.0
  0
LINE
  5
EEE7
330
EED1
100
AcDbEntity
  8
0
100
AcDbLine
 10
19.99999625813416
 20
32.97381135062966
 30
0.0
 11
19.99999625813416
 21
70.97381135062869
 31
0.0
  0
LINE
  5
EEE8
330
EED1
100
AcDbEntity
  8
0
100
AcDbLine
 10
29.99999625813416
 20
103.9738113506286
 30
0.0
 11
29.99999625813416
 21
21.97381135062869
 31
0.0
  0
ARC
  5
EEE9
330
EED1
100
AcDbEntity
  8
0
100
AcDbCircle
 10
0.9999962581341605
 20
56.05153804514964
 30
0.0
 40
1.0
100
AcDbArc
 50
93.03047684586102
 51
180.0
  0
LINE
  5
EEEA
330
EED1
100
AcDbEntity
  8
0
100
AcDbLine
 10
17.99999625813416
 20
4.999997272197674
 30
0.0
 11
-0.0000037418658394
 21
4.52865068395171
 31
0.0
  0
LINE
  5
EEEB
330
EED1
100
AcDbEntity
  8
0
100
AcDbLine
 10
-0.0000037418658394
 20
21.17551498883973
 30
0.0
 11
-0.0000037418658394
 21
-0.0000027278023111
 31
0.0
  0
LINE
  5
EEEC
330
EED1
100
AcDbEntity
  8
0
100
AcDbLine
 10
0.1464428675408271
 20
53.64644388160441
 30
0.0
 11
3.99999625813416
 21
51.99999727219768
 31
0.0
  0
LINE
  5
EEED
330
EED1
100
AcDbEntity
  8
0
100
AcDbLine
 10
0.4738282800130947
 20
21.67482975621773
 30
0.0
 11
11.57850019249917
 21
22.2568009508177
 31
0.0
  0
LINE
  5
EEEE
330
EED1
100
AcDbEntity
  8
0
100
AcDbLine
 10
0.9471291169941196
 20
29.05013960001873
 30
0.0
 11
11.57929696984524
 21
29.61301907458164
 31
0.0
  0
LINE
  5
EEEF
330
EED1
100
AcDbEntity
  8
0
100
AcDbLine
 10
0.9471291169941196
 20
26.94985494437573
 30
0.0
 11
11.57929696984524
 21
26.38697546981268
 31
0.0
  0
LINE
  5
EEF0
330
EED1
100
AcDbEntity
  8
0
100
AcDbLine
 10
0.9471291169941196
 20
54.94985494437571
 30
0.0
 11
11.57929696984524
 21
54.38697546981268
 31
0.0
  0
LINE
  5
EEF1
330
EED1
100
AcDbEntity
  8
0
100
AcDbLine
 10
0.9471291169941196
 20
50.05013960001872
 30
0.0
 11
11.57929696984524
 21
50.61301907458164
 31
0.0
  0
LINE
  5
EEF2
330
EED1
100
AcDbEntity
  8
0
100
AcDbLine
 10
0.9471291169941196
 20
47.94985494437571
 30
0.0
 11
11.57929696984524
 21
47.38697546981268
 31
0.0
  0
LINE
  5
EEF3
330
EED1
100
AcDbEntity
  8
0
100
AcDbLine
 10
0.9471291169941196
 20
43.05013960001872
 30
0.0
 11
11.57929696984524
 21
43.61301907458164
 31
0.0
  0
LINE
  5
EEF4
330
EED1
100
AcDbEntity
  8
0
100
AcDbLine
 10
0.9471291169941196
 20
40.94985494437572
 30
0.0
 11
11.57929696984524
 21
40.38697546981268
 31
0.0
  0
LINE
  5
EEF5
330
EED1
100
AcDbEntity
  8
0
100
AcDbLine
 10
0.9471291169941196
 20
36.05013960001872
 30
0.0
 11
11.57929696984524
 21
36.61301907458164
 31
0.0
  0
LINE
  5
EEF6
330
EED1
100
AcDbEntity
  8
0
100
AcDbLine
 10
0.9471291169941196
 20
33.94985494437573
 30
0.0
 11
11.57929696984524
 21
33.38697546981268
 31
0.0
  0
POINT
  5
EEF7
330
EED1
100
AcDbEntity
  8
0
100
AcDbPoint
 10
-0.0000037418658394
 20
21.64999727219766
 30
0.0
  0
ARC
  5
EEF8
330
EED1
100
AcDbEntity
  8
0
100
AcDbCircle
 10
0.4999962581341606
 20
21.17551498883973
 30
0.0
 40
0.5
100
AcDbArc
 50
92.99999999999908
 51
180.0
  0
LINE
  5
EEF9
330
EED1
100
AcDbEntity
  8
0
100
AcDbLine
 10
-0.0000037418658394
 20
28.05153804514965
 30
0.0
 11
-0.0000037418658394
 21
27.9484564992447
 31
0.0
  0
ARC
  5
EEFA
330
EED1
100
AcDbEntity
  8
0
100
AcDbCircle
 10
0.9999962581341605
 20
28.05153804514965
 30
0.0
 40
1.0
100
AcDbArc
 50
93.03047684586102
 51
180.0
  0
ARC
  5
EEFB
330
EED1
100
AcDbEntity
  8
0
100
AcDbCircle
 10
0.9999962581341605
 20
27.9484564992447
 30
0.0
 40
1.0
100
AcDbArc
 50
180.0
 51
266.9695231541389
  0
LINE
  5
EEFC
330
EED1
100
AcDbEntity
  8
0
100
AcDbLine
 10
-0.0000037418658394
 20
35.05153804514964
 30
0.0
 11
-0.0000037418658394
 21
34.94845649924468
 31
0.0
  0
ARC
  5
EEFD
330
EED1
100
AcDbEntity
  8
0
100
AcDbCircle
 10
0.9999962581341605
 20
35.05153804514965
 30
0.0
 40
1.0
100
AcDbArc
 50
93.03047684586102
 51
180.0
  0
ARC
  5
EEFE
330
EED1
100
AcDbEntity
  8
0
100
AcDbCircle
 10
0.9999962581341605
 20
34.94845649924469
 30
0.0
 40
1.0
100
AcDbArc
 50
180.0
 51
266.9695231541389
  0
ARC
  5
EEFF
330
EED1
100
AcDbEntity
  8
0
100
AcDbCircle
 10
0.4999962581341606
 20
53.99999727219769
 30
0.0
 40
0.5
100
AcDbArc
 50
180.0
 51
224.9999999999905
  0
LINE
  5
EF00
330
EED1
100
AcDbEntity
  8
0
100
AcDbLine
 10
-0.0000037418658394
 20
42.05153804514964
 30
0.0
 11
-0.0000037418658394
 21
41.94845649924468
 31
0.0
  0
ARC
  5
EF01
330
EED1
100
AcDbEntity
  8
0
100
AcDbCircle
 10
0.9999962581341605
 20
42.05153804514964
 30
0.0
 40
1.0
100
AcDbArc
 50
93.03047684586102
 51
180.0
  0
ARC
  5
EF02
330
EED1
100
AcDbEntity
  8
0
100
AcDbCircle
 10
0.9999962581341605
 20
41.94845649924468
 30
0.0
 40
1.0
100
AcDbArc
 50
180.0
 51
266.9695231541389
  0
LINE
  5
EF03
330
EED1
100
AcDbEntity
  8
0
100
AcDbLine
 10
-0.0000037418658394
 20
56.05153804514964
 30
0.0
 11
-0.0000037418658394
 21
55.94845649924469
 31
0.0
  0
ARC
  5
EF04
330
EED1
100
AcDbEntity
  8
0
100
AcDbCircle
 10
0.9999962581341605
 20
55.94845649924469
 30
0.0
 40
1.0
100
AcDbArc
 50
180.0
 51
266.9695231541389
  0
LINE
  5
EF05
330
EED1
100
AcDbEntity
  8
0
100
AcDbLine
 10
-0.0000037418658394
 20
49.05153804514964
 30
0.0
 11
-0.0000037418658394
 21
48.94845649924469
 31
0.0
  0
ARC
  5
EF06
330
EED1
100
AcDbEntity
  8
0
100
AcDbCircle
 10
0.9999962581341605
 20
49.05153804514964
 30
0.0
 40
1.0
100
AcDbArc
 50
93.03047684586102
 51
180.0
  0
ARC
  5
EF07
330
EED1
100
AcDbEntity
  8
0
100
AcDbCircle
 10
0.9999962581341605
 20
48.94845649924469
 30
0.0
 40
1.0
100
AcDbArc
 50
180.0
 51
266.9695231541389
  0
ARC
  5
EF08
330
EED1
100
AcDbEntity
  8
0
100
AcDbCircle
 10
11.49999625813416
 20
38.11092140688574
 30
0.0
 40
1.5
100
AcDbArc
 50
273.030476845861
 51
0.0
  0
LINE
  5
EF09
330
EED1
100
AcDbEntity
  8
0
100
AcDbLine
 10
12.99999625813416
 20
31.88907313750871
 30
0.0
 11
12.99999625813416
 21
31.11092140688572
 31
0.0
  0
ARC
  5
EF0A
330
EED1
100
AcDbEntity
  8
0
100
AcDbCircle
 10
11.49999625813416
 20
31.11092140688573
 30
0.0
 40
1.5
100
AcDbArc
 50
273.030476845861
 51
0.0
  0
LINE
  5
EF0B
330
EED1
100
AcDbEntity
  8
0
100
AcDbLine
 10
12.99999625813416
 20
24.88907313750871
 30
0.0
 11
12.99999625813416
 21
23.75474525294964
 31
0.0
  0
ARC
  5
EF0C
330
EED1
100
AcDbEntity
  8
0
100
AcDbCircle
 10
11.49999625813416
 20
24.88907313750873
 30
0.0
 40
1.5
100
AcDbArc
 50
0.0
 51
86.96952315413899
  0
ARC
  5
EF0D
330
EED1
100
AcDbEntity
  8
0
100
AcDbCircle
 10
11.49999625813416
 20
23.75474525294966
 30
0.0
 40
1.5
100
AcDbArc
 50
273.0000000000056
 51
0.0
  0
ARC
  5
EF0E
330
EED1
100
AcDbEntity
  8
0
100
AcDbCircle
 10
11.49999625813416
 20
31.88907313750873
 30
0.0
 40
1.5
100
AcDbArc
 50
0.0
 51
86.96952315413899
  0
LINE
  5
EF0F
330
EED1
100
AcDbEntity
  8
0
  6
Continuous
100
AcDbLine
 10
5.99999625813416
 20
46.49999727219769
 30
0.0
 11
12.86994943312026
 21
46.49999727219769
 31
0.0
  0
LINE
  5
EF10
330
EED1
100
AcDbEntity
  8
0
  6
Continuous
100
AcDbLine
 10
3.999996258134046
 20
54.78823256631528
 30
0.0
 11
3.99999625813416
 21
53.99999727219769
 31
0.0
  0
LINE
  5
EF11
330
EED1
100
AcDbEntity
  8
0
  6
Continuous
100
AcDbLine
 10
5.99999625813416
 20
54.68235021337403
 30
0.0
 11
5.99999625813416
 21
50.31764433102037
 31
0.0
  0
LINE
  5
EF12
330
EED1
100
AcDbEntity
  8
0
100
AcDbLine
 10
1.99999625813416
 20
54.8941149192565
 30
0.0
 11
1.99999625813416
 21
54.85450553640181
 31
0.0
  0
LINE
  5
EF13
330
EED1
100
AcDbEntity
  8
0
100
AcDbLine
 10
3.99999625813416
 20
47.78823256631528
 30
0.0
 11
3.99999625813416
 21
46.99999727219768
 31
0.0
  0
LINE
  5
EF14
330
EED1
100
AcDbEntity
  8
0
100
AcDbLine
 10
5.99999625813416
 20
50.31764433102036
 30
0.0
 11
5.99999625813416
 21
53.99999727219769
 31
0.0
  0
LINE
  5
EF15
330
EED1
100
AcDbEntity
  8
0
  6
Continuous
100
AcDbLine
 10
5.99999625813416
 20
47.68235021337403
 30
0.0
 11
5.99999625813416
 21
46.49999727219769
 31
0.0
  0
LINE
  5
EF16
330
EED1
100
AcDbEntity
  8
0
100
AcDbLine
 10
1.99999625813416
 20
52.85450553640176
 30
0.0
 11
1.99999625813416
 21
51.99999727219768
 31
0.0
  0
LINE
  5
EF17
330
EED1
100
AcDbEntity
  8
0
100
AcDbLine
 10
1.99999625813416
 20
54.85450553640181
 30
0.0
 11
3.99999625813416
 21
53.99999727219769
 31
0.0
  0
LINE
  5
EF18
330
EED1
100
AcDbEntity
  8
0
100
AcDbLine
 10
1.99999625813416
 20
54.85450553640176
 30
0.0
 11
1.99999625813416
 21
54.8941149192565
 31
0.0
  0
ARC
  5
EF19
330
EED1
100
AcDbEntity
  8
0
100
AcDbCircle
 10
2.49999625813416
 20
51.99999727219768
 30
0.0
 40
0.5
100
AcDbArc
 50
180.0
 51
270.0
  0
ARC
  5
EF1A
330
EED1
100
AcDbEntity
  8
0
100
AcDbCircle
 10
3.49999625813416
 20
51.99999727219768
 30
0.0
 40
0.5
100
AcDbArc
 50
270.0
 51
0.0
  0
LINE
  5
EF1B
330
EED1
100
AcDbEntity
  8
0
100
AcDbLine
 10
2.49999625813416
 20
51.49999727219769
 30
0.0
 11
3.49999625813416
 21
51.49999727219769
 31
0.0
  0
ARC
  5
EF1C
330
EED1
100
AcDbEntity
  8
0
100
AcDbCircle
 10
4.49999625813416
 20
46.99999727219768
 30
0.0
 40
0.5
100
AcDbArc
 50
180.0
 51
270.0
  0
ARC
  5
EF1D
330
EED1
100
AcDbEntity
  8
0
100
AcDbCircle
 10
5.499996258134387
 20
46.99999727219768
 30
0.0
 40
0.5
100
AcDbArc
 50
270.0
 51
0.0
  0
ARC
  5
EF1E
330
EED1
100
AcDbEntity
  8
0
100
AcDbCircle
 10
5.49999625813416
 20
53.99999727219769
 30
0.0
 40
0.5
100
AcDbArc
 50
0.0
 51
90.0
  0
ARC
  5
EF1F
330
EED1
100
AcDbEntity
  8
0
100
AcDbCircle
 10
4.49999625813416
 20
53.99999727219769
 30
0.0
 40
0.5
100
AcDbArc
 50
90.0
 51
180.0
  0
LINE
  5
EF20
330
EED1
100
AcDbEntity
  8
0
100
AcDbLine
 10
3.99999625813416
 20
51.9999972721978
 30
0.0
 11
3.99999625813416
 21
50.21176197807914
 31
0.0
  0
LINE
  5
EF21
330
EED1
100
AcDbEntity
  8
0
100
AcDbLine
 10
5.49999625813416
 20
54.49999727219768
 30
0.0
 11
4.49999625813416
 21
54.49999727219768
 31
0.0
  0
LINE
  5
EF22
330
EED1
100
AcDbEntity
  8
0
100
AcDbLine
 10
5.999996258134387
 20
46.99999727219768
 30
0.0
 11
5.999996258134387
 21
47.68235021337402
 31
0.0
  0
LINE
  5
EF23
330
EED1
100
AcDbEntity
  8
0
100
AcDbLine
 10
4.49999625813416
 20
46.49999727219769
 30
0.0
 11
5.499996258134387
 21
46.49999727219769
 31
0.0
  0
LINE
  5
EF24
330
EED1
100
AcDbEntity
  8
0
100
AcDbLine
 10
12.99999625813416
 20
38.88907313750872
 30
0.0
 11
12.99999625813416
 21
38.11092140688572
 31
0.0
  0
LINE
  5
EF25
330
EED1
100
AcDbEntity
  8
0
100
AcDbLine
 10
11.99999625813416
 20
43.69670784451272
 30
0.0
 11
11.99999625813416
 21
46.49999727219767
 31
0.0
  0
LINE
  5
EF26
330
EED1
100
AcDbEntity
  8
0
100
AcDbLine
 10
12.99999625813416
 20
45.88907313750872
 30
0.0
 11
12.99999625813416
 21
45.11092140688572
 31
0.0
  0
ARC
  5
EF27
330
EED1
100
AcDbEntity
  8
0
100
AcDbCircle
 10
11.49999625813416
 20
45.88907313750872
 30
0.0
 40
1.5
100
AcDbArc
 50
0.0
 51
86.96952315413899
  0
ARC
  5
EF28
330
EED1
100
AcDbEntity
  8
0
100
AcDbCircle
 10
11.49999625813416
 20
45.11092140688572
 30
0.0
 40
1.5
100
AcDbArc
 50
273.030476845861
 51
0.0
  0
ARC
  5
EF29
330
EED1
100
AcDbEntity
  8
0
100
AcDbCircle
 10
11.49999625813416
 20
38.88907313750873
 30
0.0
 40
1.5
100
AcDbArc
 50
0.0
 51
86.96952315413899
  0
LINE
  5
EF2A
330
EED1
100
AcDbEntity
  8
0
100
AcDbLine
 10
12.99999625813416
 20
52.88907313750872
 30
0.0
 11
12.99999625813416
 21
52.11092140688572
 31
0.0
  0
ARC
  5
EF2B
330
EED1
100
AcDbEntity
  8
0
100
AcDbCircle
 10
11.49999625813416
 20
52.88907313750872
 30
0.0
 40
1.5
100
AcDbArc
 50
0.0
 51
86.96952315413899
  0
ARC
  5
EF2C
330
EED1
100
AcDbEntity
  8
0
100
AcDbCircle
 10
11.49999625813416
 20
52.11092140688572
 30
0.0
 40
1.5
100
AcDbArc
 50
273.030476845861
 51
0.0
  0
LINE
  5
EF2D
330
EED1
100
AcDbEntity
  8
0
100
AcDbLine
 10
18.99999625813416
 20
20.99999727219767
 30
0.0
 11
18.99999625813416
 21
4.97381135062767
 31
0.0
  0
LINE
  5
EF2E
330
EED1
100
AcDbEntity
  8
0
100
AcDbLine
 10
19.99999625813416
 20
4.921439507490674
 30
0.0
 11
19.99999625813416
 21
20.97381135062869
 31
0.0
  0
LINE
  5
EF2F
330
EED1
100
AcDbEntity
  8
0
100
AcDbLine
 10
45.29128410561111
 20
4.259163827532688
 30
0.0
 11
45.29128410561111
 21
21.97381135062869
 31
0.0
  0
LINE
  5
EF30
330
EED1
100
AcDbEntity
  8
0
100
AcDbLine
 10
40.70870841065607
 20
4.379162795265642
 30
0.0
 11
40.70870841065607
 21
21.97381135062971
 31
0.0
  0
LINE
  5
EF31
330
EED1
100
AcDbEntity
  8
0
100
AcDbLine
 10
40.89999625813312
 20
3.799997272196662
 30
0.0
 11
40.89999625813312
 21
-0.0000027278023254
 31
0.0
  0
LINE
  5
EF32
330
EED1
100
AcDbEntity
  8
0
100
AcDbLine
 10
45.09999625813406
 20
3.799997272196662
 30
0.0
 11
45.09999625813406
 21
-0.0000027278023254
 31
0.0
  0
LINE
  5
EF33
330
EED1
100
AcDbEntity
  8
0
100
AcDbLine
 10
37.49999625813416
 20
3.799997272196662
 30
0.0
 11
48.49999625813416
 21
3.799997272196662
 31
0.0
  0
LINE
  5
EF34
330
EED1
100
AcDbEntity
  8
0
100
AcDbLine
 10
37.49999625813416
 20
4.489371801597712
 30
0.0
 11
37.49999625813416
 21
3.799997272196662
 31
0.0
  0
LINE
  5
EF35
330
EED1
100
AcDbEntity
  8
0
100
AcDbLine
 10
48.49999625813416
 20
4.20132666433767
 30
0.0
 11
48.49999625813416
 21
3.799997272196662
 31
0.0
  0
LINE
  5
EF36
330
EED1
100
AcDbEntity
  8
0
100
AcDbLine
 10
48.49999625813416
 20
54.9738113506287
 30
0.0
 11
29.99999625813416
 21
54.9738113506287
 31
0.0
  0
LINE
  5
EF37
330
EED1
100
AcDbEntity
  8
0
100
AcDbLine
 10
46.99999625813416
 20
49.9738113506287
 30
0.0
 11
29.99999625813416
 21
49.9738113506287
 31
0.0
  0
LINE
  5
EF38
330
EED1
100
AcDbEntity
  8
0
100
AcDbLine
 10
46.99999625813416
 20
47.97381135062869
 30
0.0
 11
29.99999625813416
 21
47.97381135062869
 31
0.0
  0
LINE
  5
EF39
330
EED1
100
AcDbEntity
  8
0
100
AcDbLine
 10
23.49999625813416
 20
22.99999727219767
 30
0.0
 11
21.99999625813313
 21
22.99999727219767
 31
0.0
  0
LINE
  5
EF3A
330
EED1
100
AcDbEntity
  8
0
100
AcDbLine
 10
23.69999625813306
 20
22.47381135062869
 30
0.0
 11
21.99999625813313
 21
22.47381135062869
 31
0.0
  0
LINE
  5
EF3B
330
EED1
100
AcDbEntity
  8
0
100
AcDbLine
 10
18.99999625813416
 20
20.99999727219767
 30
0.0
 11
17.6999962581342
 21
20.99999727219767
 31
0.0
  0
LINE
  5
EF3C
330
EED1
100
AcDbEntity
  8
0
100
AcDbLine
 10
19.99999625813416
 20
20.97381135062869
 30
0.0
 11
18.99999625813416
 21
20.97381135062869
 31
0.0
  0
LINE
  5
EF3D
330
EED1
100
AcDbEntity
  8
0
100
AcDbLine
 10
23.49999625813416
 20
30.99999727219767
 30
0.0
 11
21.99999625813313
 21
30.99999727219767
 31
0.0
  0
LINE
  5
EF3E
330
EED1
100
AcDbEntity
  8
0
100
AcDbLine
 10
18.99999625813416
 20
32.99999727219767
 30
0.0
 11
17.6999962581342
 21
32.99999727219767
 31
0.0
  0
LINE
  5
EF3F
330
EED1
100
AcDbEntity
  8
0
100
AcDbLine
 10
23.69999625813306
 20
31.47381135062869
 30
0.0
 11
21.99999625813313
 21
31.47381135062869
 31
0.0
  0
LINE
  5
EF40
330
EED1
100
AcDbEntity
  8
0
100
AcDbLine
 10
19.99999625813416
 20
32.97381135062966
 30
0.0
 11
18.99999625813416
 21
32.97381135062966
 31
0.0
  0
LINE
  5
EF41
330
EED1
100
AcDbEntity
  8
0
100
AcDbLine
 10
22.09999625813407
 20
30.99999727219767
 30
0.0
 11
22.09999625813407
 21
22.99999727219767
 31
0.0
  0
LINE
  5
EF42
330
EED1
100
AcDbEntity
  8
0
100
AcDbLine
 10
22.6999962581342
 20
30.99999727219767
 30
0.0
 11
22.6999962581342
 21
22.99999727219767
 31
0.0
  0
LINE
  5
EF43
330
EED1
100
AcDbEntity
  8
0
100
AcDbLine
 10
23.49999625813416
 20
30.99999727219767
 30
0.0
 11
23.49999625813416
 21
22.99999727219767
 31
0.0
  0
LINE
  5
EF44
330
EED1
100
AcDbEntity
  8
0
100
AcDbLine
 10
17.6999962581342
 20
32.99999727219767
 30
0.0
 11
17.6999962581342
 21
21.09999727219667
 31
0.0
  0
LINE
  5
EF45
330
EED1
100
AcDbEntity
  8
0
100
AcDbLine
 10
18.49999625813416
 20
32.99999727219767
 30
0.0
 11
18.49999625813416
 21
20.99999727219767
 31
0.0
  0
LINE
  5
EF46
330
EED1
100
AcDbEntity
  8
0
100
AcDbLine
 10
18.99999625813416
 20
32.99999727219767
 30
0.0
 11
18.99999625813416
 21
20.99999727219665
 31
0.0
  0
LINE
  5
EF47
330
EED1
100
AcDbEntity
  8
0
100
AcDbLine
 10
21.99999625813313
 20
31.47381135062869
 30
0.0
 11
21.99999625813313
 21
22.47381135062869
 31
0.0
  0
LINE
  5
EF48
330
EED1
100
AcDbEntity
  8
0
100
AcDbLine
 10
23.69999625813306
 20
31.47381135062869
 30
0.0
 11
23.69999625813306
 21
22.47381135062869
 31
0.0
  0
LINE
  5
EF49
330
EED1
100
AcDbEntity
  8
0
100
AcDbLine
 10
46.99999625813416
 20
47.97381135062869
 30
0.0
 11
46.99999625813416
 21
49.9738113506287
 31
0.0
  0
LINE
  5
EF4A
330
EED1
100
AcDbEntity
  8
0
100
AcDbLine
 10
47.49999625813416
 20
48.97381135062869
 30
0.0
 11
47.49999625813416
 21
54.9738113506287
 31
0.0
  0
LINE
  5
EF4B
330
EED1
100
AcDbEntity
  8
0
100
AcDbLine
 10
-0.0000037418658394
 20
120.5286506839516
 30
0.0
 11
17.99999625813711
 21
120.9999972721966
 31
0.0
  0
LINE
  5
EF4C
330
EED1
100
AcDbEntity
  8
0
100
AcDbLine
 10
10.79999625813513
 20
96.42823256631471
 30
0.0
 11
10.79999625813513
 21
92.57176197807973
 31
0.0
  0
LINE
  5
EF4D
330
EED1
100
AcDbEntity
  8
0
100
AcDbLine
 10
12.99999625813416
 20
94.88907313750871
 30
0.0
 11
12.99999625813416
 21
94.11092140688571
 31
0.0
  0
LINE
  5
EF4E
330
EED1
100
AcDbEntity
  8
0
100
AcDbLine
 10
0.1464428675408271
 20
79.35355066279097
 30
0.0
 11
3.99999625813416
 21
80.99999727219769
 31
0.0
  0
LINE
  5
EF4F
330
EED1
100
AcDbEntity
  8
0
100
AcDbLine
 10
0.9471291169941196
 20
64.05013960001872
 30
0.0
 11
11.57929696984524
 21
64.61301907458164
 31
0.0
  0
LINE
  5
EF50
330
EED1
100
AcDbEntity
  8
0
100
AcDbLine
 10
0.9471291169941196
 20
61.94985494437571
 30
0.0
 11
11.57929696984524
 21
61.38697546981268
 31
0.0
  0
LINE
  5
EF51
330
EED1
100
AcDbEntity
  8
0
100
AcDbLine
 10
0.9471291169941196
 20
57.05013960001872
 30
0.0
 11
11.57929696984524
 21
57.61301907458165
 31
0.0
  0
LINE
  5
EF52
330
EED1
100
AcDbEntity
  8
0
100
AcDbLine
 10
0.9471291169941196
 20
92.05013960001872
 30
0.0
 11
11.57929696984524
 21
92.61301907458165
 31
0.0
  0
LINE
  5
EF53
330
EED1
100
AcDbEntity
  8
0
100
AcDbLine
 10
0.9471291169941196
 20
89.94985494437571
 30
0.0
 11
11.57929696984524
 21
89.38697546981268
 31
0.0
  0
LINE
  5
EF54
330
EED1
100
AcDbEntity
  8
0
100
AcDbLine
 10
0.9471291169941196
 20
85.05013960001873
 30
0.0
 11
11.57929696984524
 21
85.61301907458163
 31
0.0
  0
LINE
  5
EF55
330
EED1
100
AcDbEntity
  8
0
100
AcDbLine
 10
0.9471291169941196
 20
82.94985494437572
 30
0.0
 11
11.57929696984524
 21
82.38697546981269
 31
0.0
  0
LINE
  5
EF56
330
EED1
100
AcDbEntity
  8
0
100
AcDbLine
 10
0.9471291169941196
 20
78.05013960001872
 30
0.0
 11
11.57929696984524
 21
78.61301907458164
 31
0.0
  0
LINE
  5
EF57
330
EED1
100
AcDbEntity
  8
0
100
AcDbLine
 10
0.9471291169941196
 20
75.94985494437572
 30
0.0
 11
11.57929696984524
 21
75.38697546981268
 31
0.0
  0
LINE
  5
EF58
330
EED1
100
AcDbEntity
  8
0
100
AcDbLine
 10
0.9471291169941196
 20
71.05013960001873
 30
0.0
 11
11.57929696984524
 21
71.61301907458164
 31
0.0
  0
LINE
  5
EF59
330
EED1
100
AcDbEntity
  8
0
100
AcDbLine
 10
0.9471291169941196
 20
68.94985494437571
 30
0.0
 11
11.57929696984524
 21
68.38697546981268
 31
0.0
  0
LINE
  5
EF5A
330
EED1
100
AcDbEntity
  8
0
100
AcDbLine
 10
-0.0000037418658394
 20
63.05153804514964
 30
0.0
 11
-0.0000037418658394
 21
62.94845649924468
 31
0.0
  0
ARC
  5
EF5B
330
EED1
100
AcDbEntity
  8
0
100
AcDbCircle
 10
0.9999962581341605
 20
63.05153804514964
 30
0.0
 40
1.0
100
AcDbArc
 50
93.03047684586102
 51
180.0
  0
ARC
  5
EF5C
330
EED1
100
AcDbEntity
  8
0
100
AcDbCircle
 10
0.9999962581341605
 20
62.94845649924468
 30
0.0
 40
1.0
100
AcDbArc
 50
180.0
 51
266.9695231541389
  0
LINE
  5
EF5D
330
EED1
100
AcDbEntity
  8
0
100
AcDbLine
 10
-0.0000037418658394
 20
70.05153804514964
 30
0.0
 11
-0.0000037418658394
 21
69.94845649924468
 31
0.0
  0
ARC
  5
EF5E
330
EED1
100
AcDbEntity
  8
0
100
AcDbCircle
 10
0.9999962581341605
 20
70.05153804514964
 30
0.0
 40
1.0
100
AcDbArc
 50
93.03047684586102
 51
180.0
  0
ARC
  5
EF5F
330
EED1
100
AcDbEntity
  8
0
100
AcDbCircle
 10
0.9999962581341605
 20
69.94845649924468
 30
0.0
 40
1.0
100
AcDbArc
 50
180.0
 51
266.9695231541389
  0
ARC
  5
EF60
330
EED1
100
AcDbEntity
  8
0
100
AcDbCircle
 10
0.4999962581341606
 20
78.99999727219769
 30
0.0
 40
0.5
100
AcDbArc
 50
134.9999999999726
 51
180.0
  0
LINE
  5
EF61
330
EED1
100
AcDbEntity
  8
0
100
AcDbLine
 10
-0.0000037418658394
 20
77.05153804514964
 30
0.0
 11
-0.0000037418658394
 21
76.94845649924468
 31
0.0
  0
ARC
  5
EF62
330
EED1
100
AcDbEntity
  8
0
100
AcDbCircle
 10
0.9999962581341605
 20
77.05153804514964
 30
0.0
 40
1.0
100
AcDbArc
 50
93.03047684586102
 51
180.0
  0
ARC
  5
EF63
330
EED1
100
AcDbEntity
  8
0
100
AcDbCircle
 10
0.9999962581341605
 20
76.94845649924468
 30
0.0
 40
1.0
100
AcDbArc
 50
180.0
 51
266.9695231541389
  0
LINE
  5
EF64
330
EED1
100
AcDbEntity
  8
0
100
AcDbLine
 10
-0.0000037418658394
 20
84.05153804514965
 30
0.0
 11
-0.0000037418658394
 21
83.94845649924468
 31
0.0
  0
ARC
  5
EF65
330
EED1
100
AcDbEntity
  8
0
100
AcDbCircle
 10
0.9999962581341605
 20
84.05153804514965
 30
0.0
 40
1.0
100
AcDbArc
 50
93.03047684586102
 51
180.0
  0
ARC
  5
EF66
330
EED1
100
AcDbEntity
  8
0
100
AcDbCircle
 10
0.9999962581341605
 20
83.94845649924468
 30
0.0
 40
1.0
100
AcDbArc
 50
180.0
 51
266.9695231541389
  0
LINE
  5
EF67
330
EED1
100
AcDbEntity
  8
0
100
AcDbLine
 10
-0.0000037418658394
 20
91.05153804514964
 30
0.0
 11
-0.0000037418658394
 21
90.94845649924469
 31
0.0
  0
ARC
  5
EF68
330
EED1
100
AcDbEntity
  8
0
100
AcDbCircle
 10
0.9999962581341605
 20
91.05153804514964
 30
0.0
 40
1.0
100
AcDbArc
 50
93.03047684586102
 51
180.0
  0
ARC
  5
EF69
330
EED1
100
AcDbEntity
  8
0
100
AcDbCircle
 10
0.9999962581341605
 20
90.94845649924469
 30
0.0
 40
1.0
100
AcDbArc
 50
180.0
 51
266.9695231541389
  0
LINE
  5
EF6A
330
EED1
100
AcDbEntity
  8
0
  6
Continuous
100
AcDbLine
 10
3.99999625813416
 20
75.78823256631527
 30
0.0
 11
3.99999625813416
 21
71.21176197807912
 31
0.0
  0
LINE
  5
EF6B
330
EED1
100
AcDbEntity
  8
0
  6
Continuous
100
AcDbLine
 10
5.99999625813416
 20
75.68235021337404
 30
0.0
 11
5.99999625813416
 21
71.31764433102034
 31
0.0
  0
LINE
  5
EF6C
330
EED1
100
AcDbEntity
  8
0
100
AcDbLine
 10
1.99999625813416
 20
71.10587962513791
 30
0.0
 11
1.99999625813416
 21
75.89411491925651
 31
0.0
  0
LINE
  5
EF6D
330
EED1
100
AcDbEntity
  8
0
100
AcDbLine
 10
1.999996258134501
 20
75.89411491925649
 30
0.0
 11
1.999996258134387
 21
71.10587962513793
 31
0.0
  0
ARC
  5
EF6E
330
EED1
100
AcDbEntity
  8
0
100
AcDbCircle
 10
11.49999625813416
 20
73.88907313750872
 30
0.0
 40
1.5
100
AcDbArc
 50
0.0
 51
86.96952315413899
  0
LINE
  5
EF6F
330
EED1
100
AcDbEntity
  8
0
  6
Continuous
100
AcDbLine
 10
3.99999625813416
 20
61.78823256631528
 30
0.0
 11
3.99999625813416
 21
57.21176197807913
 31
0.0
  0
LINE
  5
EF70
330
EED1
100
AcDbEntity
  8
0
  6
Continuous
100
AcDbLine
 10
3.99999625813416
 20
68.78823256631529
 30
0.0
 11
3.99999625813416
 21
64.21176197807914
 31
0.0
  0
LINE
  5
EF71
330
EED1
100
AcDbEntity
  8
0
  6
Continuous
100
AcDbLine
 10
5.99999625813416
 20
68.68235021337404
 30
0.0
 11
5.99999625813416
 21
64.31764433102036
 31
0.0
  0
LINE
  5
EF72
330
EED1
100
AcDbEntity
  8
0
100
AcDbLine
 10
1.99999625813416
 20
61.89411491925651
 30
0.0
 11
1.99999625813416
 21
57.10587962513793
 31
0.0
  0
LINE
  5
EF73
330
EED1
100
AcDbEntity
  8
0
100
AcDbLine
 10
1.99999625813416
 20
64.10587962513793
 30
0.0
 11
1.99999625813416
 21
68.89411491925651
 31
0.0
  0
LINE
  5
EF74
330
EED1
100
AcDbEntity
  8
0
  6
Continuous
100
AcDbLine
 10
5.99999625813416
 20
61.68235021337403
 30
0.0
 11
5.99999625813416
 21
57.31764433102037
 31
0.0
  0
LINE
  5
EF75
330
EED1
100
AcDbEntity
  8
0
100
AcDbLine
 10
1.99999625813416
 20
57.10587962513793
 30
0.0
 11
1.99999625813416
 21
61.89411491925651
 31
0.0
  0
LINE
  5
EF76
330
EED1
100
AcDbEntity
  8
0
100
AcDbLine
 10
1.999996258134387
 20
68.89411491925651
 30
0.0
 11
1.99999625813416
 21
64.10587962513793
 31
0.0
  0
LINE
  5
EF77
330
EED1
100
AcDbEntity
  8
0
100
AcDbLine
 10
12.99999625813416
 20
59.88907313750871
 30
0.0
 11
12.99999625813416
 21
59.11092140688572
 31
0.0
  0
ARC
  5
EF78
330
EED1
100
AcDbEntity
  8
0
100
AcDbCircle
 10
11.49999625813416
 20
59.88907313750871
 30
0.0
 40
1.5
100
AcDbArc
 50
0.0
 51
86.96952315413899
  0
ARC
  5
EF79
330
EED1
100
AcDbEntity
  8
0
100
AcDbCircle
 10
11.49999625813416
 20
59.11092140688572
 30
0.0
 40
1.5
100
AcDbArc
 50
273.030476845861
 51
0.0
  0
LINE
  5
EF7A
330
EED1
100
AcDbEntity
  8
0
100
AcDbLine
 10
12.99999625813416
 20
66.88907313750871
 30
0.0
 11
12.99999625813416
 21
66.11092140688572
 31
0.0
  0
ARC
  5
EF7B
330
EED1
100
AcDbEntity
  8
0
100
AcDbCircle
 10
11.49999625813416
 20
66.88907313750871
 30
0.0
 40
1.5
100
AcDbArc
 50
0.0
 51
86.96952315413899
  0
LINE
  5
EF7C
330
EED1
100
AcDbEntity
  8
0
100
AcDbLine
 10
12.99999625813416
 20
73.88907313750872
 30
0.0
 11
12.99999625813416
 21
73.11092140688572
 31
0.0
  0
ARC
  5
EF7D
330
EED1
100
AcDbEntity
  8
0
100
AcDbCircle
 10
11.49999625813416
 20
73.11092140688572
 30
0.0
 40
1.5
100
AcDbArc
 50
273.030476845861
 51
0.0
  0
ARC
  5
EF7E
330
EED1
100
AcDbEntity
  8
0
100
AcDbCircle
 10
11.49999625813416
 20
66.11092140688572
 30
0.0
 40
1.5
100
AcDbArc
 50
273.030476845861
 51
0.0
  0
LWPOLYLINE
  5
EF7F
330
EED1
100
AcDbEntity
  8
0
100
AcDbPolyline
 90
        3
 70
     0
 43
0.0
 10
12.86994943312072
 20
86.49999727219769
 10
5.99999625813416
 20
86.49999727219769
 10
5.99999625813416
 20
85.31764433102036
  0
LINE
  5
EF80
330
EED1
100
AcDbEntity
  8
0
  6
Continuous
100
AcDbLine
 10
3.99999625813416
 20
78.99999727219769
 30
0.0
 11
3.99999625813416
 21
78.21176197807914
 31
0.0
  0
LINE
  5
EF81
330
EED1
100
AcDbEntity
  8
0
  6
Continuous
100
AcDbLine
 10
5.99999625813416
 20
82.68235021337403
 30
0.0
 11
5.99999625813416
 21
78.31764433102034
 31
0.0
  0
LINE
  5
EF82
330
EED1
100
AcDbEntity
  8
0
100
AcDbLine
 10
1.99999625813416
 20
78.10587962513792
 30
0.0
 11
1.99999625813416
 21
78.14548900799362
 31
0.0
  0
LINE
  5
EF83
330
EED1
100
AcDbEntity
  8
0
100
AcDbLine
 10
3.99999625813416
 20
82.78823256631527
 30
0.0
 11
3.99999625813416
 21
80.99999727219769
 31
0.0
  0
LINE
  5
EF84
330
EED1
100
AcDbEntity
  8
0
100
AcDbLine
 10
5.99999625813416
 20
85.31764433102035
 30
0.0
 11
5.99999625813416
 21
85.99999727219769
 31
0.0
  0
LINE
  5
EF85
330
EED1
100
AcDbEntity
  8
0
100
AcDbLine
 10
1.999996258134615
 20
78.14548900799384
 30
0.0
 11
1.999996258134501
 21
78.10587962513793
 31
0.0
  0
LINE
  5
EF86
330
EED1
100
AcDbEntity
  8
0
100
AcDbLine
 10
1.999996258134615
 20
78.14548900799384
 30
0.0
 11
3.99999625813416
 21
78.99999727219769
 31
0.0
  0
ARC
  5
EF87
330
EED1
100
AcDbEntity
  8
0
100
AcDbCircle
 10
3.499996258134387
 20
80.99999727219769
 30
0.0
 40
0.5
100
AcDbArc
 50
0.0
 51
90.0
  0
ARC
  5
EF88
330
EED1
100
AcDbEntity
  8
0
100
AcDbCircle
 10
2.499996258134387
 20
80.99999727219769
 30
0.0
 40
0.5
100
AcDbArc
 50
90.0
 51
180.0
  0
LINE
  5
EF89
330
EED1
100
AcDbEntity
  8
0
100
AcDbLine
 10
1.999996258134387
 20
80.99999727219769
 30
0.0
 11
1.999996258134615
 21
80.14548900799384
 31
0.0
  0
LINE
  5
EF8A
330
EED1
100
AcDbEntity
  8
0
100
AcDbLine
 10
3.499996258134387
 20
81.49999727219769
 30
0.0
 11
2.499996258134387
 21
81.49999727219769
 31
0.0
  0
ARC
  5
EF8B
330
EED1
100
AcDbEntity
  8
0
100
AcDbCircle
 10
4.49999625813416
 20
78.99999727219769
 30
0.0
 40
0.5
100
AcDbArc
 50
180.0
 51
270.0
  0
ARC
  5
EF8C
330
EED1
100
AcDbEntity
  8
0
100
AcDbCircle
 10
5.499996258134387
 20
78.99999727219769
 30
0.0
 40
0.5
100
AcDbArc
 50
270.0
 51
0.0
  0
ARC
  5
EF8D
330
EED1
100
AcDbEntity
  8
0
100
AcDbCircle
 10
5.49999625813416
 20
85.99999727219769
 30
0.0
 40
0.5
100
AcDbArc
 50
0.0
 51
90.0
  0
ARC
  5
EF8E
330
EED1
100
AcDbEntity
  8
0
100
AcDbCircle
 10
4.49999625813416
 20
85.99999727219769
 30
0.0
 40
0.5
100
AcDbArc
 50
90.0
 51
180.0
  0
LINE
  5
EF8F
330
EED1
100
AcDbEntity
  8
0
100
AcDbLine
 10
3.99999625813416
 20
85.99999727219769
 30
0.0
 11
3.99999625813416
 21
85.21176197807914
 31
0.0
  0
LINE
  5
EF90
330
EED1
100
AcDbEntity
  8
0
100
AcDbLine
 10
5.49999625813416
 20
86.49999727219769
 30
0.0
 11
4.49999625813416
 21
86.49999727219769
 31
0.0
  0
LINE
  5
EF91
330
EED1
100
AcDbEntity
  8
0
100
AcDbLine
 10
5.999996258134387
 20
78.99999727219769
 30
0.0
 11
5.99999625813416
 21
82.68235021337401
 31
0.0
  0
LINE
  5
EF92
330
EED1
100
AcDbEntity
  8
0
100
AcDbLine
 10
4.49999625813416
 20
78.49999727219769
 30
0.0
 11
5.499996258134387
 21
78.49999727219769
 31
0.0
  0
LINE
  5
EF93
330
EED1
100
AcDbEntity
  8
0
  6
Continuous
100
AcDbLine
 10
5.99999625813416
 20
86.49999727219769
 30
0.0
 11
5.99999625813416
 21
85.31764433102036
 31
0.0
  0
LINE
  5
EF94
330
EED1
100
AcDbEntity
  8
0
100
AcDbLine
 10
12.99999625813416
 20
80.88907313750871
 30
0.0
 11
12.99999625813416
 21
80.11092140688573
 31
0.0
  0
ARC
  5
EF95
330
EED1
100
AcDbEntity
  8
0
100
AcDbCircle
 10
11.49999625813416
 20
80.11092140688573
 30
0.0
 40
1.5
100
AcDbArc
 50
273.030476845861
 51
0.0
  0
LINE
  5
EF96
330
EED1
100
AcDbEntity
  8
0
100
AcDbLine
 10
11.99999625813416
 20
86.49999727219769
 30
0.0
 11
11.99999625813416
 21
89.3032866998817
 31
0.0
  0
LINE
  5
EF97
330
EED1
100
AcDbEntity
  8
0
100
AcDbLine
 10
10.79999625813513
 20
89.04895974651868
 30
0.0
 11
11.99999625813416
 21
89.01753664063575
 31
0.0
  0
LINE
  5
EF98
330
EED1
100
AcDbEntity
  8
0
100
AcDbLine
 10
12.99999625813416
 20
87.88907313750872
 30
0.0
 11
12.99999625813416
 21
87.11092140688572
 31
0.0
  0
ARC
  5
EF99
330
EED1
100
AcDbEntity
  8
0
100
AcDbCircle
 10
11.49999625813416
 20
87.11092140688572
 30
0.0
 40
1.5
100
AcDbArc
 50
273.030476845861
 51
0.0
  0
ARC
  5
EF9A
330
EED1
100
AcDbEntity
  8
0
100
AcDbCircle
 10
11.49999625813416
 20
94.11092140688571
 30
0.0
 40
1.5
100
AcDbArc
 50
273.030476845861
 51
0.0
  0
LINE
  5
EF9B
330
EED1
100
AcDbEntity
  8
0
100
AcDbLine
 10
10.79999625813513
 20
89.4282325663147
 30
0.0
 11
10.79999625813513
 21
89.04895974651868
 31
0.0
  0
ARC
  5
EF9C
330
EED1
100
AcDbEntity
  8
0
100
AcDbCircle
 10
11.49999625813416
 20
87.88907313750872
 30
0.0
 40
1.5
100
AcDbArc
 50
0.0
 51
86.96952315413899
  0
ARC
  5
EF9D
330
EED1
100
AcDbEntity
  8
0
100
AcDbCircle
 10
11.49999625813416
 20
80.88907313750871
 30
0.0
 40
1.5
100
AcDbArc
 50
0.0
 51
86.96952315413899
  0
LINE
  5
EF9E
330
EED1
100
AcDbEntity
  8
0
100
AcDbLine
 10
0.9471291169941196
 20
96.94985494437572
 30
0.0
 11
11.57929696984524
 21
96.38697546981269
 31
0.0
  0
LINE
  5
EF9F
330
EED1
100
AcDbEntity
  8
0
100
AcDbLine
 10
0.4738282800130947
 20
104.3251647881776
 30
0.0
 11
11.57850019249917
 21
103.7431935935776
 31
0.0
  0
LINE
  5
EFA0
330
EED1
100
AcDbEntity
  8
0
100
AcDbLine
 10
0.9471291169941196
 20
99.05013960001873
 30
0.0
 11
11.57929696984524
 21
99.61301907458164
 31
0.0
  0
LINE
  5
EFA1
330
EED1
100
AcDbEntity
  8
0
100
AcDbLine
 10
-0.0000037418658394
 20
104.8244795555547
 30
0.0
 11
-0.0000037418658394
 21
120.5286506839516
 31
0.0
  0
LINE
  5
EFA2
330
EED1
100
AcDbEntity
  8
0
100
AcDbLine
 10
-0.0000037418658394
 20
98.05153804514965
 30
0.0
 11
-0.0000037418658394
 21
97.94845649924468
 31
0.0
  0
POINT
  5
EFA3
330
EED1
100
AcDbEntity
  8
0
100
AcDbPoint
 10
-0.0000037418658394
 20
104.3499972721966
 30
0.0
  0
ARC
  5
EFA4
330
EED1
100
AcDbEntity
  8
0
100
AcDbCircle
 10
0.4999962581341606
 20
104.8244795555547
 30
0.0
 40
0.5
100
AcDbArc
 50
180.0
 51
266.9999999999943
  0
ARC
  5
EFA5
330
EED1
100
AcDbEntity
  8
0
100
AcDbCircle
 10
0.9999962581341605
 20
98.05153804514965
 30
0.0
 40
1.0
100
AcDbArc
 50
93.03047684586102
 51
180.0
  0
ARC
  5
EFA6
330
EED1
100
AcDbEntity
  8
0
100
AcDbCircle
 10
0.9999962581341605
 20
97.94845649924468
 30
0.0
 40
1.0
100
AcDbArc
 50
180.0
 51
266.9695231541389
  0
ARC
  5
EFA7
330
EED1
100
AcDbEntity
  8
0
100
AcDbCircle
 10
11.49999625813416
 20
94.88907313750871
 30
0.0
 40
1.5
100
AcDbArc
 50
0.0
 51
86.96952315413899
  0
LINE
  5
EFA8
330
EED1
100
AcDbEntity
  8
0
100
AcDbLine
 10
10.79999625813513
 20
103.7839932559406
 30
0.0
 11
10.79999625813513
 21
99.56600128845366
 31
0.0
  0
LINE
  5
EFA9
330
EED1
100
AcDbEntity
  8
0
100
AcDbLine
 10
12.99999625813416
 20
102.2452492914456
 30
0.0
 11
12.99999625813416
 21
101.1109214068857
 31
0.0
  0
ARC
  5
EFAA
330
EED1
100
AcDbEntity
  8
0
100
AcDbCircle
 10
11.49999625813416
 20
102.2452492914456
 30
0.0
 40
1.5
100
AcDbArc
 50
0.0
 51
87.00000000000093
  0
ARC
  5
EFAB
330
EED1
100
AcDbEntity
  8
0
100
AcDbCircle
 10
11.49999625813416
 20
101.1109214068857
 30
0.0
 40
1.5
100
AcDbArc
 50
273.030476845861
 51
0.0
  0
LINE
  5
EFAC
330
EED1
100
AcDbEntity
  8
0
100
AcDbLine
 10
48.55277444428816
 20
101.9999972721966
 30
0.0
 11
48.55277444428816
 21
91.99999727219667
 31
0.0
  0
LINE
  5
EFAD
330
EED1
100
AcDbEntity
  8
0
100
AcDbLine
 10
18.99999625813416
 20
110.4710163300716
 30
0.0
 11
18.99999625813416
 21
82.99999727219768
 31
0.0
  0
LINE
  5
EFAE
330
EED1
100
AcDbEntity
  8
0
100
AcDbLine
 10
19.99999625813416
 20
82.97381135062966
 30
0.0
 11
19.99999625813416
 21
109.6057307773266
 31
0.0
  0
LINE
  5
EFAF
330
EED1
100
AcDbEntity
  8
0
100
AcDbLine
 10
47.49999625813416
 20
70.97381135062869
 30
0.0
 11
47.49999625813416
 21
96.97381135062869
 31
0.0
  0
LINE
  5
EFB0
330
EED1
100
AcDbEntity
  8
0
100
AcDbLine
 10
48.49999625813416
 20
56.97381135062869
 30
0.0
 11
29.99999625813416
 21
56.97381135062869
 31
0.0
  0
LINE
  5
EFB1
330
EED1
100
AcDbEntity
  8
0
100
AcDbLine
 10
48.49999625813416
 20
61.97381135062869
 30
0.0
 11
29.99999625813416
 21
61.97381135062869
 31
0.0
  0
LINE
  5
EFB2
330
EED1
100
AcDbEntity
  8
0
100
AcDbLine
 10
48.49999625813416
 20
63.97381135062869
 30
0.0
 11
29.99999625813416
 21
63.97381135062869
 31
0.0
  0
LINE
  5
EFB3
330
EED1
100
AcDbEntity
  8
0
100
AcDbLine
 10
48.49999625813416
 20
68.97381135062869
 30
0.0
 11
29.99999625813416
 21
68.97381135062869
 31
0.0
  0
LINE
  5
EFB4
330
EED1
100
AcDbEntity
  8
0
100
AcDbLine
 10
48.49999625813416
 20
70.97381135062869
 30
0.0
 11
29.99999625813416
 21
70.97381135062869
 31
0.0
  0
LINE
  5
EFB5
330
EED1
100
AcDbEntity
  8
0
100
AcDbLine
 10
46.99999625813416
 20
84.9738113506287
 30
0.0
 11
29.99999625813416
 21
84.9738113506287
 31
0.0
  0
LINE
  5
EFB6
330
EED1
100
AcDbEntity
  8
0
100
AcDbLine
 10
46.99999625813416
 20
82.97381135062869
 30
0.0
 11
29.99999625813416
 21
82.97381135062869
 31
0.0
  0
LINE
  5
EFB7
330
EED1
100
AcDbEntity
  8
0
100
AcDbLine
 10
46.99999625813416
 20
77.97381135062869
 30
0.0
 11
29.99999625813416
 21
77.97381135062869
 31
0.0
  0
LINE
  5
EFB8
330
EED1
100
AcDbEntity
  8
0
100
AcDbLine
 10
46.99999625813416
 20
75.97381135062869
 30
0.0
 11
29.99999625813416
 21
75.97381135062869
 31
0.0
  0
LINE
  5
EFB9
330
EED1
100
AcDbEntity
  8
0
100
AcDbLine
 10
46.99999625813416
 20
91.97381135062869
 30
0.0
 11
29.99999625813416
 21
91.97381135062869
 31
0.0
  0
LINE
  5
EFBA
330
EED1
100
AcDbEntity
  8
0
100
AcDbLine
 10
46.99999625813416
 20
89.9738113506287
 30
0.0
 11
29.99999625813416
 21
89.9738113506287
 31
0.0
  0
LINE
  5
EFBB
330
EED1
100
AcDbEntity
  8
0
100
AcDbLine
 10
22.09999625813407
 20
80.99999727219767
 30
0.0
 11
22.09999625813407
 21
72.99999727219767
 31
0.0
  0
LINE
  5
EFBC
330
EED1
100
AcDbEntity
  8
0
100
AcDbLine
 10
22.6999962581342
 20
80.99999727219767
 30
0.0
 11
22.6999962581342
 21
72.99999727219767
 31
0.0
  0
LINE
  5
EFBD
330
EED1
100
AcDbEntity
  8
0
100
AcDbLine
 10
23.49999625813416
 20
80.99999727219767
 30
0.0
 11
23.49999625813416
 21
72.99999727219767
 31
0.0
  0
LINE
  5
EFBE
330
EED1
100
AcDbEntity
  8
0
100
AcDbLine
 10
21.99999625813313
 20
81.4738113506287
 30
0.0
 11
21.99999625813313
 21
72.4738113506287
 31
0.0
  0
LINE
  5
EFBF
330
EED1
100
AcDbEntity
  8
0
100
AcDbLine
 10
23.69999625813306
 20
81.4738113506287
 30
0.0
 11
23.69999625813306
 21
72.4738113506287
 31
0.0
  0
LINE
  5
EFC0
330
EED1
100
AcDbEntity
  8
0
100
AcDbLine
 10
17.6999962581342
 20
82.99999727219768
 30
0.0
 11
17.6999962581342
 21
71.09999727219667
 31
0.0
  0
LINE
  5
EFC1
330
EED1
100
AcDbEntity
  8
0
100
AcDbLine
 10
18.49999625813416
 20
82.99999727219768
 30
0.0
 11
18.49999625813416
 21
70.99999727219767
 31
0.0
  0
LINE
  5
EFC2
330
EED1
100
AcDbEntity
  8
0
100
AcDbLine
 10
18.99999625813416
 20
70.99999727219665
 30
0.0
 11
18.99999625813416
 21
82.99999727219768
 31
0.0
  0
LINE
  5
EFC3
330
EED1
100
AcDbEntity
  8
0
100
AcDbLine
 10
18.99999625813416
 20
70.99999727219767
 30
0.0
 11
17.6999962581342
 21
70.99999727219767
 31
0.0
  0
LINE
  5
EFC4
330
EED1
100
AcDbEntity
  8
0
100
AcDbLine
 10
19.99999625813416
 20
70.97381135062869
 30
0.0
 11
18.99999625813416
 21
70.97381135062869
 31
0.0
  0
LINE
  5
EFC5
330
EED1
100
AcDbEntity
  8
0
100
AcDbLine
 10
23.49999625813416
 20
72.99999727219767
 30
0.0
 11
21.99999625813313
 21
72.99999727219767
 31
0.0
  0
LINE
  5
EFC6
330
EED1
100
AcDbEntity
  8
0
100
AcDbLine
 10
23.69999625813306
 20
72.4738113506287
 30
0.0
 11
21.99999625813313
 21
72.4738113506287
 31
0.0
  0
LINE
  5
EFC7
330
EED1
100
AcDbEntity
  8
0
100
AcDbLine
 10
23.49999625813416
 20
80.99999727219767
 30
0.0
 11
21.99999625813313
 21
80.99999727219767
 31
0.0
  0
LINE
  5
EFC8
330
EED1
100
AcDbEntity
  8
0
100
AcDbLine
 10
18.99999625813416
 20
82.99999727219768
 30
0.0
 11
17.6999962581342
 21
82.99999727219768
 31
0.0
  0
LINE
  5
EFC9
330
EED1
100
AcDbEntity
  8
0
100
AcDbLine
 10
23.69999625813306
 20
81.4738113506287
 30
0.0
 11
21.99999625813313
 21
81.4738113506287
 31
0.0
  0
LINE
  5
EFCA
330
EED1
100
AcDbEntity
  8
0
100
AcDbLine
 10
19.99999625813416
 20
82.97381135062966
 30
0.0
 11
18.99999625813416
 21
82.97381135062966
 31
0.0
  0
LINE
  5
EFCB
330
EED1
100
AcDbEntity
  8
0
100
AcDbLine
 10
47.49999625813416
 20
56.97381135062869
 30
0.0
 11
47.49999625813416
 21
61.97381135062869
 31
0.0
  0
LINE
  5
EFCC
330
EED1
100
AcDbEntity
  8
0
100
AcDbLine
 10
47.49999625813416
 20
63.97381135062869
 30
0.0
 11
47.49999625813416
 21
68.97381135062869
 31
0.0
  0
ARC
  5
EFCD
330
EED1
100
AcDbEntity
  8
0
100
AcDbCircle
 10
49.29999625813412
 20
81.99999727219667
 30
0.0
 40
1.05
100
AcDbArc
 50
139.6324064558195
 51
220.3675935441805
  0
LINE
  5
EFCE
330
EED1
100
AcDbEntity
  8
0
100
AcDbLine
 10
46.99999625813416
 20
75.97381135062869
 30
0.0
 11
46.99999625813416
 21
77.97381135062869
 31
0.0
  0
LINE
  5
EFCF
330
EED1
100
AcDbEntity
  8
0
100
AcDbLine
 10
46.99999625813416
 20
82.97381135062869
 30
0.0
 11
46.99999625813416
 21
84.9738113506287
 31
0.0
  0
LINE
  5
EFD0
330
EED1
100
AcDbEntity
  8
0
100
AcDbLine
 10
46.99999625813416
 20
89.9738113506287
 30
0.0
 11
46.99999625813416
 21
91.97381135062869
 31
0.0
  0
LINE
  5
EFD1
330
EED1
100
AcDbEntity
  8
0
100
AcDbLine
 10
48.55277444428816
 20
96.97381135062869
 30
0.0
 11
29.99999625813416
 21
96.97381135062869
 31
0.0
  0
LINE
  5
EFD2
330
EED1
100
AcDbEntity
  8
0
100
AcDbLine
 10
48.55277444428816
 20
98.9738113506287
 30
0.0
 11
29.99999625813416
 21
98.9738113506287
 31
0.0
  0
LINE
  5
EFD3
330
EED1
100
AcDbEntity
  8
0
100
AcDbLine
 10
28.09999625813407
 20
121.9738113506287
 30
0.0
 11
36.69999625813329
 21
121.9738113506287
 31
0.0
  0
LINE
  5
EFD4
330
EED1
100
AcDbEntity
  8
0
100
AcDbLine
 10
29.19999625813318
 20
126.2738113506287
 30
0.0
 11
35.09999625813316
 21
126.2738113506287
 31
0.0
  0
LINE
  5
EFD5
330
EED1
100
AcDbEntity
  8
0
100
AcDbLine
 10
29.59999625813316
 20
127.5738113506286
 30
0.0
 11
38.94499625813319
 21
127.5738113506286
 31
0.0
  0
LINE
  5
EFD6
330
EED1
100
AcDbEntity
  8
0
100
AcDbLine
 10
21.99999625813416
 20
110.9999972721976
 30
0.0
 11
21.99999625813416
 21
120.8952535859206
 31
0.0
  0
LINE
  5
EFD7
330
EED1
100
AcDbEntity
  8
0
100
AcDbLine
 10
22.99999625813416
 20
120.9738113506287
 30
0.0
 11
22.99999625813416
 21
110.1347117194516
 31
0.0
  0
LINE
  5
EFD8
330
EED1
100
AcDbEntity
  8
0
100
AcDbLine
 10
21.99999625813416
 20
120.4738113506286
 30
0.0
 11
21.99999625813416
 21
110.9738113506296
 31
0.0
  0
LINE
  5
EFD9
330
EED1
100
AcDbEntity
  8
0
100
AcDbLine
 10
21.99999625813416
 20
110.9999972721976
 30
0.0
 11
18.99999625813416
 21
110.4710163300716
 31
0.0
  0
LINE
  5
EFDA
330
EED1
100
AcDbEntity
  8
0
100
AcDbLine
 10
22.99999625813416
 20
110.1347117194516
 30
0.0
 11
19.99999625813416
 21
109.6057307773266
 31
0.0
  0
LINE
  5
EFDB
330
EED1
100
AcDbEntity
  8
0
100
AcDbLine
 10
18.99999625813416
 20
110.4448304085036
 30
0.0
 11
21.99999625813416
 21
110.9738113506296
 31
0.0
  0
LINE
  5
EFDC
330
EED1
100
AcDbEntity
  8
0
100
AcDbLine
 10
17.99999625813416
 20
120.9999972721976
 30
0.0
 11
21.99999625813416
 21
120.8952535859206
 31
0.0
  0
LINE
  5
EFDD
330
EED1
100
AcDbEntity
  8
0
100
AcDbLine
 10
21.99999625813416
 20
120.4738113506286
 30
0.0
 11
22.99999625813416
 21
120.4738113506286
 31
0.0
  0
LINE
  5
EFDE
330
EED1
100
AcDbEntity
  8
0
100
AcDbLine
 10
19.99999625813416
 20
120.9738113506287
 30
0.0
 11
19.99999625813416
 21
120.9476254290596
 31
0.0
  0
LINE
  5
EFDF
330
EED1
100
AcDbEntity
  8
0
100
AcDbLine
 10
19.99999625813416
 20
120.9738113506287
 30
0.0
 11
19.99999625813416
 21
120.9476254290591
 31
0.0
  0
LINE
  5
EFE0
330
EED1
100
AcDbEntity
  8
0
100
AcDbLine
 10
28.09999625813407
 20
120.9738113506287
 30
0.0
 11
28.09999625813407
 21
121.9738113506287
 31
0.0
  0
LINE
  5
EFE1
330
EED1
100
AcDbEntity
  8
0
100
AcDbLine
 10
29.19999625813318
 20
121.9738113506287
 30
0.0
 11
29.19999625813318
 21
126.2738113506287
 31
0.0
  0
LINE
  5
EFE2
330
EED1
100
AcDbEntity
  8
0
100
AcDbLine
 10
29.59999625813316
 20
126.2738113506286
 30
0.0
 11
29.59999625813316
 21
127.5738113506286
 31
0.0
  0
LINE
  5
EFE3
330
EED1
100
AcDbEntity
  8
0
100
AcDbLine
 10
39.1999962581342
 20
107.4738113506287
 30
0.0
 11
39.1999962581342
 21
115.4738113506286
 31
0.0
  0
LINE
  5
EFE4
330
EED1
100
AcDbEntity
  8
0
100
AcDbLine
 10
42.19999625813421
 20
105.4738113506286
 30
0.0
 11
42.19999625813421
 21
117.4738113506286
 31
0.0
  0
LINE
  5
EFE5
330
EED1
100
AcDbEntity
  8
0
100
AcDbLine
 10
42.19999625813421
 20
105.4738113506286
 30
0.0
 11
33.99999625813416
 21
105.4738113506286
 31
0.0
  0
LINE
  5
EFE6
330
EED1
100
AcDbEntity
  8
0
100
AcDbLine
 10
37.1999962581342
 20
109.4738113506287
 30
0.0
 11
37.1999962581342
 21
107.4738113506287
 31
0.0
  0
LINE
  5
EFE7
330
EED1
100
AcDbEntity
  8
0
100
AcDbLine
 10
37.1999962581342
 20
107.4738113506287
 30
0.0
 11
39.1999962581342
 21
107.4738113506287
 31
0.0
  0
LINE
  5
EFE8
330
EED1
100
AcDbEntity
  8
0
100
AcDbLine
 10
33.99999625813416
 20
109.4738113506287
 30
0.0
 11
33.99999625813416
 21
105.4738113506286
 31
0.0
  0
LINE
  5
EFE9
330
EED1
100
AcDbEntity
  8
0
100
AcDbLine
 10
33.99999625813416
 20
109.4738113506287
 30
0.0
 11
37.1999962581342
 21
109.4738113506287
 31
0.0
  0
LINE
  5
EFEA
330
EED1
100
AcDbEntity
  8
0
100
AcDbLine
 10
47.49999625813416
 20
98.9738113506287
 30
0.0
 11
47.49999625813416
 21
103.9738113506286
 31
0.0
  0
LINE
  5
EFEB
330
EED1
100
AcDbEntity
  8
0
100
AcDbLine
 10
33.99999625813416
 20
117.4738113506286
 30
0.0
 11
42.19999625813421
 21
117.4738113506286
 31
0.0
  0
LINE
  5
EFEC
330
EED1
100
AcDbEntity
  8
0
100
AcDbLine
 10
36.69999625813329
 20
121.9738113506287
 30
0.0
 11
36.69999625813329
 21
120.9738113506287
 31
0.0
  0
LINE
  5
EFED
330
EED1
100
AcDbEntity
  8
0
100
AcDbLine
 10
35.09999625813316
 20
126.2738113506287
 30
0.0
 11
35.09999625813316
 21
121.9738113506287
 31
0.0
  0
LINE
  5
EFEE
330
EED1
100
AcDbEntity
  8
0
100
AcDbLine
 10
38.94499625813319
 20
127.5738113506286
 30
0.0
 11
38.94499625813319
 21
120.9738113506287
 31
0.0
  0
LINE
  5
EFEF
330
EED1
100
AcDbEntity
  8
0
100
AcDbLine
 10
37.1999962581342
 20
113.4738113506287
 30
0.0
 11
37.1999962581342
 21
115.4738113506286
 31
0.0
  0
LINE
  5
EFF0
330
EED1
100
AcDbEntity
  8
0
100
AcDbLine
 10
37.1999962581342
 20
115.4738113506286
 30
0.0
 11
39.1999962581342
 21
115.4738113506286
 31
0.0
  0
LINE
  5
EFF1
330
EED1
100
AcDbEntity
  8
0
100
AcDbLine
 10
33.99999625813416
 20
113.4738113506287
 30
0.0
 11
33.99999625813416
 21
117.4738113506286
 31
0.0
  0
LINE
  5
EFF2
330
EED1
100
AcDbEntity
  8
0
100
AcDbLine
 10
33.99999625813416
 20
113.4738113506287
 30
0.0
 11
37.1999962581342
 21
113.4738113506287
 31
0.0
  0
LINE
  5
EFF3
330
EED1
100
AcDbEntity
  8
0
100
AcDbLine
 10
67.49999625813416
 20
91.99999727219665
 30
0.0
 11
67.49999625813416
 21
49.99999727219666
 31
0.0
  0
LINE
  5
EFF4
330
EED1
100
AcDbEntity
  8
0
100
AcDbLine
 10
68.99999625813416
 20
54.9738113506287
 30
0.0
 11
68.99999625813416
 21
56.97381135062869
 31
0.0
  0
LINE
  5
EFF5
330
EED1
100
AcDbEntity
  8
0
100
AcDbLine
 10
69.99999625813416
 20
54.9738113506287
 30
0.0
 11
69.99999625813416
 21
56.97381135062869
 31
0.0
  0
LINE
  5
EFF6
330
EED1
100
AcDbEntity
  8
0
100
AcDbLine
 10
70.99999625813416
 20
21.97381135062869
 30
0.0
 11
70.99999625813416
 21
103.9738113506286
 31
0.0
  0
LINE
  5
EFF7
330
EED1
100
AcDbEntity
  8
0
100
AcDbLine
 10
71.99999625813416
 20
3.585957507460648
 30
0.0
 11
71.99999625813416
 21
120.9738113506287
 31
0.0
  0
LINE
  5
EFF8
330
EED1
100
AcDbEntity
  8
0
100
AcDbLine
 10
71.99999625813416
 20
-0.0000027278023254
 30
0.0
 11
71.99999625813416
 21
3.585957507460648
 31
0.0
  0
LINE
  5
EFF9
330
EED1
100
AcDbEntity
  8
0
100
AcDbLine
 10
62.99999625813416
 20
49.99999727219666
 30
0.0
 11
67.49999625813416
 21
49.99999727219666
 31
0.0
  0
LINE
  5
EFFA
330
EED1
100
AcDbEntity
  8
0
100
AcDbLine
 10
62.99999625813416
 20
49.99999727219666
 30
0.0
 11
52.99999625813416
 21
49.99999727219668
 31
0.0
  0
LINE
  5
EFFB
330
EED1
100
AcDbEntity
  8
0
100
AcDbLine
 10
52.99999625813416
 20
49.9738113506287
 30
0.0
 11
62.99999625813416
 21
49.9738113506287
 31
0.0
  0
LINE
  5
EFFC
330
EED1
100
AcDbEntity
  8
0
100
AcDbLine
 10
52.99999625813416
 20
51.99999727219666
 30
0.0
 11
52.99999625813416
 21
49.9738113506287
 31
0.0
  0
ARC
  5
EFFD
330
EED1
100
AcDbEntity
  8
0
100
AcDbCircle
 10
52.99999625813416
 20
50.47381135062869
 30
0.0
 40
0.5
100
AcDbArc
 50
251.374822272642
 51
270.0
  0
LINE
  5
EFFE
330
EED1
100
AcDbEntity
  8
0
100
AcDbLine
 10
62.99999625813416
 20
49.9738113506287
 30
0.0
 11
62.99999625813416
 21
51.99999727219665
 31
0.0
  0
ARC
  5
EFFF
330
EED1
100
AcDbEntity
  8
0
100
AcDbCircle
 10
62.99999625813416
 20
50.47381135062869
 30
0.0
 40
0.5
100
AcDbArc
 50
270.0
 51
288.6251777273579
  0
LINE
  5
F000
330
EED1
100
AcDbEntity
  8
0
100
AcDbLine
 10
68.99999625813416
 20
33.97381135062869
 30
0.0
 11
68.99999625813416
 21
35.97381135062869
 31
0.0
  0
LINE
  5
F001
330
EED1
100
AcDbEntity
  8
0
100
AcDbLine
 10
69.99999625813416
 20
33.97381135062869
 30
0.0
 11
69.99999625813416
 21
35.97381135062869
 31
0.0
  0
LINE
  5
F002
330
EED1
100
AcDbEntity
  8
0
100
AcDbLine
 10
68.99999625813416
 20
26.97381135062869
 30
0.0
 11
68.99999625813416
 21
28.97381135062869
 31
0.0
  0
LINE
  5
F003
330
EED1
100
AcDbEntity
  8
0
100
AcDbLine
 10
69.99999625813416
 20
26.97381135062869
 30
0.0
 11
69.99999625813416
 21
28.97381135062869
 31
0.0
  0
LINE
  5
F004
330
EED1
100
AcDbEntity
  8
0
100
AcDbLine
 10
67.49999625813416
 20
49.99999727219666
 30
0.0
 11
67.49999625813416
 21
49.99999727219666
 31
0.0
  0
LINE
  5
F005
330
EED1
100
AcDbEntity
  8
0
100
AcDbLine
 10
68.99999625813416
 20
40.97381135062869
 30
0.0
 11
68.99999625813416
 21
42.97381135062869
 31
0.0
  0
LINE
  5
F006
330
EED1
100
AcDbEntity
  8
0
100
AcDbLine
 10
69.99999625813416
 20
40.97381135062869
 30
0.0
 11
69.99999625813416
 21
42.97381135062869
 31
0.0
  0
LINE
  5
F007
330
EED1
100
AcDbEntity
  8
0
100
AcDbLine
 10
70.99999625813416
 20
49.9738113506287
 30
0.0
 11
68.99999625813416
 21
49.9738113506287
 31
0.0
  0
LINE
  5
F008
330
EED1
100
AcDbEntity
  8
0
100
AcDbLine
 10
70.99999625813416
 20
47.97381135062869
 30
0.0
 11
68.99999625813416
 21
47.97381135062869
 31
0.0
  0
LINE
  5
F009
330
EED1
100
AcDbEntity
  8
0
100
AcDbLine
 10
68.99999625813416
 20
47.97381135062869
 30
0.0
 11
68.99999625813416
 21
49.9738113506287
 31
0.0
  0
LINE
  5
F00A
330
EED1
100
AcDbEntity
  8
0
100
AcDbLine
 10
69.99999625813416
 20
47.97381135062869
 30
0.0
 11
69.99999625813416
 21
49.9738113506287
 31
0.0
  0
LINE
  5
F00B
330
EED1
100
AcDbEntity
  8
0
100
AcDbLine
 10
68.49999625813416
 20
54.9738113506287
 30
0.0
 11
68.49999625813416
 21
48.97381135062869
 31
0.0
  0
LINE
  5
F00C
330
EED1
100
AcDbEntity
  8
0
100
AcDbLine
 10
70.99999625813416
 20
54.9738113506287
 30
0.0
 11
67.49999625813416
 21
54.9738113506287
 31
0.0
  0
LINE
  5
F00D
330
EED1
100
AcDbEntity
  8
0
100
AcDbLine
 10
67.44721807197925
 20
101.9999972721966
 30
0.0
 11
67.44721807197925
 21
91.99999727219665
 31
0.0
  0
LINE
  5
F00E
330
EED1
100
AcDbEntity
  8
0
100
AcDbLine
 10
68.49999625813416
 20
96.97381135062869
 30
0.0
 11
68.49999625813416
 21
70.97381135062869
 31
0.0
  0
LINE
  5
F00F
330
EED1
100
AcDbEntity
  8
0
100
AcDbLine
 10
68.49999625813416
 20
61.97381135062869
 30
0.0
 11
68.49999625813416
 21
56.97381135062869
 31
0.0
  0
LINE
  5
F010
330
EED1
100
AcDbEntity
  8
0
100
AcDbLine
 10
68.99999625813416
 20
68.97381135062869
 30
0.0
 11
68.99999625813416
 21
70.97381135062869
 31
0.0
  0
LINE
  5
F011
330
EED1
100
AcDbEntity
  8
0
100
AcDbLine
 10
69.99999625813416
 20
68.97381135062869
 30
0.0
 11
69.99999625813416
 21
70.97381135062869
 31
0.0
  0
LINE
  5
F012
330
EED1
100
AcDbEntity
  8
0
100
AcDbLine
 10
68.49999625813416
 20
68.97381135062869
 30
0.0
 11
68.49999625813416
 21
63.97381135062869
 31
0.0
  0
LINE
  5
F013
330
EED1
100
AcDbEntity
  8
0
100
AcDbLine
 10
68.99999625813416
 20
61.97381135062869
 30
0.0
 11
68.99999625813416
 21
63.97381135062869
 31
0.0
  0
LINE
  5
F014
330
EED1
100
AcDbEntity
  8
0
100
AcDbLine
 10
69.99999625813416
 20
61.97381135062869
 30
0.0
 11
69.99999625813416
 21
63.97381135062869
 31
0.0
  0
LINE
  5
F015
330
EED1
100
AcDbEntity
  8
0
100
AcDbLine
 10
70.99999625813416
 20
70.97381135062869
 30
0.0
 11
67.49999625813416
 21
70.97381135062869
 31
0.0
  0
LINE
  5
F016
330
EED1
100
AcDbEntity
  8
0
100
AcDbLine
 10
70.99999625813416
 20
68.97381135062869
 30
0.0
 11
67.49999625813416
 21
68.97381135062869
 31
0.0
  0
LINE
  5
F017
330
EED1
100
AcDbEntity
  8
0
100
AcDbLine
 10
70.99999625813416
 20
63.97381135062869
 30
0.0
 11
67.49999625813416
 21
63.97381135062869
 31
0.0
  0
LINE
  5
F018
330
EED1
100
AcDbEntity
  8
0
100
AcDbLine
 10
70.99999625813416
 20
61.97381135062869
 30
0.0
 11
67.49999625813416
 21
61.97381135062869
 31
0.0
  0
LINE
  5
F019
330
EED1
100
AcDbEntity
  8
0
100
AcDbLine
 10
70.99999625813416
 20
56.97381135062869
 30
0.0
 11
67.49999625813416
 21
56.97381135062869
 31
0.0
  0
LINE
  5
F01A
330
EED1
100
AcDbEntity
  8
0
100
AcDbLine
 10
70.99999625813416
 20
77.97381135062869
 30
0.0
 11
68.99999625813416
 21
77.97381135062869
 31
0.0
  0
LINE
  5
F01B
330
EED1
100
AcDbEntity
  8
0
100
AcDbLine
 10
70.99999625813416
 20
75.97381135062869
 30
0.0
 11
68.99999625813416
 21
75.97381135062869
 31
0.0
  0
LINE
  5
F01C
330
EED1
100
AcDbEntity
  8
0
100
AcDbLine
 10
68.99999625813416
 20
75.97381135062869
 30
0.0
 11
68.99999625813416
 21
77.97381135062869
 31
0.0
  0
LINE
  5
F01D
330
EED1
100
AcDbEntity
  8
0
100
AcDbLine
 10
69.99999625813416
 20
75.97381135062869
 30
0.0
 11
69.99999625813416
 21
77.97381135062869
 31
0.0
  0
LINE
  5
F01E
330
EED1
100
AcDbEntity
  8
0
100
AcDbLine
 10
70.99999625813416
 20
84.9738113506287
 30
0.0
 11
68.99999625813416
 21
84.9738113506287
 31
0.0
  0
LINE
  5
F01F
330
EED1
100
AcDbEntity
  8
0
100
AcDbLine
 10
70.99999625813416
 20
82.97381135062869
 30
0.0
 11
68.99999625813416
 21
82.97381135062869
 31
0.0
  0
LINE
  5
F020
330
EED1
100
AcDbEntity
  8
0
100
AcDbLine
 10
68.99999625813416
 20
82.97381135062869
 30
0.0
 11
68.99999625813416
 21
84.9738113506287
 31
0.0
  0
LINE
  5
F021
330
EED1
100
AcDbEntity
  8
0
100
AcDbLine
 10
69.99999625813416
 20
82.97381135062869
 30
0.0
 11
69.99999625813416
 21
84.9738113506287
 31
0.0
  0
LINE
  5
F022
330
EED1
100
AcDbEntity
  8
0
100
AcDbLine
 10
70.99999625813416
 20
91.97381135062869
 30
0.0
 11
68.99999625813416
 21
91.97381135062869
 31
0.0
  0
LINE
  5
F023
330
EED1
100
AcDbEntity
  8
0
100
AcDbLine
 10
70.99999625813416
 20
89.9738113506287
 30
0.0
 11
68.99999625813416
 21
89.9738113506287
 31
0.0
  0
LINE
  5
F024
330
EED1
100
AcDbEntity
  8
0
100
AcDbLine
 10
68.99999625813416
 20
89.9738113506287
 30
0.0
 11
68.99999625813416
 21
91.97381135062869
 31
0.0
  0
LINE
  5
F025
330
EED1
100
AcDbEntity
  8
0
100
AcDbLine
 10
69.99999625813416
 20
89.9738113506287
 30
0.0
 11
69.99999625813416
 21
91.97381135062869
 31
0.0
  0
ARC
  5
F026
330
EED1
100
AcDbEntity
  8
0
100
AcDbCircle
 10
66.99999625813416
 20
91.97381135062867
 30
0.0
 40
0.5
100
AcDbArc
 50
0.0
 51
26.56294527600511
  0
LINE
  5
F027
330
EED1
100
AcDbEntity
  8
0
100
AcDbLine
 10
67.49999625813416
 20
86.97381135062869
 30
0.0
 11
67.49999625813416
 21
91.97381135062869
 31
0.0
  0
LINE
  5
F028
330
EED1
100
AcDbEntity
  8
0
100
AcDbLine
 10
65.49999625813416
 20
101.9999972721966
 30
0.0
 11
63.99999625813416
 21
101.9999972721966
 31
0.0
  0
LINE
  5
F029
330
EED1
100
AcDbEntity
  8
0
100
AcDbLine
 10
55.14999625813425
 20
124.3738113506287
 30
0.0
 11
61.4499962581342
 21
124.3738113506287
 31
0.0
  0
LINE
  5
F02A
330
EED1
100
AcDbEntity
  8
0
100
AcDbLine
 10
55.14999625813425
 20
120.9738113506287
 30
0.0
 11
55.14999625813425
 21
124.3738113506287
 31
0.0
  0
LINE
  5
F02B
330
EED1
100
AcDbEntity
  8
0
100
AcDbLine
 10
61.4499962581342
 20
124.3738113506287
 30
0.0
 11
61.4499962581342
 21
120.9738113506287
 31
0.0
  0
LINE
  5
F02C
330
EED1
100
AcDbEntity
  8
0
100
AcDbLine
 10
68.49999625813416
 20
103.9738113506286
 30
0.0
 11
68.49999625813416
 21
98.9738113506287
 31
0.0
  0
LINE
  5
F02D
330
EED1
100
AcDbEntity
  8
0
100
AcDbLine
 10
68.99999625813416
 20
96.97381135062869
 30
0.0
 11
68.99999625813416
 21
98.9738113506287
 31
0.0
  0
LINE
  5
F02E
330
EED1
100
AcDbEntity
  8
0
100
AcDbLine
 10
69.99999625813416
 20
96.97381135062869
 30
0.0
 11
69.99999625813416
 21
98.9738113506287
 31
0.0
  0
LINE
  5
F02F
330
EED1
100
AcDbEntity
  8
0
100
AcDbLine
 10
70.99999625813416
 20
98.9738113506287
 30
0.0
 11
67.44721807197925
 21
98.9738113506287
 31
0.0
  0
LINE
  5
F030
330
EED1
100
AcDbEntity
  8
0
100
AcDbLine
 10
70.99999625813416
 20
96.97381135062869
 30
0.0
 11
67.44721807197925
 21
96.97381135062869
 31
0.0
  0
LINE
  5
F031
330
EED1
100
AcDbEntity
  8
0
100
AcDbLine
 10
19.99999625813416
 20
120.9738113506287
 30
0.0
 11
71.99999625813416
 21
120.9738113506287
 31
0.0
  0
LINE
  5
F032
330
EED1
100
AcDbEntity
  8
0
100
AcDbLine
 10
55.14999625813425
 20
120.9738113506287
 30
0.0
 11
55.14999625813425
 21
124.3738113506287
 31
0.0
  0
LINE
  5
F033
330
EED1
100
AcDbEntity
  8
0
100
AcDbLine
 10
55.14999625813425
 20
124.3738113506287
 30
0.0
 11
61.4499962581342
 21
124.3738113506287
 31
0.0
  0
LINE
  5
F034
330
EED1
100
AcDbEntity
  8
0
100
AcDbLine
 10
61.4499962581342
 20
124.3738113506287
 30
0.0
 11
61.4499962581342
 21
120.9738113506287
 31
0.0
  0
ENDBLK
  5
F036
330
EED1
100
AcDbEntity
  8
0
100
AcDbBlockEnd
  0
BLOCK
  5
FE15
330
FD45
100
AcDbEntity
  8
0
100
AcDbBlockBegin
  2
A$C413B70EE
 70
     0
 10
0.0
 20
0.0
 30
0.0
  3
A$C413B70EE
  1
A$C413B70EE
  0
LINE
  5
FD46
330
FD45
100
AcDbEntity
  8
0
100
AcDbLine
 10
127.5999998339284
 20
200.369072730639
 30
0.0
 11
127.5999998339284
 21
6.63093194633106
 31
0.0
  0
LINE
  5
FD47
330
FD45
100
AcDbEntity
  8
0
100
AcDbLine
 10
122.5999998339284
 20
6.500002338485046
 30
0.0
 11
122.5999998339284
 21
16.50000233848504
 31
0.0
  0
LINE
  5
FD48
330
FD45
100
AcDbEntity
  8
0
100
AcDbLine
 10
6.599999833929359
 20
16.50000233848504
 30
0.0
 11
6.599999833929359
 21
190.500002338485
 31
0.0
  0
LINE
  5
FD49
330
FD45
100
AcDbEntity
  8
0
100
AcDbLine
 10
6.599999833929359
 20
190.500002338485
 30
0.0
 11
122.5999998339284
 21
190.500002338485
 31
0.0
  0
LINE
  5
FD4A
330
FD45
100
AcDbEntity
  8
0
100
AcDbLine
 10
6.599999833929359
 20
16.50000233848504
 30
0.0
 11
122.5999998339284
 21
16.50000233848504
 31
0.0
  0
LINE
  5
FD4B
330
FD45
100
AcDbEntity
  8
0
100
AcDbLine
 10
122.5999998339284
 20
200.500002338485
 30
0.0
 11
127.5999998339284
 21
200.369072730639
 31
0.0
  0
LINE
  5
FD4C
330
FD45
100
AcDbEntity
  8
0
100
AcDbLine
 10
124.0140395986652
 20
200.46297440411
 30
0.0
 11
124.0140395986643
 21
6.537030272860022
 31
0.0
  0
LINE
  5
FD4D
330
FD45
100
AcDbEntity
  8
0
100
AcDbLine
 10
122.5999998339284
 20
6.500002338485046
 30
0.0
 11
127.5999998339284
 21
6.63093194633106
 31
0.0
  0
LINE
  5
FD4E
330
FD45
100
AcDbEntity
  8
0
100
AcDbLine
 10
6.599999833929359
 20
16.50000233848504
 30
0.0
 11
6.599999833929359
 21
190.500002338485
 31
0.0
  0
LINE
  5
FD4F
330
FD45
100
AcDbEntity
  8
0
100
AcDbLine
 10
6.599999833929359
 20
190.500002338485
 30
0.0
 11
123.9878536770973
 21
190.500002338485
 31
0.0
  0
LINE
  5
FD50
330
FD45
100
AcDbEntity
  8
0
100
AcDbLine
 10
23.59999983392936
 20
16.50000233848504
 30
0.0
 11
23.59999983392936
 21
190.500002338485
 31
0.0
  0
LINE
  5
FD51
330
FD45
100
AcDbEntity
  8
0
100
AcDbLine
 10
105.5999998339293
 20
16.50000233848504
 30
0.0
 11
105.5999998339293
 21
190.500002338485
 31
0.0
  0
LINE
  5
FD52
330
FD45
100
AcDbEntity
  8
0
100
AcDbLine
 10
23.59999983392936
 20
189.500002338485
 30
0.0
 11
105.5999998339293
 21
189.500002338485
 31
0.0
  0
LINE
  5
FD53
330
FD45
100
AcDbEntity
  8
0
100
AcDbLine
 10
28.59999983392936
 20
187.500002338485
 30
0.0
 11
30.59999983392936
 21
187.500002338485
 31
0.0
  0
LINE
  5
FD54
330
FD45
100
AcDbEntity
  8
0
100
AcDbLine
 10
28.59999983392936
 20
17.50000233848504
 30
0.0
 11
28.59999983392936
 21
70.75000233848505
 31
0.0
  0
LINE
  5
FD55
330
FD45
100
AcDbEntity
  8
0
100
AcDbLine
 10
30.59999983392936
 20
17.50000233848504
 30
0.0
 11
30.59999983392936
 21
70.75000233848505
 31
0.0
  0
LINE
  5
FD56
330
FD45
100
AcDbEntity
  8
0
100
AcDbLine
 10
28.59999983392936
 20
136.250002338485
 30
0.0
 11
30.59999983392936
 21
136.250002338485
 31
0.0
  0
LINE
  5
FD57
330
FD45
100
AcDbEntity
  8
0
100
AcDbLine
 10
28.59999983392936
 20
70.75000233848505
 30
0.0
 11
30.59999983392936
 21
70.75000233848505
 31
0.0
  0
LINE
  5
FD58
330
FD45
100
AcDbEntity
  8
0
100
AcDbLine
 10
23.59999983392936
 20
17.50000233848504
 30
0.0
 11
105.5999998339293
 21
17.50000233848504
 31
0.0
  0
LINE
  5
FD59
330
FD45
100
AcDbEntity
  8
0
100
AcDbLine
 10
28.59999983392936
 20
19.50000233848504
 30
0.0
 11
30.59999983392936
 21
19.50000233848504
 31
0.0
  0
LINE
  5
FD5A
330
FD45
100
AcDbEntity
  8
0
100
AcDbLine
 10
28.59999983392936
 20
136.250002338485
 30
0.0
 11
28.59999983392936
 21
189.500002338485
 31
0.0
  0
LINE
  5
FD5B
330
FD45
100
AcDbEntity
  8
0
100
AcDbLine
 10
30.59999983392936
 20
136.250002338485
 30
0.0
 11
30.59999983392936
 21
189.500002338485
 31
0.0
  0
LINE
  5
FD5C
330
FD45
100
AcDbEntity
  8
0
100
AcDbLine
 10
35.59999983392936
 20
187.500002338485
 30
0.0
 11
37.59999983392936
 21
187.500002338485
 31
0.0
  0
LINE
  5
FD5D
330
FD45
100
AcDbEntity
  8
0
100
AcDbLine
 10
35.59999983392936
 20
17.50000233848504
 30
0.0
 11
35.59999983392936
 21
70.75000233848505
 31
0.0
  0
LINE
  5
FD5E
330
FD45
100
AcDbEntity
  8
0
100
AcDbLine
 10
37.59999983392936
 20
17.50000233848504
 30
0.0
 11
37.59999983392936
 21
70.75000233848505
 31
0.0
  0
LINE
  5
FD5F
330
FD45
100
AcDbEntity
  8
0
100
AcDbLine
 10
35.59999983392936
 20
136.250002338485
 30
0.0
 11
37.59999983392936
 21
136.250002338485
 31
0.0
  0
LINE
  5
FD60
330
FD45
100
AcDbEntity
  8
0
100
AcDbLine
 10
35.59999983392936
 20
70.75000233848505
 30
0.0
 11
37.59999983392936
 21
70.75000233848505
 31
0.0
  0
LINE
  5
FD61
330
FD45
100
AcDbEntity
  8
0
100
AcDbLine
 10
35.59999983392936
 20
19.50000233848504
 30
0.0
 11
37.59999983392936
 21
19.50000233848504
 31
0.0
  0
LINE
  5
FD62
330
FD45
100
AcDbEntity
  8
0
100
AcDbLine
 10
35.59999983392936
 20
136.250002338485
 30
0.0
 11
35.59999983392936
 21
189.500002338485
 31
0.0
  0
LINE
  5
FD63
330
FD45
100
AcDbEntity
  8
0
100
AcDbLine
 10
37.59999983392936
 20
136.250002338485
 30
0.0
 11
37.59999983392936
 21
189.500002338485
 31
0.0
  0
LINE
  5
FD64
330
FD45
100
AcDbEntity
  8
0
100
AcDbLine
 10
42.59999983392936
 20
187.500002338485
 30
0.0
 11
44.59999983392935
 21
187.500002338485
 31
0.0
  0
LINE
  5
FD65
330
FD45
100
AcDbEntity
  8
0
100
AcDbLine
 10
42.59999983392936
 20
17.50000233848504
 30
0.0
 11
42.59999983392936
 21
70.75000233848505
 31
0.0
  0
LINE
  5
FD66
330
FD45
100
AcDbEntity
  8
0
100
AcDbLine
 10
44.59999983392935
 20
17.50000233848504
 30
0.0
 11
44.59999983392935
 21
70.75000233848505
 31
0.0
  0
LINE
  5
FD67
330
FD45
100
AcDbEntity
  8
0
100
AcDbLine
 10
42.59999983392936
 20
136.250002338485
 30
0.0
 11
44.59999983392935
 21
136.250002338485
 31
0.0
  0
LINE
  5
FD68
330
FD45
100
AcDbEntity
  8
0
100
AcDbLine
 10
42.59999983392936
 20
70.75000233848505
 30
0.0
 11
44.59999983392935
 21
70.75000233848505
 31
0.0
  0
LINE
  5
FD69
330
FD45
100
AcDbEntity
  8
0
100
AcDbLine
 10
42.59999983392936
 20
19.50000233848504
 30
0.0
 11
44.59999983392935
 21
19.50000233848504
 31
0.0
  0
LINE
  5
FD6A
330
FD45
100
AcDbEntity
  8
0
100
AcDbLine
 10
42.59999983392936
 20
136.250002338485
 30
0.0
 11
42.59999983392936
 21
189.500002338485
 31
0.0
  0
LINE
  5
FD6B
330
FD45
100
AcDbEntity
  8
0
100
AcDbLine
 10
44.59999983392935
 20
136.250002338485
 30
0.0
 11
44.59999983392935
 21
189.500002338485
 31
0.0
  0
LINE
  5
FD6C
330
FD45
100
AcDbEntity
  8
0
100
AcDbLine
 10
49.59999983392936
 20
17.50000233848504
 30
0.0
 11
49.59999983392936
 21
70.75000233848505
 31
0.0
  0
LINE
  5
FD6D
330
FD45
100
AcDbEntity
  8
0
100
AcDbLine
 10
51.59999983392935
 20
17.50000233848504
 30
0.0
 11
51.59999983392935
 21
70.75000233848505
 31
0.0
  0
LINE
  5
FD6E
330
FD45
100
AcDbEntity
  8
0
100
AcDbLine
 10
49.59999983392936
 20
136.250002338485
 30
0.0
 11
51.59999983392935
 21
136.250002338485
 31
0.0
  0
LINE
  5
FD6F
330
FD45
100
AcDbEntity
  8
0
100
AcDbLine
 10
49.59999983392936
 20
70.75000233848505
 30
0.0
 11
51.59999983392935
 21
70.75000233848505
 31
0.0
  0
LINE
  5
FD70
330
FD45
100
AcDbEntity
  8
0
100
AcDbLine
 10
49.59999983392936
 20
19.50000233848504
 30
0.0
 11
51.59999983392935
 21
19.50000233848504
 31
0.0
  0
LINE
  5
FD71
330
FD45
100
AcDbEntity
  8
0
100
AcDbLine
 10
49.59999983392936
 20
136.250002338485
 30
0.0
 11
49.59999983392936
 21
189.500002338485
 31
0.0
  0
LINE
  5
FD72
330
FD45
100
AcDbEntity
  8
0
100
AcDbLine
 10
51.59999983392935
 20
136.250002338485
 30
0.0
 11
51.59999983392935
 21
189.500002338485
 31
0.0
  0
LINE
  5
FD73
330
FD45
100
AcDbEntity
  8
0
100
AcDbLine
 10
56.59999983392935
 20
187.500002338485
 30
0.0
 11
58.59999983392936
 21
187.500002338485
 31
0.0
  0
LINE
  5
FD74
330
FD45
100
AcDbEntity
  8
0
100
AcDbLine
 10
56.59999983392935
 20
17.50000233848504
 30
0.0
 11
56.59999983392935
 21
70.75000233848505
 31
0.0
  0
LINE
  5
FD75
330
FD45
100
AcDbEntity
  8
0
100
AcDbLine
 10
58.59999983392936
 20
17.50000233848504
 30
0.0
 11
58.59999983392936
 21
70.75000233848505
 31
0.0
  0
LINE
  5
FD76
330
FD45
100
AcDbEntity
  8
0
100
AcDbLine
 10
56.59999983392935
 20
136.250002338485
 30
0.0
 11
58.59999983392936
 21
136.250002338485
 31
0.0
  0
LINE
  5
FD77
330
FD45
100
AcDbEntity
  8
0
100
AcDbLine
 10
56.59999983392935
 20
70.75000233848505
 30
0.0
 11
58.59999983392936
 21
70.75000233848505
 31
0.0
  0
LINE
  5
FD78
330
FD45
100
AcDbEntity
  8
0
100
AcDbLine
 10
56.59999983392935
 20
19.50000233848504
 30
0.0
 11
58.59999983392936
 21
19.50000233848504
 31
0.0
  0
LINE
  5
FD79
330
FD45
100
AcDbEntity
  8
0
100
AcDbLine
 10
56.59999983392935
 20
136.250002338485
 30
0.0
 11
56.59999983392935
 21
189.500002338485
 31
0.0
  0
LINE
  5
FD7A
330
FD45
100
AcDbEntity
  8
0
100
AcDbLine
 10
58.59999983392936
 20
136.250002338485
 30
0.0
 11
58.59999983392936
 21
189.500002338485
 31
0.0
  0
LINE
  5
FD7B
330
FD45
100
AcDbEntity
  8
0
100
AcDbLine
 10
63.59999983392936
 20
187.500002338485
 30
0.0
 11
65.59999983392936
 21
187.500002338485
 31
0.0
  0
LINE
  5
FD7C
330
FD45
100
AcDbEntity
  8
0
100
AcDbLine
 10
63.59999983392936
 20
17.50000233848504
 30
0.0
 11
63.59999983392936
 21
70.75000233848505
 31
0.0
  0
LINE
  5
FD7D
330
FD45
100
AcDbEntity
  8
0
100
AcDbLine
 10
65.59999983392936
 20
17.50000233848504
 30
0.0
 11
65.59999983392936
 21
70.75000233848505
 31
0.0
  0
LINE
  5
FD7E
330
FD45
100
AcDbEntity
  8
0
100
AcDbLine
 10
63.59999983392936
 20
136.250002338485
 30
0.0
 11
65.59999983392936
 21
136.250002338485
 31
0.0
  0
LINE
  5
FD7F
330
FD45
100
AcDbEntity
  8
0
100
AcDbLine
 10
63.59999983392936
 20
70.75000233848505
 30
0.0
 11
65.59999983392936
 21
70.75000233848505
 31
0.0
  0
LINE
  5
FD80
330
FD45
100
AcDbEntity
  8
0
100
AcDbLine
 10
63.59999983392936
 20
19.50000233848504
 30
0.0
 11
65.59999983392936
 21
19.50000233848504
 31
0.0
  0
LINE
  5
FD81
330
FD45
100
AcDbEntity
  8
0
100
AcDbLine
 10
63.59999983392936
 20
136.250002338485
 30
0.0
 11
63.59999983392936
 21
189.500002338485
 31
0.0
  0
LINE
  5
FD82
330
FD45
100
AcDbEntity
  8
0
100
AcDbLine
 10
65.59999983392936
 20
136.250002338485
 30
0.0
 11
65.59999983392936
 21
189.500002338485
 31
0.0
  0
LINE
  5
FD83
330
FD45
100
AcDbEntity
  8
0
100
AcDbLine
 10
70.59999983392936
 20
187.500002338485
 30
0.0
 11
72.59999983392936
 21
187.500002338485
 31
0.0
  0
LINE
  5
FD84
330
FD45
100
AcDbEntity
  8
0
100
AcDbLine
 10
70.59999983392936
 20
17.50000233848504
 30
0.0
 11
70.59999983392936
 21
70.75000233848505
 31
0.0
  0
LINE
  5
FD85
330
FD45
100
AcDbEntity
  8
0
100
AcDbLine
 10
72.59999983392936
 20
17.50000233848504
 30
0.0
 11
72.59999983392936
 21
70.75000233848505
 31
0.0
  0
LINE
  5
FD86
330
FD45
100
AcDbEntity
  8
0
100
AcDbLine
 10
70.59999983392936
 20
136.250002338485
 30
0.0
 11
72.59999983392936
 21
136.250002338485
 31
0.0
  0
LINE
  5
FD87
330
FD45
100
AcDbEntity
  8
0
100
AcDbLine
 10
70.59999983392936
 20
70.75000233848505
 30
0.0
 11
72.59999983392936
 21
70.75000233848505
 31
0.0
  0
LINE
  5
FD88
330
FD45
100
AcDbEntity
  8
0
100
AcDbLine
 10
70.59999983392936
 20
19.50000233848504
 30
0.0
 11
72.59999983392936
 21
19.50000233848504
 31
0.0
  0
LINE
  5
FD89
330
FD45
100
AcDbEntity
  8
0
100
AcDbLine
 10
70.59999983392936
 20
136.250002338485
 30
0.0
 11
70.59999983392936
 21
189.500002338485
 31
0.0
  0
LINE
  5
FD8A
330
FD45
100
AcDbEntity
  8
0
100
AcDbLine
 10
72.59999983392936
 20
136.250002338485
 30
0.0
 11
72.59999983392936
 21
189.500002338485
 31
0.0
  0
LINE
  5
FD8B
330
FD45
100
AcDbEntity
  8
0
100
AcDbLine
 10
77.59999983392936
 20
187.500002338485
 30
0.0
 11
79.59999983392936
 21
187.500002338485
 31
0.0
  0
LINE
  5
FD8C
330
FD45
100
AcDbEntity
  8
0
100
AcDbLine
 10
77.59999983392936
 20
17.50000233848504
 30
0.0
 11
77.59999983392936
 21
70.75000233848505
 31
0.0
  0
LINE
  5
FD8D
330
FD45
100
AcDbEntity
  8
0
100
AcDbLine
 10
79.59999983392936
 20
17.50000233848504
 30
0.0
 11
79.59999983392936
 21
70.75000233848505
 31
0.0
  0
LINE
  5
FD8E
330
FD45
100
AcDbEntity
  8
0
100
AcDbLine
 10
77.59999983392936
 20
136.250002338485
 30
0.0
 11
79.59999983392936
 21
136.250002338485
 31
0.0
  0
LINE
  5
FD8F
330
FD45
100
AcDbEntity
  8
0
100
AcDbLine
 10
77.59999983392936
 20
70.75000233848505
 30
0.0
 11
79.59999983392936
 21
70.75000233848505
 31
0.0
  0
LINE
  5
FD90
330
FD45
100
AcDbEntity
  8
0
100
AcDbLine
 10
77.59999983392936
 20
19.50000233848504
 30
0.0
 11
79.59999983392936
 21
19.50000233848504
 31
0.0
  0
LINE
  5
FD91
330
FD45
100
AcDbEntity
  8
0
100
AcDbLine
 10
77.59999983392936
 20
136.250002338485
 30
0.0
 11
77.59999983392936
 21
189.500002338485
 31
0.0
  0
LINE
  5
FD92
330
FD45
100
AcDbEntity
  8
0
100
AcDbLine
 10
79.59999983392936
 20
136.250002338485
 30
0.0
 11
79.59999983392936
 21
189.500002338485
 31
0.0
  0
LINE
  5
FD93
330
FD45
100
AcDbEntity
  8
0
100
AcDbLine
 10
84.59999983392936
 20
187.500002338485
 30
0.0
 11
86.59999983392935
 21
187.500002338485
 31
0.0
  0
LINE
  5
FD94
330
FD45
100
AcDbEntity
  8
0
100
AcDbLine
 10
84.59999983392936
 20
17.50000233848504
 30
0.0
 11
84.59999983392936
 21
70.75000233848505
 31
0.0
  0
LINE
  5
FD95
330
FD45
100
AcDbEntity
  8
0
100
AcDbLine
 10
86.59999983392935
 20
17.50000233848504
 30
0.0
 11
86.59999983392935
 21
70.75000233848505
 31
0.0
  0
LINE
  5
FD96
330
FD45
100
AcDbEntity
  8
0
100
AcDbLine
 10
84.59999983392936
 20
136.250002338485
 30
0.0
 11
86.59999983392935
 21
136.250002338485
 31
0.0
  0
LINE
  5
FD97
330
FD45
100
AcDbEntity
  8
0
100
AcDbLine
 10
84.59999983392936
 20
70.75000233848505
 30
0.0
 11
86.59999983392935
 21
70.75000233848505
 31
0.0
  0
LINE
  5
FD98
330
FD45
100
AcDbEntity
  8
0
100
AcDbLine
 10
84.59999983392936
 20
19.50000233848504
 30
0.0
 11
86.59999983392935
 21
19.50000233848504
 31
0.0
  0
LINE
  5
FD99
330
FD45
100
AcDbEntity
  8
0
100
AcDbLine
 10
84.59999983392936
 20
136.250002338485
 30
0.0
 11
84.59999983392936
 21
189.500002338485
 31
0.0
  0
LINE
  5
FD9A
330
FD45
100
AcDbEntity
  8
0
100
AcDbLine
 10
86.59999983392935
 20
136.250002338485
 30
0.0
 11
86.59999983392935
 21
189.500002338485
 31
0.0
  0
LINE
  5
FD9B
330
FD45
100
AcDbEntity
  8
0
100
AcDbLine
 10
91.59999983392935
 20
187.500002338485
 30
0.0
 11
93.59999983392937
 21
187.500002338485
 31
0.0
  0
LINE
  5
FD9C
330
FD45
100
AcDbEntity
  8
0
100
AcDbLine
 10
91.59999983392935
 20
17.50000233848504
 30
0.0
 11
91.59999983392935
 21
70.75000233848505
 31
0.0
  0
LINE
  5
FD9D
330
FD45
100
AcDbEntity
  8
0
100
AcDbLine
 10
93.59999983392937
 20
17.50000233848504
 30
0.0
 11
93.59999983392937
 21
70.75000233848505
 31
0.0
  0
LINE
  5
FD9E
330
FD45
100
AcDbEntity
  8
0
100
AcDbLine
 10
91.59999983392935
 20
136.250002338485
 30
0.0
 11
93.59999983392937
 21
136.250002338485
 31
0.0
  0
LINE
  5
FD9F
330
FD45
100
AcDbEntity
  8
0
100
AcDbLine
 10
91.59999983392935
 20
70.75000233848505
 30
0.0
 11
93.59999983392937
 21
70.75000233848505
 31
0.0
  0
LINE
  5
FDA0
330
FD45
100
AcDbEntity
  8
0
100
AcDbLine
 10
91.59999983392935
 20
19.50000233848504
 30
0.0
 11
93.59999983392937
 21
19.50000233848504
 31
0.0
  0
LINE
  5
FDA1
330
FD45
100
AcDbEntity
  8
0
100
AcDbLine
 10
91.59999983392935
 20
136.250002338485
 30
0.0
 11
91.59999983392935
 21
189.500002338485
 31
0.0
  0
LINE
  5
FDA2
330
FD45
100
AcDbEntity
  8
0
100
AcDbLine
 10
93.59999983392937
 20
136.250002338485
 30
0.0
 11
93.59999983392937
 21
189.500002338485
 31
0.0
  0
LINE
  5
FDA3
330
FD45
100
AcDbEntity
  8
0
100
AcDbLine
 10
98.59999983392937
 20
187.500002338485
 30
0.0
 11
100.5999998339293
 21
187.500002338485
 31
0.0
  0
LINE
  5
FDA4
330
FD45
100
AcDbEntity
  8
0
100
AcDbLine
 10
98.59999983392937
 20
17.50000233848504
 30
0.0
 11
98.59999983392937
 21
70.75000233848505
 31
0.0
  0
LINE
  5
FDA5
330
FD45
100
AcDbEntity
  8
0
100
AcDbLine
 10
100.5999998339293
 20
17.50000233848504
 30
0.0
 11
100.5999998339293
 21
70.75000233848505
 31
0.0
  0
LINE
  5
FDA6
330
FD45
100
AcDbEntity
  8
0
100
AcDbLine
 10
98.59999983392937
 20
136.250002338485
 30
0.0
 11
100.5999998339293
 21
136.250002338485
 31
0.0
  0
LINE
  5
FDA7
330
FD45
100
AcDbEntity
  8
0
100
AcDbLine
 10
98.59999983392937
 20
70.75000233848505
 30
0.0
 11
100.5999998339293
 21
70.75000233848505
 31
0.0
  0
LINE
  5
FDA8
330
FD45
100
AcDbEntity
  8
0
100
AcDbLine
 10
98.59999983392937
 20
19.50000233848504
 30
0.0
 11
100.5999998339293
 21
19.50000233848504
 31
0.0
  0
LINE
  5
FDA9
330
FD45
100
AcDbEntity
  8
0
100
AcDbLine
 10
98.59999983392937
 20
136.250002338485
 30
0.0
 11
98.59999983392937
 21
189.500002338485
 31
0.0
  0
LINE
  5
FDAA
330
FD45
100
AcDbEntity
  8
0
100
AcDbLine
 10
100.5999998339293
 20
136.250002338485
 30
0.0
 11
100.5999998339293
 21
189.500002338485
 31
0.0
  0
LINE
  5
FDAB
330
FD45
100
AcDbEntity
  8
0
100
AcDbLine
 10
28.59999983392936
 20
165.000002338485
 30
0.0
 11
30.59999983392936
 21
165.000002338485
 31
0.0
  0
LINE
  5
FDAC
330
FD45
100
AcDbEntity
  8
0
100
AcDbLine
 10
28.59999983392936
 20
162.000002338485
 30
0.0
 11
30.59999983392936
 21
162.000002338485
 31
0.0
  0
LINE
  5
FDAD
330
FD45
100
AcDbEntity
  8
0
100
AcDbLine
 10
28.59999983392936
 20
45.00000233848505
 30
0.0
 11
30.59999983392936
 21
45.00000233848505
 31
0.0
  0
LINE
  5
FDAE
330
FD45
100
AcDbEntity
  8
0
100
AcDbLine
 10
28.59999983392936
 20
42.00000233848505
 30
0.0
 11
30.59999983392936
 21
42.00000233848505
 31
0.0
  0
LINE
  5
FDAF
330
FD45
100
AcDbEntity
  8
0
100
AcDbLine
 10
35.59999983392936
 20
165.000002338485
 30
0.0
 11
37.59999983392936
 21
165.000002338485
 31
0.0
  0
LINE
  5
FDB0
330
FD45
100
AcDbEntity
  8
0
100
AcDbLine
 10
35.59999983392936
 20
162.000002338485
 30
0.0
 11
37.59999983392936
 21
162.000002338485
 31
0.0
  0
LINE
  5
FDB1
330
FD45
100
AcDbEntity
  8
0
100
AcDbLine
 10
35.59999983392936
 20
45.00000233848505
 30
0.0
 11
37.59999983392936
 21
45.00000233848505
 31
0.0
  0
LINE
  5
FDB2
330
FD45
100
AcDbEntity
  8
0
100
AcDbLine
 10
35.59999983392936
 20
42.00000233848505
 30
0.0
 11
37.59999983392936
 21
42.00000233848505
 31
0.0
  0
LINE
  5
FDB3
330
FD45
100
AcDbEntity
  8
0
100
AcDbLine
 10
42.59999983392936
 20
165.000002338485
 30
0.0
 11
44.59999983392935
 21
165.000002338485
 31
0.0
  0
LINE
  5
FDB4
330
FD45
100
AcDbEntity
  8
0
100
AcDbLine
 10
42.59999983392936
 20
162.000002338485
 30
0.0
 11
44.59999983392935
 21
162.000002338485
 31
0.0
  0
LINE
  5
FDB5
330
FD45
100
AcDbEntity
  8
0
100
AcDbLine
 10
42.59999983392936
 20
45.00000233848505
 30
0.0
 11
44.59999983392935
 21
45.00000233848505
 31
0.0
  0
LINE
  5
FDB6
330
FD45
100
AcDbEntity
  8
0
100
AcDbLine
 10
42.59999983392936
 20
42.00000233848505
 30
0.0
 11
44.59999983392935
 21
42.00000233848505
 31
0.0
  0
LINE
  5
FDB7
330
FD45
100
AcDbEntity
  8
0
100
AcDbLine
 10
49.59999983392936
 20
165.000002338485
 30
0.0
 11
51.59999983392935
 21
165.000002338485
 31
0.0
  0
LINE
  5
FDB8
330
FD45
100
AcDbEntity
  8
0
100
AcDbLine
 10
49.59999983392936
 20
162.000002338485
 30
0.0
 11
51.59999983392935
 21
162.000002338485
 31
0.0
  0
LINE
  5
FDB9
330
FD45
100
AcDbEntity
  8
0
100
AcDbLine
 10
49.59999983392936
 20
45.00000233848505
 30
0.0
 11
51.59999983392935
 21
45.00000233848505
 31
0.0
  0
LINE
  5
FDBA
330
FD45
100
AcDbEntity
  8
0
100
AcDbLine
 10
49.59999983392936
 20
42.00000233848505
 30
0.0
 11
51.59999983392935
 21
42.00000233848505
 31
0.0
  0
LINE
  5
FDBB
330
FD45
100
AcDbEntity
  8
0
100
AcDbLine
 10
56.59999983392935
 20
165.000002338485
 30
0.0
 11
58.59999983392936
 21
165.000002338485
 31
0.0
  0
LINE
  5
FDBC
330
FD45
100
AcDbEntity
  8
0
100
AcDbLine
 10
56.59999983392935
 20
162.000002338485
 30
0.0
 11
58.59999983392936
 21
162.000002338485
 31
0.0
  0
LINE
  5
FDBD
330
FD45
100
AcDbEntity
  8
0
100
AcDbLine
 10
56.59999983392935
 20
45.00000233848505
 30
0.0
 11
58.59999983392936
 21
45.00000233848505
 31
0.0
  0
LINE
  5
FDBE
330
FD45
100
AcDbEntity
  8
0
100
AcDbLine
 10
56.59999983392935
 20
42.00000233848505
 30
0.0
 11
58.59999983392936
 21
42.00000233848505
 31
0.0
  0
LINE
  5
FDBF
330
FD45
100
AcDbEntity
  8
0
100
AcDbLine
 10
63.59999983392936
 20
165.000002338485
 30
0.0
 11
65.59999983392936
 21
165.000002338485
 31
0.0
  0
LINE
  5
FDC0
330
FD45
100
AcDbEntity
  8
0
100
AcDbLine
 10
63.59999983392936
 20
162.000002338485
 30
0.0
 11
65.59999983392936
 21
162.000002338485
 31
0.0
  0
LINE
  5
FDC1
330
FD45
100
AcDbEntity
  8
0
100
AcDbLine
 10
63.59999983392936
 20
45.00000233848505
 30
0.0
 11
65.59999983392936
 21
45.00000233848505
 31
0.0
  0
LINE
  5
FDC2
330
FD45
100
AcDbEntity
  8
0
100
AcDbLine
 10
63.59999983392936
 20
42.00000233848505
 30
0.0
 11
65.59999983392936
 21
42.00000233848505
 31
0.0
  0
LINE
  5
FDC3
330
FD45
100
AcDbEntity
  8
0
100
AcDbLine
 10
70.59999983392936
 20
165.000002338485
 30
0.0
 11
72.59999983392936
 21
165.000002338485
 31
0.0
  0
LINE
  5
FDC4
330
FD45
100
AcDbEntity
  8
0
100
AcDbLine
 10
70.59999983392936
 20
162.000002338485
 30
0.0
 11
72.59999983392936
 21
162.000002338485
 31
0.0
  0
LINE
  5
FDC5
330
FD45
100
AcDbEntity
  8
0
100
AcDbLine
 10
70.59999983392936
 20
45.00000233848505
 30
0.0
 11
72.59999983392936
 21
45.00000233848505
 31
0.0
  0
LINE
  5
FDC6
330
FD45
100
AcDbEntity
  8
0
100
AcDbLine
 10
70.59999983392936
 20
42.00000233848505
 30
0.0
 11
72.59999983392936
 21
42.00000233848505
 31
0.0
  0
LINE
  5
FDC7
330
FD45
100
AcDbEntity
  8
0
100
AcDbLine
 10
77.59999983392936
 20
165.000002338485
 30
0.0
 11
79.59999983392936
 21
165.000002338485
 31
0.0
  0
LINE
  5
FDC8
330
FD45
100
AcDbEntity
  8
0
100
AcDbLine
 10
77.59999983392936
 20
162.000002338485
 30
0.0
 11
79.59999983392936
 21
162.000002338485
 31
0.0
  0
LINE
  5
FDC9
330
FD45
100
AcDbEntity
  8
0
100
AcDbLine
 10
77.59999983392936
 20
45.00000233848505
 30
0.0
 11
79.59999983392936
 21
45.00000233848505
 31
0.0
  0
LINE
  5
FDCA
330
FD45
100
AcDbEntity
  8
0
100
AcDbLine
 10
77.59999983392936
 20
42.00000233848505
 30
0.0
 11
79.59999983392936
 21
42.00000233848505
 31
0.0
  0
LINE
  5
FDCB
330
FD45
100
AcDbEntity
  8
0
100
AcDbLine
 10
84.59999983392936
 20
165.000002338485
 30
0.0
 11
86.59999983392935
 21
165.000002338485
 31
0.0
  0
LINE
  5
FDCC
330
FD45
100
AcDbEntity
  8
0
100
AcDbLine
 10
84.59999983392936
 20
162.000002338485
 30
0.0
 11
86.59999983392935
 21
162.000002338485
 31
0.0
  0
LINE
  5
FDCD
330
FD45
100
AcDbEntity
  8
0
100
AcDbLine
 10
84.59999983392936
 20
45.00000233848505
 30
0.0
 11
86.59999983392935
 21
45.00000233848505
 31
0.0
  0
LINE
  5
FDCE
330
FD45
100
AcDbEntity
  8
0
100
AcDbLine
 10
84.59999983392936
 20
42.00000233848505
 30
0.0
 11
86.59999983392935
 21
42.00000233848505
 31
0.0
  0
LINE
  5
FDCF
330
FD45
100
AcDbEntity
  8
0
100
AcDbLine
 10
91.59999983392935
 20
165.000002338485
 30
0.0
 11
93.59999983392937
 21
165.000002338485
 31
0.0
  0
LINE
  5
FDD0
330
FD45
100
AcDbEntity
  8
0
100
AcDbLine
 10
91.59999983392935
 20
162.000002338485
 30
0.0
 11
93.59999983392937
 21
162.000002338485
 31
0.0
  0
LINE
  5
FDD1
330
FD45
100
AcDbEntity
  8
0
100
AcDbLine
 10
91.59999983392935
 20
45.00000233848505
 30
0.0
 11
93.59999983392937
 21
45.00000233848505
 31
0.0
  0
LINE
  5
FDD2
330
FD45
100
AcDbEntity
  8
0
100
AcDbLine
 10
91.59999983392935
 20
42.00000233848505
 30
0.0
 11
93.59999983392937
 21
42.00000233848505
 31
0.0
  0
LINE
  5
FDD3
330
FD45
100
AcDbEntity
  8
0
100
AcDbLine
 10
98.59999983392937
 20
165.000002338485
 30
0.0
 11
100.5999998339293
 21
165.000002338485
 31
0.0
  0
LINE
  5
FDD4
330
FD45
100
AcDbEntity
  8
0
100
AcDbLine
 10
98.59999983392937
 20
162.000002338485
 30
0.0
 11
100.5999998339293
 21
162.000002338485
 31
0.0
  0
LINE
  5
FDD5
330
FD45
100
AcDbEntity
  8
0
100
AcDbLine
 10
98.59999983392937
 20
45.00000233848505
 30
0.0
 11
100.5999998339293
 21
45.00000233848505
 31
0.0
  0
LINE
  5
FDD6
330
FD45
100
AcDbEntity
  8
0
100
AcDbLine
 10
98.59999983392937
 20
42.00000233848505
 30
0.0
 11
100.5999998339293
 21
42.00000233848505
 31
0.0
  0
LINE
  5
FDD7
330
FD45
100
AcDbEntity
  8
0
100
AcDbLine
 10
78.59999983392936
 20
17.50000233848504
 30
0.0
 11
78.59999983392834
 21
17.00000233848504
 31
0.0
  0
LINE
  5
FDD8
330
FD45
100
AcDbEntity
  8
0
100
AcDbLine
 10
23.59999983392936
 20
17.00000233848504
 30
0.0
 11
78.59999983392936
 21
17.00000233848504
 31
0.0
  0
LINE
  5
FDD9
330
FD45
100
AcDbEntity
  8
0
100
AcDbLine
 10
123.9878536770963
 20
16.50000233848504
 30
0.0
 11
123.9878536770973
 21
190.500002338485
 31
0.0
  0
LINE
  5
FDDA
330
FD45
100
AcDbEntity
  8
0
100
AcDbLine
 10
3.199999833929496
 20
57.20000307217538
 30
0.0
 11
3.199999833929496
 21
37.00000307217533
 31
0.0
  0
LINE
  5
FDDB
330
FD45
100
AcDbEntity
  8
0
100
AcDbLine
 10
4.099999833929359
 20
33.50000307217533
 30
0.0
 11
3.599999833929359
 21
34.00000307217533
 31
0.0
  0
LINE
  5
FDDC
330
FD45
100
AcDbEntity
  8
0
100
AcDbLine
 10
3.599999833929473
 20
34.90000307217542
 30
0.0
 11
3.599999833929359
 21
34.00000307217533
 31
0.0
  0
LINE
  5
FDDD
330
FD45
100
AcDbEntity
  8
0
100
AcDbLine
 10
4.899999833929541
 20
33.50000307217533
 30
0.0
 11
4.099999833929359
 21
33.50000307217533
 31
0.0
  0
ARC
  5
FDDE
330
FD45
100
AcDbEntity
  8
0
100
AcDbCircle
 10
4.599999833929473
 20
34.90000307217531
 30
0.0
 40
1.0
100
AcDbArc
 50
90.0
 51
180.0
  0
LINE
  5
FDDF
330
FD45
100
AcDbEntity
  8
0
100
AcDbLine
 10
6.599999833929359
 20
35.90000307217539
 30
0.0
 11
4.599999833929473
 21
35.90000307217531
 31
0.0
  0
LINE
  5
FDE0
330
FD45
100
AcDbEntity
  8
0
100
AcDbLine
 10
6.599999833929359
 20
34.70000307217537
 30
0.0
 11
4.899999833929655
 21
34.70000307217537
 31
0.0
  0
LINE
  5
FDE1
330
FD45
100
AcDbEntity
  8
0
100
AcDbLine
 10
6.599999833929359
 20
37.0000030721753
 30
0.0
 11
3.199999833929496
 21
37.00000307217533
 31
0.0
  0
LINE
  5
FDE2
330
FD45
100
AcDbEntity
  8
0
100
AcDbLine
 10
4.899999833929541
 20
33.50000307217533
 30
0.0
 11
4.899999833929541
 21
34.70000307217537
 31
0.0
  0
LINE
  5
FDE3
330
FD45
100
AcDbEntity
  8
0
100
AcDbLine
 10
4.099999833929587
 20
60.70000307217537
 30
0.0
 11
3.599999833929587
 21
60.20000307217538
 31
0.0
  0
LINE
  5
FDE4
330
FD45
100
AcDbEntity
  8
0
100
AcDbLine
 10
3.599999833929587
 20
60.20000307217538
 30
0.0
 11
3.599999833929587
 21
59.30000307217529
 31
0.0
  0
LINE
  5
FDE5
330
FD45
100
AcDbEntity
  8
0
100
AcDbLine
 10
4.899999833929541
 20
60.70000307217537
 30
0.0
 11
4.099999833929587
 21
60.70000307217537
 31
0.0
  0
ARC
  5
FDE6
330
FD45
100
AcDbEntity
  8
0
100
AcDbCircle
 10
4.599999833929587
 20
59.3000030721754
 30
0.0
 40
1.0
100
AcDbArc
 50
180.0
 51
270.0
  0
LINE
  5
FDE7
330
FD45
100
AcDbEntity
  8
0
100
AcDbLine
 10
6.599999833929359
 20
58.3000030721754
 30
0.0
 11
4.599999833929587
 21
58.3000030721754
 31
0.0
  0
LINE
  5
FDE8
330
FD45
100
AcDbEntity
  8
0
100
AcDbLine
 10
3.199999833929496
 20
57.20000307217538
 30
0.0
 11
6.599999833929359
 21
57.20000307217538
 31
0.0
  0
LINE
  5
FDE9
330
FD45
100
AcDbEntity
  8
0
100
AcDbLine
 10
6.599999833929359
 20
59.50000307217544
 30
0.0
 11
4.899999833929427
 21
59.50000307217544
 31
0.0
  0
LINE
  5
FDEA
330
FD45
100
AcDbEntity
  8
0
100
AcDbLine
 10
4.899999833929541
 20
59.50000307217533
 30
0.0
 11
4.899999833929541
 21
60.70000307217537
 31
0.0
  0
LINE
  5
FDEB
330
FD45
100
AcDbEntity
  8
0
100
AcDbLine
 10
6.599999833929359
 20
21.50000307217533
 30
0.0
 11
4.099999833929246
 21
21.50000307217533
 31
0.0
  0
LINE
  5
FDEC
330
FD45
100
AcDbEntity
  8
0
100
AcDbLine
 10
4.099999833929246
 20
21.50000307217533
 30
0.0
 11
4.099999833929246
 21
27.00000307217533
 31
0.0
  0
LINE
  5
FDED
330
FD45
100
AcDbEntity
  8
0
100
AcDbLine
 10
4.099999833929246
 20
27.00000307217533
 30
0.0
 11
6.599999833929359
 21
27.00000307217533
 31
0.0
  0
LINE
  5
FDEE
330
FD45
100
AcDbEntity
  8
0
100
AcDbLine
 10
6.599999833929359
 20
62.14000233848515
 30
0.0
 11
5.599999833929359
 21
62.14000233848515
 31
0.0
  0
LINE
  5
FDEF
330
FD45
100
AcDbEntity
  8
0
100
AcDbLine
 10
5.599999833929359
 20
62.14000233848515
 30
0.0
 11
5.599999833929359
 21
59.50000307217544
 31
0.0
  0
LINE
  5
FDF0
330
FD45
100
AcDbEntity
  8
0
100
AcDbLine
 10
-0.000000166070663
 20
112.500002338485
 30
0.0
 11
6.599999833929359
 21
112.500002338485
 31
0.0
  0
LINE
  5
FDF1
330
FD45
100
AcDbEntity
  8
0
100
AcDbLine
 10
6.599999833929359
 20
136.6600023384851
 30
0.0
 11
-0.000000166070663
 21
136.6600023384851
 31
0.0
  0
LINE
  5
FDF2
330
FD45
100
AcDbEntity
  8
0
100
AcDbLine
 10
-0.000000166070663
 20
136.6600023384851
 30
0.0
 11
-0.000000166070663
 21
112.500002338485
 31
0.0
  0
LINE
  5
FDF3
330
FD45
100
AcDbEntity
  8
0
100
AcDbLine
 10
1.299999833929405
 20
71.34000233848508
 30
0.0
 11
1.299999833929405
 21
99.80000233848512
 31
0.0
  0
LINE
  5
FDF4
330
FD45
100
AcDbEntity
  8
0
100
AcDbLine
 10
1.299999833929405
 20
75.45000233848509
 30
0.0
 11
5.599999833929246
 21
75.45000233848509
 31
0.0
  0
LINE
  5
FDF5
330
FD45
100
AcDbEntity
  8
0
100
AcDbLine
 10
5.599999833929359
 20
71.34000233848508
 30
0.0
 11
1.299999833929405
 21
71.34000233848508
 31
0.0
  0
LINE
  5
FDF6
330
FD45
100
AcDbEntity
  8
0
100
AcDbLine
 10
1.299999833929405
 20
95.69000233848511
 30
0.0
 11
6.599999833929359
 21
95.69000233848511
 31
0.0
  0
LINE
  5
FDF7
330
FD45
100
AcDbEntity
  8
0
100
AcDbLine
 10
1.299999833929405
 20
90.69000233848511
 30
0.0
 11
6.599999833929359
 21
90.69000233848511
 31
0.0
  0
LINE
  5
FDF8
330
FD45
100
AcDbEntity
  8
0
100
AcDbLine
 10
1.299999833929405
 20
83.0700023384851
 30
0.0
 11
6.599999833929359
 21
83.0700023384851
 31
0.0
  0
LINE
  5
FDF9
330
FD45
100
AcDbEntity
  8
0
100
AcDbLine
 10
1.299999833929405
 20
88.0700023384851
 30
0.0
 11
6.599999833929359
 21
88.0700023384851
 31
0.0
  0
LINE
  5
FDFA
330
FD45
100
AcDbEntity
  8
0
100
AcDbLine
 10
1.299999833929405
 20
80.4500023384851
 30
0.0
 11
5.799999833929632
 21
80.4500023384851
 31
0.0
  0
LINE
  5
FDFB
330
FD45
100
AcDbEntity
  8
0
100
AcDbLine
 10
5.799999833929632
 20
99.80000233848512
 30
0.0
 11
1.299999833929405
 21
99.80000233848512
 31
0.0
  0
LINE
  5
FDFC
330
FD45
100
AcDbEntity
  8
0
100
AcDbLine
 10
49.59999983392936
 20
187.500002338485
 30
0.0
 11
51.59999983392935
 21
187.500002338485
 31
0.0
  0
LINE
  5
FDFD
330
FD45
100
AcDbEntity
  8
0
100
AcDbLine
 10
122.5999998339284
 20
190.500002338485
 30
0.0
 11
122.5999998339284
 21
200.500002338485
 31
0.0
  0
LINE
  5
FDFE
330
FD45
100
AcDbEntity
  8
0
100
AcDbLine
 10
6.599999833929359
 20
16.50000233848504
 30
0.0
 11
123.9878536770973
 21
16.50000233848504
 31
0.0
  0
LINE
  5
FDFF
330
FD45
100
AcDbEntity
  8
0
100
AcDbLine
 10
25.59999983392936
 20
0.0000023384850465
 30
0.0
 11
25.59999983392936
 21
8.500002338485046
 31
0.0
  0
LINE
  5
FE00
330
FD45
100
AcDbEntity
  8
0
100
AcDbLine
 10
77.59999983392834
 20
0.0000023384850465
 30
0.0
 11
77.59999983392834
 21
16.50000233848504
 31
0.0
  0
LINE
  5
FE01
330
FD45
100
AcDbEntity
  8
0
100
AcDbLine
 10
25.59999983392936
 20
0.0000023384850465
 30
0.0
 11
77.59999983392834
 21
0.0000023384850465
 31
0.0
  0
LINE
  5
FE02
330
FD45
100
AcDbEntity
  8
0
100
AcDbLine
 10
35.59999983392936
 20
0.0000023384850465
 30
0.0
 11
35.59999983392936
 21
16.50000233848504
 31
0.0
  0
LINE
  5
FE03
330
FD45
100
AcDbEntity
  8
0
100
AcDbLine
 10
25.59999983392936
 20
8.500002338485046
 30
0.0
 11
35.59999983392936
 21
8.500002338485046
 31
0.0
  0
LINE
  5
FE04
330
FD45
100
AcDbEntity
  8
0
100
AcDbLine
 10
37.59999983392936
 20
9.500002338485046
 30
0.0
 11
37.59999983392936
 21
0.0000023384850465
 31
0.0
  0
LINE
  5
FE05
330
FD45
100
AcDbEntity
  8
0
100
AcDbLine
 10
75.59999983392834
 20
9.500002338485046
 30
0.0
 11
75.59999983392834
 21
0.0000023384850465
 31
0.0
  0
LINE
  5
FE06
330
FD45
100
AcDbEntity
  8
0
100
AcDbLine
 10
5.599999833929359
 20
58.3000030721754
 30
0.0
 11
5.599999833929359
 21
57.20000307217538
 31
0.0
  0
LINE
  5
FE07
330
FD45
100
AcDbEntity
  8
0
100
AcDbLine
 10
5.599999833929359
 20
37.00000307217533
 30
0.0
 11
5.599999833929359
 21
35.90000307217533
 31
0.0
  0
LINE
  5
FE08
330
FD45
100
AcDbEntity
  8
0
100
AcDbLine
 10
5.599999833929359
 20
34.70000307217537
 30
0.0
 11
5.599999833929359
 21
27.00000307217533
 31
0.0
  0
LINE
  5
FE09
330
FD45
100
AcDbEntity
  8
0
100
AcDbLine
 10
6.599999833929359
 20
157.9400023384851
 30
0.0
 11
5.595637893078333
 21
157.9400023384851
 31
0.0
  0
LINE
  5
FE0A
330
FD45
100
AcDbEntity
  8
0
100
AcDbLine
 10
6.599999833929359
 20
68.70000307217537
 30
0.0
 11
5.599999833929359
 21
68.70000307217537
 31
0.0
  0
LINE
  5
FE0B
330
FD45
100
AcDbEntity
  8
0
100
AcDbLine
 10
5.599999833929359
 20
68.70000307217537
 30
0.0
 11
5.599999833929246
 21
77.10000307217547
 31
0.0
  0
LINE
  5
FE0C
330
FD45
100
AcDbEntity
  8
0
100
AcDbLine
 10
5.599999833929246
 20
77.10000307217547
 30
0.0
 11
6.599999833929359
 21
77.10000307217547
 31
0.0
  0
LINE
  5
FE0D
330
FD45
100
AcDbEntity
  8
0
100
AcDbLine
 10
6.599999833929359
 20
78.60000307217546
 30
0.0
 11
5.799999833929632
 21
78.60000307217546
 31
0.0
  0
LINE
  5
FE0E
330
FD45
100
AcDbEntity
  8
0
100
AcDbLine
 10
5.799999833929632
 20
78.60000307217546
 30
0.0
 11
5.799999833929632
 21
81.60000307217547
 31
0.0
  0
LINE
  5
FE0F
330
FD45
100
AcDbEntity
  8
0
100
AcDbLine
 10
5.799999833929632
 20
81.60000307217547
 30
0.0
 11
6.599999833929359
 21
81.60000307217547
 31
0.0
  0
LINE
  5
FE10
330
FD45
100
AcDbEntity
  8
0
100
AcDbLine
 10
6.599999833929359
 20
98.60000307217546
 30
0.0
 11
5.799999833929632
 21
98.60000307217546
 31
0.0
  0
LINE
  5
FE11
330
FD45
100
AcDbEntity
  8
0
100
AcDbLine
 10
5.799999833929632
 20
98.60000307217546
 30
0.0
 11
5.799999833929632
 21
101.6000030721754
 31
0.0
  0
LINE
  5
FE12
330
FD45
100
AcDbEntity
  8
0
100
AcDbLine
 10
5.799999833929632
 20
101.6000030721754
 30
0.0
 11
6.599999833929359
 21
101.6000030721754
 31
0.0
  0
LINE
  5
FE13
330
FD45
100
AcDbEntity
  8
0
  6
Continuous
100
AcDbLine
 10
5.595637893078333
 20
157.9400023384851
 30
0.0
 11
5.595637893078333
 21
142.5400023384851
 31
0.0
  0
LINE
  5
FE14
330
FD45
100
AcDbEntity
  8
0
  6
Continuous
100
AcDbLine
 10
5.595637893078333
 20
142.5400023384851
 30
0.0
 11
6.599999833929359
 21
142.5400023384851
 31
0.0
  0
ENDBLK
  5
FE16
330
FD45
100
AcDbEntity
  8
0
100
AcDbBlockEnd
  0
BLOCK
  5
19FF1
330
19F7E
100
AcDbEntity
  8
0
100
AcDbBlockBegin
  2
A$C60EC01A6
 70
     0
 10
0.0
 20
0.0
 30
0.0
  3
A$C60EC01A6
  1
A$C60EC01A6
  0
LINE
  5
19F7F
330
19F7E
100
AcDbEntity
  8
0
  6
Continuous
100
AcDbLine
 10
4.90000012191831
 20
88.20000090088797
 30
0.0
 11
4.90000012191831
 21
1.900000900887789
 31
0.0
  0
LINE
  5
19F80
330
19F7E
100
AcDbEntity
  8
0
  6
Continuous
100
AcDbLine
 10
15.50000012191822
 20
56.30000090088742
 30
0.0
 11
15.50000012191822
 21
1.900000900887789
 31
0.0
  0
LINE
  5
19F81
330
19F7E
100
AcDbEntity
  8
0
  6
Continuous
370
     9
100
AcDbLine
 10
47.40000000000009
 20
169.4000010602317
 30
0.0
 11
47.40000000000009
 21
0.0000010602316252
 31
0.0
  0
LINE
  5
19F82
330
19F7E
100
AcDbEntity
  8
0
  6
Continuous
370
     9
100
AcDbLine
 10
47.40000000000009
 20
169.4000010602317
 30
0.0
 11
0.0
 21
169.4000010602317
 31
0.0
  0
LINE
  5
19F83
330
19F7E
100
AcDbEntity
  8
0
  6
Continuous
100
AcDbLine
 10
17.50000012191821
 20
118.9000009008877
 30
0.0
 11
17.50000012191821
 21
92.70000090088798
 31
0.0
  0
LINE
  5
19F84
330
19F7E
100
AcDbEntity
  8
0
  6
Continuous
100
AcDbLine
 10
4.90000012191831
 20
118.9000009008877
 30
0.0
 11
4.90000012191831
 21
92.70000090088798
 31
0.0
  0
LINE
  5
19F85
330
19F7E
100
AcDbEntity
  8
0
  6
Continuous
100
AcDbLine
 10
0.0
 20
169.4000010602317
 30
0.0
 11
0.0
 21
20.32227817897546
 31
0.0
  0
LINE
  5
19F86
330
19F7E
100
AcDbEntity
  8
0
  6
Continuous
100
AcDbLine
 10
4.90000012191831
 20
155.8000009008874
 30
0.0
 11
4.90000012191831
 21
122.8000009008874
 31
0.0
  0
LINE
  5
19F87
330
19F7E
100
AcDbEntity
  8
0
  6
Continuous
100
AcDbLine
 10
14.80000012191794
 20
155.8000009008874
 30
0.0
 11
14.80000012191794
 21
147.8000009008874
 31
0.0
  0
LINE
  5
19F88
330
19F7E
100
AcDbEntity
  8
0
  6
Continuous
100
AcDbLine
 10
14.20000012191803
 20
139.6000009008876
 30
0.0
 11
14.20000012191803
 21
122.8000009008874
 31
0.0
  0
LINE
  5
19F89
330
19F7E
100
AcDbEntity
  8
0
  6
Continuous
100
AcDbLine
 10
4.90000012191831
 20
118.9000009008877
 30
0.0
 11
17.50000012191821
 21
118.9000009008877
 31
0.0
  0
LINE
  5
19F8A
330
19F7E
100
AcDbEntity
  8
0
  6
Continuous
100
AcDbLine
 10
4.90000012191831
 20
122.8000009008874
 30
0.0
 11
14.20000012191803
 21
122.8000009008874
 31
0.0
  0
LINE
  5
19F8B
330
19F7E
100
AcDbEntity
  8
0
  6
Continuous
100
AcDbLine
 10
17.80000012191794
 20
147.8000009008874
 30
0.0
 11
17.80000012191794
 21
139.6000009008876
 31
0.0
  0
LINE
  5
19F8C
330
19F7E
100
AcDbEntity
  8
0
  6
Continuous
100
AcDbLine
 10
14.20000012191803
 20
139.6000009008876
 30
0.0
 11
17.80000012191794
 21
139.6000009008876
 31
0.0
  0
LINE
  5
19F8D
330
19F7E
100
AcDbEntity
  8
0
  6
Continuous
100
AcDbLine
 10
14.80000012191794
 20
147.8000009008874
 30
0.0
 11
17.80000012191794
 21
147.8000009008874
 31
0.0
  0
CIRCLE
  5
19F8E
330
19F7E
100
AcDbEntity
  8
0
  6
Continuous
100
AcDbCircle
 10
13.50000012191822
 20
164.5000009008876
 30
0.0
 40
1.399999999999999
  0
CIRCLE
  5
19F8F
330
19F7E
100
AcDbEntity
  8
0
  6
Continuous
100
AcDbCircle
 10
8.40000012191831
 20
164.5000009008876
 30
0.0
 40
1.399999999999999
  0
CIRCLE
  5
19F90
330
19F7E
100
AcDbEntity
  8
0
  6
Continuous
100
AcDbCircle
 10
13.50000012191822
 20
159.7000009008879
 30
0.0
 40
1.399999999999999
  0
LINE
  5
19F91
330
19F7E
100
AcDbEntity
  8
0
  6
Continuous
100
AcDbLine
 10
14.80000012191794
 20
155.8000009008874
 30
0.0
 11
4.90000012191831
 21
155.8000009008874
 31
0.0
  0
CIRCLE
  5
19F92
330
19F7E
100
AcDbEntity
  8
0
  6
Continuous
100
AcDbCircle
 10
8.40000012191831
 20
159.7000009008879
 30
0.0
 40
1.399999999999999
  0
LINE
  5
19F93
330
19F7E
100
AcDbEntity
  8
0
  6
Continuous
100
AcDbLine
 10
30.50000012191822
 20
47.30000090088788
 30
0.0
 11
30.50000012191822
 21
1.900000900887789
 31
0.0
  0
LINE
  5
19F94
330
19F7E
100
AcDbEntity
  8
0
  6
Continuous
100
AcDbLine
 10
41.90000012191922
 20
47.30000090088788
 30
0.0
 11
41.90000012191922
 21
1.900000900887789
 31
0.0
  0
LINE
  5
19F95
330
19F7E
100
AcDbEntity
  8
0
  6
Continuous
100
AcDbLine
 10
4.90000012191831
 20
88.20000090088797
 30
0.0
 11
4.90000012191831
 21
1.900000900887789
 31
0.0
  0
LINE
  5
19F96
330
19F7E
100
AcDbEntity
  8
0
  6
Continuous
100
AcDbLine
 10
15.50000012191822
 20
56.30000090088742
 30
0.0
 11
15.50000012191822
 21
1.900000900887789
 31
0.0
  0
LINE
  5
19F97
330
19F7E
100
AcDbEntity
  8
0
  6
Continuous
100
AcDbLine
 10
2.899999999996907
 20
14.70000106023144
 30
0.0
 11
2.899999999995998
 21
0.0000010602316252
 31
0.0
  0
LINE
  5
19F98
330
19F7E
100
AcDbEntity
  8
0
  6
Continuous
100
AcDbLine
 10
47.40000000000009
 20
169.4000010602317
 30
0.0
 11
47.40000000000009
 21
0.0000010602316252
 31
0.0
  0
LINE
  5
19F99
330
19F7E
100
AcDbEntity
  8
0
  6
Continuous
100
AcDbLine
 10
2.899999999995998
 20
0.0000010602316252
 30
0.0
 11
47.40000000000009
 21
0.0000010602316252
 31
0.0
  0
LINE
  5
19F9A
330
19F7E
100
AcDbEntity
  8
0
  6
Continuous
100
AcDbLine
 10
41.90000012191922
 20
1.900000900887789
 30
0.0
 11
30.50000012191822
 21
1.900000900887789
 31
0.0
  0
LINE
  5
19F9B
330
19F7E
100
AcDbEntity
  8
0
  6
Continuous
100
AcDbLine
 10
15.50000012191822
 20
1.900000900887789
 30
0.0
 11
4.90000012191831
 21
1.900000900887789
 31
0.0
  0
LINE
  5
19F9C
330
19F7E
100
AcDbEntity
  8
0
  6
Continuous
100
AcDbLine
 10
41.90000012191922
 20
84.20000090088752
 30
0.0
 11
30.50000012191822
 21
84.20000090088752
 31
0.0
  0
LINE
  5
19F9D
330
19F7E
100
AcDbEntity
  8
0
  6
Continuous
100
AcDbLine
 10
41.90000012191922
 20
49.5000009008877
 30
0.0
 11
30.50000012191822
 21
49.5000009008877
 31
0.0
  0
LINE
  5
19F9E
330
19F7E
100
AcDbEntity
  8
0
  6
Continuous
100
AcDbLine
 10
41.90000012191922
 20
47.30000090088788
 30
0.0
 11
30.50000012191822
 21
47.30000090088788
 31
0.0
  0
LINE
  5
19F9F
330
19F7E
100
AcDbEntity
  8
0
  6
Continuous
100
AcDbLine
 10
47.40000000000009
 20
169.4000010602317
 30
0.0
 11
0.0
 21
169.4000010602317
 31
0.0
  0
LINE
  5
19FA0
330
19F7E
100
AcDbEntity
  8
0
  6
Continuous
100
AcDbLine
 10
17.50000012191821
 20
118.9000009008877
 30
0.0
 11
17.50000012191821
 21
92.70000090088798
 31
0.0
  0
LINE
  5
19FA1
330
19F7E
100
AcDbEntity
  8
0
  6
Continuous
100
AcDbLine
 10
4.90000012191831
 20
118.9000009008877
 30
0.0
 11
4.90000012191831
 21
92.70000090088798
 31
0.0
  0
LINE
  5
19FA2
330
19F7E
100
AcDbEntity
  8
0
  6
Continuous
100
AcDbLine
 10
0.0
 20
169.4000010602317
 30
0.0
 11
0.0
 21
20.32227817897546
 31
0.0
  0
LINE
  5
19FA3
330
19F7E
100
AcDbEntity
  8
0
  6
Continuous
100
AcDbLine
 10
15.50000012191822
 20
73.30000090088742
 30
0.0
 11
15.50000012191822
 21
59.90000090088779
 31
0.0
  0
LINE
  5
19FA4
330
19F7E
100
AcDbEntity
  8
0
  6
Continuous
100
AcDbLine
 10
30.50000012191822
 20
63.80000090088742
 30
0.0
 11
30.50000012191822
 21
49.5000009008877
 31
0.0
  0
LINE
  5
19FA5
330
19F7E
100
AcDbEntity
  8
0
  6
Continuous
100
AcDbLine
 10
17.10000012191812
 20
59.90000090088779
 30
0.0
 11
17.10000012191812
 21
56.30000090088742
 31
0.0
  0
LINE
  5
19FA6
330
19F7E
100
AcDbEntity
  8
0
  6
Continuous
100
AcDbLine
 10
15.50000012191822
 20
59.90000090088779
 30
0.0
 11
17.10000012191812
 21
59.90000090088779
 31
0.0
  0
LINE
  5
19FA7
330
19F7E
100
AcDbEntity
  8
0
  6
Continuous
100
AcDbLine
 10
15.50000012191822
 20
56.30000090088742
 30
0.0
 11
17.10000012191812
 21
56.30000090088742
 31
0.0
  0
LINE
  5
19FA8
330
19F7E
100
AcDbEntity
  8
0
  6
Continuous
100
AcDbLine
 10
15.50000012191822
 20
88.20000090088797
 30
0.0
 11
15.50000012191822
 21
76.90000090088779
 31
0.0
  0
LINE
  5
19FA9
330
19F7E
100
AcDbEntity
  8
0
  6
Continuous
100
AcDbLine
 10
30.50000012191822
 20
79.80000090088743
 30
0.0
 11
30.50000012191822
 21
84.20000090088752
 31
0.0
  0
LINE
  5
19FAA
330
19F7E
100
AcDbEntity
  8
0
  6
Continuous
100
AcDbLine
 10
15.50000012191822
 20
76.90000090088779
 30
0.0
 11
17.10000012191812
 21
76.90000090088779
 31
0.0
  0
LINE
  5
19FAB
330
19F7E
100
AcDbEntity
  8
0
  6
Continuous
100
AcDbLine
 10
15.50000012191822
 20
73.30000090088742
 30
0.0
 11
17.10000012191812
 21
73.30000090088742
 31
0.0
  0
LINE
  5
19FAC
330
19F7E
100
AcDbEntity
  8
0
  6
Continuous
100
AcDbLine
 10
17.10000012191812
 20
76.90000090088779
 30
0.0
 11
17.10000012191812
 21
73.30000090088742
 31
0.0
  0
LINE
  5
19FAD
330
19F7E
100
AcDbEntity
  8
0
  6
Continuous
100
AcDbLine
 10
26.90000012191831
 20
79.80000090088743
 30
0.0
 11
26.90000012191831
 21
63.80000090088742
 31
0.0
  0
LINE
  5
19FAE
330
19F7E
100
AcDbEntity
  8
0
  6
Continuous
100
AcDbLine
 10
30.50000012191822
 20
63.80000090088742
 30
0.0
 11
26.90000012191831
 21
63.80000090088742
 31
0.0
  0
LINE
  5
19FAF
330
19F7E
100
AcDbEntity
  8
0
  6
Continuous
100
AcDbLine
 10
30.50000012191822
 20
79.80000090088743
 30
0.0
 11
26.90000012191831
 21
79.80000090088743
 31
0.0
  0
LINE
  5
19FB0
330
19F7E
100
AcDbEntity
  8
0
  6
Continuous
100
AcDbLine
 10
4.90000012191831
 20
92.70000090088798
 30
0.0
 11
17.50000012191821
 21
92.70000090088798
 31
0.0
  0
LINE
  5
19FB1
330
19F7E
100
AcDbEntity
  8
0
  6
Continuous
100
AcDbLine
 10
4.90000012191831
 20
88.20000090088797
 30
0.0
 11
15.50000012191822
 21
88.20000090088797
 31
0.0
  0
LINE
  5
19FB2
330
19F7E
100
AcDbEntity
  8
0
  6
Continuous
100
AcDbLine
 10
4.90000012191831
 20
155.8000009008874
 30
0.0
 11
4.90000012191831
 21
122.8000009008874
 31
0.0
  0
LINE
  5
19FB3
330
19F7E
100
AcDbEntity
  8
0
  6
Continuous
100
AcDbLine
 10
14.80000012191794
 20
155.8000009008874
 30
0.0
 11
14.80000012191794
 21
147.8000009008874
 31
0.0
  0
LINE
  5
19FB4
330
19F7E
100
AcDbEntity
  8
0
  6
Continuous
100
AcDbLine
 10
14.20000012191803
 20
139.6000009008876
 30
0.0
 11
14.20000012191803
 21
122.8000009008874
 31
0.0
  0
LINE
  5
19FB5
330
19F7E
100
AcDbEntity
  8
0
  6
Continuous
100
AcDbLine
 10
4.90000012191831
 20
118.9000009008877
 30
0.0
 11
17.50000012191821
 21
118.9000009008877
 31
0.0
  0
LINE
  5
19FB6
330
19F7E
100
AcDbEntity
  8
0
  6
Continuous
100
AcDbLine
 10
4.90000012191831
 20
122.8000009008874
 30
0.0
 11
14.20000012191803
 21
122.8000009008874
 31
0.0
  0
LINE
  5
19FB7
330
19F7E
100
AcDbEntity
  8
0
  6
Continuous
100
AcDbLine
 10
17.80000012191794
 20
147.8000009008874
 30
0.0
 11
17.80000012191794
 21
139.6000009008876
 31
0.0
  0
LINE
  5
19FB8
330
19F7E
100
AcDbEntity
  8
0
  6
Continuous
100
AcDbLine
 10
14.20000012191803
 20
139.6000009008876
 30
0.0
 11
17.80000012191794
 21
139.6000009008876
 31
0.0
  0
LINE
  5
19FB9
330
19F7E
100
AcDbEntity
  8
0
  6
Continuous
100
AcDbLine
 10
14.80000012191794
 20
147.8000009008874
 30
0.0
 11
17.80000012191794
 21
147.8000009008874
 31
0.0
  0
CIRCLE
  5
19FBA
330
19F7E
100
AcDbEntity
  8
0
  6
Continuous
100
AcDbCircle
 10
13.50000012191822
 20
164.5000009008876
 30
0.0
 40
1.399999999999999
  0
CIRCLE
  5
19FBB
330
19F7E
100
AcDbEntity
  8
0
  6
Continuous
100
AcDbCircle
 10
8.40000012191831
 20
164.5000009008876
 30
0.0
 40
1.399999999999999
  0
CIRCLE
  5
19FBC
330
19F7E
100
AcDbEntity
  8
0
  6
Continuous
100
AcDbCircle
 10
13.50000012191822
 20
159.7000009008879
 30
0.0
 40
1.399999999999999
  0
LINE
  5
19FBD
330
19F7E
100
AcDbEntity
  8
0
  6
Continuous
100
AcDbLine
 10
14.80000012191794
 20
155.8000009008874
 30
0.0
 11
4.90000012191831
 21
155.8000009008874
 31
0.0
  0
CIRCLE
  5
19FBE
330
19F7E
100
AcDbEntity
  8
0
  6
Continuous
100
AcDbCircle
 10
8.40000012191831
 20
159.7000009008879
 30
0.0
 40
1.399999999999999
  0
LINE
  5
19FBF
330
19F7E
100
AcDbEntity
  8
0
  6
Continuous
100
AcDbLine
 10
41.90000012191922
 20
84.20000090088752
 30
0.0
 11
41.90000012191922
 21
49.5000009008877
 31
0.0
  0
ARC
  5
19FC0
330
19F7E
100
AcDbEntity
  8
0
  6
Continuous
100
AcDbCircle
 10
-3.999999999998181
 20
14.70000106023189
 30
0.0
 40
6.899999999995543
100
AcDbArc
 50
0.0
 51
54.56984163989043
  0
LINE
  5
19FC1
330
19F7E
100
AcDbEntity
  8
0
100
AcDbLine
 10
28.59985163883129
 20
112.0199993142769
 30
0.0
 11
36.59985163883129
 21
112.0199993142769
 31
0.0
  0
ARC
  5
19FC2
330
19F7E
100
AcDbEntity
  8
0
100
AcDbCircle
 10
39.59985163883129
 20
115.5199993142768
 30
0.0
 40
1.0
100
AcDbArc
 50
270.0
 51
0.0
  0
LINE
  5
19FC3
330
19F7E
100
AcDbEntity
  8
0
100
AcDbLine
 10
40.59985163883129
 20
115.5199993142768
 30
0.0
 11
40.59985163883129
 21
120.5199993142769
 31
0.0
  0
ARC
  5
19FC4
330
19F7E
100
AcDbEntity
  8
0
100
AcDbCircle
 10
39.59985163883129
 20
120.5199993142769
 30
0.0
 40
1.0
100
AcDbArc
 50
0.0
 51
90.0
  0
LINE
  5
19FC5
330
19F7E
100
AcDbEntity
  8
0
100
AcDbLine
 10
28.09985163883129
 20
112.0199993142769
 30
0.0
 11
37.09985163883129
 21
112.0199993142769
 31
0.0
  0
LINE
  5
19FC6
330
19F7E
100
AcDbEntity
  8
0
100
AcDbLine
 10
39.09985163883084
 20
114.5199993142768
 30
0.0
 11
39.59985163883129
 21
114.5199993142768
 31
0.0
  0
ARC
  5
19FC7
330
19F7E
100
AcDbEntity
  8
0
100
AcDbCircle
 10
39.59985163883129
 20
115.5199993142768
 30
0.0
 40
1.0
100
AcDbArc
 50
270.0
 51
0.0
  0
LINE
  5
19FC8
330
19F7E
100
AcDbEntity
  8
0
100
AcDbLine
 10
40.59985163883129
 20
115.5199993142768
 30
0.0
 11
40.59985163883129
 21
120.5199993142769
 31
0.0
  0
ARC
  5
19FC9
330
19F7E
100
AcDbEntity
  8
0
100
AcDbCircle
 10
39.59985163883129
 20
120.5199993142769
 30
0.0
 40
1.0
100
AcDbArc
 50
0.0
 51
90.0
  0
LINE
  5
19FCA
330
19F7E
100
AcDbEntity
  8
0
100
AcDbLine
 10
39.59985163883129
 20
121.5199993142769
 30
0.0
 11
39.09985163883175
 21
121.5199993142769
 31
0.0
  0
LINE
  5
19FCB
330
19F7E
100
AcDbEntity
  8
0
100
AcDbLine
 10
38.09985163883175
 20
122.5199993142769
 30
0.0
 11
38.09985163883129
 21
124.0199993142768
 31
0.0
  0
LINE
  5
19FCC
330
19F7E
100
AcDbEntity
  8
0
100
AcDbLine
 10
37.09985163883129
 20
125.0199993142768
 30
0.0
 11
28.09985163883129
 21
125.0199993142768
 31
0.0
  0
LINE
  5
19FCD
330
19F7E
100
AcDbEntity
  8
0
100
AcDbLine
 10
27.09985163883129
 20
124.0199993142768
 30
0.0
 11
27.09985163883129
 21
113.0199993142769
 31
0.0
  0
LINE
  5
19FCE
330
19F7E
100
AcDbEntity
  8
0
 48
5.0
100
AcDbLine
 10
38.09985163883084
 20
113.5199993142768
 30
0.0
 11
38.09985163883129
 21
113.0199993142769
 31
0.0
  0
ARC
  5
19FCF
330
19F7E
100
AcDbEntity
  8
0
100
AcDbCircle
 10
28.09985163883129
 20
124.0199993142768
 30
0.0
 40
1.0
100
AcDbArc
 50
90.0
 51
180.0
  0
ARC
  5
19FD0
330
19F7E
100
AcDbEntity
  8
0
100
AcDbCircle
 10
28.09985163883129
 20
113.0199993142769
 30
0.0
 40
1.0
100
AcDbArc
 50
180.0
 51
270.0
  0
ARC
  5
19FD1
330
19F7E
100
AcDbEntity
  8
0
100
AcDbCircle
 10
37.09985163883129
 20
124.0199993142768
 30
0.0
 40
1.0
100
AcDbArc
 50
0.0
 51
90.0
  0
ARC
  5
19FD2
330
19F7E
100
AcDbEntity
  8
0
100
AcDbCircle
 10
37.09985163883129
 20
113.0199993142769
 30
0.0
 40
1.0
100
AcDbArc
 50
270.0
 51
0.0
  0
ARC
  5
19FD3
330
19F7E
100
AcDbEntity
  8
0
100
AcDbCircle
 10
39.09985163883084
 20
113.5199993142768
 30
0.0
 40
1.0
100
AcDbArc
 50
90.0
 51
180.0
  0
ARC
  5
19FD4
330
19F7E
100
AcDbEntity
  8
0
100
AcDbCircle
 10
39.09985163883175
 20
122.5199993142769
 30
0.0
 40
1.0
100
AcDbArc
 50
180.0
 51
270.0
  0
LINE
  5
19FD5
330
19F7E
100
AcDbEntity
  8
0
100
AcDbLine
 10
28.59985163883038
 20
105.2299993142764
 30
0.0
 11
36.59985163883038
 21
105.2299993142764
 31
0.0
  0
ARC
  5
19FD6
330
19F7E
100
AcDbEntity
  8
0
100
AcDbCircle
 10
39.59985163883038
 20
101.7299993142764
 30
0.0
 40
1.0
100
AcDbArc
 50
0.0
 51
90.0
  0
LINE
  5
19FD7
330
19F7E
100
AcDbEntity
  8
0
100
AcDbLine
 10
40.59985163883038
 20
101.7299993142764
 30
0.0
 11
40.59985163883038
 21
96.72999931427648
 31
0.0
  0
ARC
  5
19FD8
330
19F7E
100
AcDbEntity
  8
0
100
AcDbCircle
 10
39.59985163883038
 20
96.72999931427648
 30
0.0
 40
1.0
100
AcDbArc
 50
270.0
 51
0.0
  0
LINE
  5
19FD9
330
19F7E
100
AcDbEntity
  8
0
100
AcDbLine
 10
28.09985163883038
 20
105.2299993142764
 30
0.0
 11
37.09985163883038
 21
105.2299993142764
 31
0.0
  0
LINE
  5
19FDA
330
19F7E
100
AcDbEntity
  8
0
100
AcDbLine
 10
39.09985163882993
 20
102.7299993142764
 30
0.0
 11
39.59985163883038
 21
102.7299993142764
 31
0.0
  0
ARC
  5
19FDB
330
19F7E
100
AcDbEntity
  8
0
100
AcDbCircle
 10
39.59985163883038
 20
101.7299993142764
 30
0.0
 40
1.0
100
AcDbArc
 50
0.0
 51
90.0
  0
LINE
  5
19FDC
330
19F7E
100
AcDbEntity
  8
0
100
AcDbLine
 10
40.59985163883038
 20
101.7299993142764
 30
0.0
 11
40.59985163883038
 21
96.72999931427648
 31
0.0
  0
ARC
  5
19FDD
330
19F7E
100
AcDbEntity
  8
0
100
AcDbCircle
 10
39.59985163883038
 20
96.72999931427648
 30
0.0
 40
1.0
100
AcDbArc
 50
270.0
 51
0.0
  0
LINE
  5
19FDE
330
19F7E
100
AcDbEntity
  8
0
100
AcDbLine
 10
39.59985163883038
 20
95.72999931427649
 30
0.0
 11
39.09985163883084
 21
95.72999931427649
 31
0.0
  0
LINE
  5
19FDF
330
19F7E
100
AcDbEntity
  8
0
100
AcDbLine
 10
38.09985163883084
 20
94.72999931427649
 30
0.0
 11
38.09985163883038
 21
93.22999931427649
 31
0.0
  0
LINE
  5
19FE0
330
19F7E
100
AcDbEntity
  8
0
100
AcDbLine
 10
37.09985163883038
 20
92.22999931427649
 30
0.0
 11
28.09985163883038
 21
92.22999931427649
 31
0.0
  0
LINE
  5
19FE1
330
19F7E
100
AcDbEntity
  8
0
100
AcDbLine
 10
27.09985163883038
 20
93.22999931427649
 30
0.0
 11
27.09985163883038
 21
104.2299993142764
 31
0.0
  0
LINE
  5
19FE2
330
19F7E
100
AcDbEntity
  8
0
 48
5.0
100
AcDbLine
 10
38.09985163882993
 20
103.7299993142764
 30
0.0
 11
38.09985163883038
 21
104.2299993142764
 31
0.0
  0
ARC
  5
19FE3
330
19F7E
100
AcDbEntity
  8
0
100
AcDbCircle
 10
28.09985163883038
 20
93.22999931427649
 30
0.0
 40
1.0
100
AcDbArc
 50
180.0
 51
270.0
  0
ARC
  5
19FE4
330
19F7E
100
AcDbEntity
  8
0
100
AcDbCircle
 10
28.09985163883038
 20
104.2299993142764
 30
0.0
 40
1.0
100
AcDbArc
 50
90.0
 51
180.0
  0
ARC
  5
19FE5
330
19F7E
100
AcDbEntity
  8
0
100
AcDbCircle
 10
37.09985163883038
 20
93.22999931427649
 30
0.0
 40
1.0
100
AcDbArc
 50
270.0
 51
0.0
  0
ARC
  5
19FE6
330
19F7E
100
AcDbEntity
  8
0
100
AcDbCircle
 10
37.09985163883038
 20
104.2299993142764
 30
0.0
 40
1.0
100
AcDbArc
 50
0.0
 51
90.0
  0
ARC
  5
19FE7
330
19F7E
100
AcDbEntity
  8
0
100
AcDbCircle
 10
39.09985163882993
 20
103.7299993142764
 30
0.0
 40
1.0
100
AcDbArc
 50
180.0
 51
270.0
  0
ARC
  5
19FE8
330
19F7E
100
AcDbEntity
  8
0
100
AcDbCircle
 10
39.09985163883084
 20
94.72999931427649
 30
0.0
 40
1.0
100
AcDbArc
 50
90.0
 51
180.0
  0
LINE
  5
19FE9
330
19F7E
100
AcDbEntity
  8
0
 62
     0
100
AcDbLine
 10
40.89985163883102
 20
135.174999314278
 30
0.0
 11
40.89985163883102
 21
132.4749993142772
 31
0.0
  0
LINE
  5
19FEA
330
19F7E
100
AcDbEntity
  8
0
 62
     0
100
AcDbLine
 10
39.29985163883065
 20
132.4749993142772
 30
0.0
 11
39.29985163883065
 21
135.174999314278
 31
0.0
  0
LINE
  5
19FEB
330
19F7E
100
AcDbEntity
  8
0
 62
     0
100
AcDbLine
 10
40.89985163883102
 20
135.174999314278
 30
0.0
 11
39.29985163883065
 21
135.174999314278
 31
0.0
  0
LINE
  5
19FEC
330
19F7E
100
AcDbEntity
  8
0
 62
     0
100
AcDbLine
 10
40.89985163883102
 20
132.4749993142772
 30
0.0
 11
39.29985163883065
 21
132.4749993142772
 31
0.0
  0
LINE
  5
19FED
330
19F7E
100
AcDbEntity
  8
0
 62
     0
100
AcDbLine
 10
40.89985163883102
 20
129.6750033143175
 30
0.0
 11
40.89985163883102
 21
126.9750033143168
 31
0.0
  0
LINE
  5
19FEE
330
19F7E
100
AcDbEntity
  8
0
 62
     0
100
AcDbLine
 10
39.29985163883065
 20
126.9750033143168
 30
0.0
 11
39.29985163883065
 21
129.6750033143175
 31
0.0
  0
LINE
  5
19FEF
330
19F7E
100
AcDbEntity
  8
0
 62
     0
100
AcDbLine
 10
40.89985163883102
 20
129.6750033143175
 30
0.0
 11
39.29985163883065
 21
129.6750033143175
 31
0.0
  0
LINE
  5
19FF0
330
19F7E
100
AcDbEntity
  8
0
 62
     0
100
AcDbLine
 10
40.89985163883102
 20
126.9750033143168
 30
0.0
 11
39.29985163883065
 21
126.9750033143168
 31
0.0
  0
ENDBLK
  5
19FF2
330
19F7E
100
AcDbEntity
  8
0
100
AcDbBlockEnd
  0
BLOCK
  5
1A35E
330
1A1B9
100
AcDbEntity
  8
0
100
AcDbBlockBegin
  2
A$C582506EE
 70
     0
 10
0.0
 20
0.0
 30
0.0
  3
A$C582506EE
  1
A$C582506EE
  0
LINE
  5
1A1BA
330
1A1B9
100
AcDbEntity
  8
0
100
AcDbLine
 10
7.73000137968529
 20
29.59999664164252
 30
0.0
 11
7.380001379684927
 21
29.59999664164252
 31
0.0
  0
LINE
  5
1A1BB
330
1A1B9
100
AcDbEntity
  8
0
100
AcDbLine
 10
7.73000137968529
 20
9.809996641642555
 30
0.0
 11
7.380001379684927
 21
9.809996641642555
 31
0.0
  0
LINE
  5
1A1BC
330
1A1B9
100
AcDbEntity
  8
0
100
AcDbLine
 10
6.780001379684563
 20
7.859996641642737
 30
0.0
 11
7.73000137968529
 21
7.859996641642737
 31
0.0
  0
ARC
  5
1A1BD
330
1A1B9
100
AcDbEntity
  8
0
100
AcDbCircle
 10
7.330001379684745
 20
9.009996641642374
 30
0.0
 40
0.4
100
AcDbArc
 50
270.0
 51
0.0
  0
LINE
  5
1A1BE
330
1A1B9
100
AcDbEntity
  8
0
100
AcDbLine
 10
7.73000137968529
 20
9.609996641642737
 30
0.0
 11
7.380001379684927
 21
9.609996641642737
 31
0.0
  0
LINE
  5
1A1BF
330
1A1B9
100
AcDbEntity
  8
0
100
AcDbLine
 10
7.250001379684817
 20
8.559996641642555
 30
0.0
 11
7.73000137968529
 21
8.559996641642555
 31
0.0
  0
ARC
  5
1A1C0
330
1A1B9
100
AcDbEntity
  8
0
100
AcDbCircle
 10
7.330001379684745
 20
0.7999966416423377
 30
0.0
 40
0.4
100
AcDbArc
 50
0.0
 51
90.0
  0
LINE
  5
1A1C1
330
1A1B9
100
AcDbEntity
  8
0
100
AcDbLine
 10
7.250001379684817
 20
1.249996641642155
 30
0.0
 11
7.73000137968529
 21
1.249996641642155
 31
0.0
  0
LINE
  5
1A1C2
330
1A1B9
100
AcDbEntity
  8
0
100
AcDbLine
 10
7.380001379684927
 20
0.1999966416428833
 30
0.0
 11
7.73000137968529
 21
0.1999966416428833
 31
0.0
  0
LINE
  5
1A1C3
330
1A1B9
100
AcDbEntity
  8
0
100
AcDbLine
 10
7.380001379684927
 20
-0.0000033583578443
 30
0.0
 11
7.73000137968529
 21
-0.0000033583578443
 31
0.0
  0
LINE
  5
1A1C4
330
1A1B9
100
AcDbEntity
  8
0
100
AcDbLine
 10
7.73000137968529
 20
1.949996641642883
 30
0.0
 11
6.780001379684563
 21
1.949996641642883
 31
0.0
  0
LINE
  5
1A1C5
330
1A1B9
100
AcDbEntity
  8
0
100
AcDbLine
 10
7.36000137968449
 20
4.204996641642082
 30
0.0
 11
7.73000137968529
 21
4.204996641642082
 31
0.0
  0
LINE
  5
1A1C6
330
1A1B9
100
AcDbEntity
  8
0
100
AcDbLine
 10
7.73000137968529
 20
5.604996641642628
 30
0.0
 11
7.36000137968449
 21
5.604996641642628
 31
0.0
  0
LINE
  5
1A1C7
330
1A1B9
100
AcDbEntity
  8
0
100
AcDbLine
 10
7.36000137968449
 20
5.304996641642446
 30
0.0
 11
7.73000137968529
 21
5.304996641642446
 31
0.0
  0
LINE
  5
1A1C8
330
1A1B9
100
AcDbEntity
  8
0
100
AcDbLine
 10
7.36000137968449
 20
4.504996641642264
 30
0.0
 11
7.73000137968529
 21
4.504996641642264
 31
0.0
  0
LINE
  5
1A1C9
330
1A1B9
100
AcDbEntity
  8
0
100
AcDbLine
 10
7.73000137968529
 20
25.39499664164259
 30
0.0
 11
7.36000137968449
 21
25.39499664164259
 31
0.0
  0
LINE
  5
1A1CA
330
1A1B9
100
AcDbEntity
  8
0
100
AcDbLine
 10
7.36000137968449
 20
25.09499664164241
 30
0.0
 11
7.73000137968529
 21
25.09499664164241
 31
0.0
  0
LINE
  5
1A1CB
330
1A1B9
100
AcDbEntity
  8
0
100
AcDbLine
 10
6.780001379684563
 20
27.64999664164179
 30
0.0
 11
7.73000137968529
 21
27.64999664164179
 31
0.0
  0
ARC
  5
1A1CC
330
1A1B9
100
AcDbEntity
  8
0
100
AcDbCircle
 10
7.330001379684745
 20
28.79999664164234
 30
0.0
 40
0.4
100
AcDbArc
 50
270.0
 51
0.0
  0
LINE
  5
1A1CD
330
1A1B9
100
AcDbEntity
  8
0
100
AcDbLine
 10
7.73000137968529
 20
29.39999664164179
 30
0.0
 11
7.380001379684927
 21
29.39999664164179
 31
0.0
  0
LINE
  5
1A1CE
330
1A1B9
100
AcDbEntity
  8
0
100
AcDbLine
 10
7.250001379684817
 20
28.34999664164252
 30
0.0
 11
7.73000137968529
 21
28.34999664164252
 31
0.0
  0
ARC
  5
1A1CF
330
1A1B9
100
AcDbEntity
  8
0
100
AcDbCircle
 10
7.330001379684745
 20
20.5899966416423
 30
0.0
 40
0.4
100
AcDbArc
 50
0.0
 51
90.0
  0
LINE
  5
1A1D0
330
1A1B9
100
AcDbEntity
  8
0
100
AcDbLine
 10
7.250001379684817
 20
21.03999664164212
 30
0.0
 11
7.73000137968529
 21
21.03999664164212
 31
0.0
  0
LINE
  5
1A1D1
330
1A1B9
100
AcDbEntity
  8
0
100
AcDbLine
 10
7.380001379684927
 20
19.98999664164193
 30
0.0
 11
7.73000137968529
 21
19.98999664164193
 31
0.0
  0
LINE
  5
1A1D2
330
1A1B9
100
AcDbEntity
  8
0
100
AcDbLine
 10
7.380001379684927
 20
19.78999664164211
 30
0.0
 11
7.73000137968529
 21
19.78999664164211
 31
0.0
  0
LINE
  5
1A1D3
330
1A1B9
100
AcDbEntity
  8
0
100
AcDbLine
 10
7.73000137968529
 20
21.73999664164193
 30
0.0
 11
6.780001379684563
 21
21.73999664164193
 31
0.0
  0
LINE
  5
1A1D4
330
1A1B9
100
AcDbEntity
  8
0
100
AcDbLine
 10
7.36000137968449
 20
24.29499664164223
 30
0.0
 11
7.73000137968529
 21
24.29499664164223
 31
0.0
  0
LINE
  5
1A1D5
330
1A1B9
100
AcDbEntity
  8
0
100
AcDbLine
 10
7.36000137968449
 20
23.99499664164204
 30
0.0
 11
7.73000137968529
 21
23.99499664164204
 31
0.0
  0
LINE
  5
1A1D6
330
1A1B9
100
AcDbEntity
  8
0
100
AcDbLine
 10
7.73000137968529
 20
1.249996641642155
 30
0.0
 11
7.73000137968529
 21
8.559996641642555
 31
0.0
  0
LINE
  5
1A1D7
330
1A1B9
100
AcDbEntity
  8
0
100
AcDbLine
 10
7.73000137968529
 20
21.03999664164212
 30
0.0
 11
7.73000137968529
 21
28.34999664164252
 31
0.0
  0
LINE
  5
1A1D8
330
1A1B9
100
AcDbEntity
  8
0
100
AcDbLine
 10
7.73000137968529
 20
28.79999664164234
 30
0.0
 11
7.73000137968529
 21
29.59999664164252
 31
0.0
  0
LINE
  5
1A1D9
330
1A1B9
100
AcDbEntity
  8
0
100
AcDbLine
 10
7.73000137968529
 20
9.009996641642374
 30
0.0
 11
7.73000137968529
 21
9.809996641642555
 31
0.0
  0
LINE
  5
1A1DA
330
1A1B9
100
AcDbEntity
  8
0
100
AcDbLine
 10
7.73000137968529
 20
19.78999664164211
 30
0.0
 11
7.73000137968529
 21
20.5899966416423
 31
0.0
  0
LINE
  5
1A1DB
330
1A1B9
100
AcDbEntity
  8
0
100
AcDbLine
 10
7.73000137968529
 20
-0.0000033583578443
 30
0.0
 11
7.73000137968529
 21
0.7999966416423377
 31
0.0
  0
LINE
  5
1A1DC
330
1A1B9
100
AcDbEntity
  8
0
100
AcDbLine
 10
4.166515116909522
 20
8.2416630610428
 30
0.0
 11
4.680001379685108
 21
8.609996641642737
 31
0.0
  0
LINE
  5
1A1DD
330
1A1B9
100
AcDbEntity
  8
0
100
AcDbLine
 10
0.680001379685109
 20
8.509996641642374
 30
0.0
 11
0.680001379685109
 21
7.994996641642046
 31
0.0
  0
LINE
  5
1A1DE
330
1A1B9
100
AcDbEntity
  8
0
100
AcDbLine
 10
1.030001379684563
 20
6.65499664164281
 30
0.0
 11
1.030001379684563
 21
8.509996641642374
 31
0.0
  0
LINE
  5
1A1DF
330
1A1B9
100
AcDbEntity
  8
0
100
AcDbLine
 10
3.193487642459786
 20
8.2416630610428
 30
0.0
 11
2.701770289134856
 21
8.594381383842573
 31
0.0
  0
ARC
  5
1A1E0
330
1A1B9
100
AcDbEntity
  8
0
100
AcDbCircle
 10
1.680001379685108
 20
8.059996641642555
 30
0.0
 40
0.5
100
AcDbArc
 50
90.0
 51
180.0
  0
LINE
  5
1A1E1
330
1A1B9
100
AcDbEntity
  8
0
100
AcDbLine
 10
5.23000137968529
 20
8.554996641642446
 30
0.0
 11
6.23000137968529
 21
7.554996641642446
 31
0.0
  0
LINE
  5
1A1E2
330
1A1B9
100
AcDbEntity
  8
0
100
AcDbLine
 10
6.680001379685108
 20
7.204996641642082
 30
0.0
 11
6.680001379685108
 21
8.509996641642374
 31
0.0
  0
LINE
  5
1A1E3
330
1A1B9
100
AcDbEntity
  8
0
100
AcDbLine
 10
7.250001379684817
 20
7.859996641642737
 30
0.0
 11
7.250001379684817
 21
8.559996641642555
 31
0.0
  0
LINE
  5
1A1E4
330
1A1B9
100
AcDbEntity
  8
0
100
AcDbLine
 10
4.390001379685145
 20
23.90999664164201
 30
0.0
 11
4.390001379685145
 21
22.93999664164175
 31
0.0
  0
LINE
  5
1A1E5
330
1A1B9
100
AcDbEntity
  8
0
100
AcDbLine
 10
2.970001379685072
 20
23.90999664164201
 30
0.0
 11
2.970001379685072
 21
22.93999664164175
 31
0.0
  0
LINE
  5
1A1E6
330
1A1B9
100
AcDbEntity
  8
0
100
AcDbLine
 10
4.290001379684781
 20
27.09999664164252
 30
0.0
 11
4.290001379684781
 21
22.28999664164212
 31
0.0
  0
LINE
  5
1A1E7
330
1A1B9
100
AcDbEntity
  8
0
100
AcDbLine
 10
0.3000013796849998
 20
23.24499664164204
 30
0.0
 11
0.3000013796849998
 21
26.14499664164259
 31
0.0
  0
LINE
  5
1A1E8
330
1A1B9
100
AcDbEntity
  8
0
100
AcDbLine
 10
0.3409535863352175
 20
23.24499664164204
 30
0.0
 11
0.3409535863352175
 21
26.14499664164259
 31
0.0
  0
LINE
  5
1A1E9
330
1A1B9
100
AcDbEntity
  8
0
100
AcDbLine
 10
1.23000137968529
 20
22.94499664164186
 30
0.0
 11
1.23000137968529
 21
26.44499664164186
 31
0.0
  0
LINE
  5
1A1EA
330
1A1B9
100
AcDbEntity
  8
0
100
AcDbLine
 10
1.48000137968529
 20
28.04999664164233
 30
0.0
 11
1.48000137968529
 21
21.3399966416423
 31
0.0
  0
LINE
  5
1A1EB
330
1A1B9
100
AcDbEntity
  8
0
100
AcDbLine
 10
3.070001379684526
 20
27.09999664164252
 30
0.0
 11
3.070001379684526
 21
22.28999664164212
 31
0.0
  0
LINE
  5
1A1EC
330
1A1B9
100
AcDbEntity
  8
0
100
AcDbLine
 10
6.330001379684745
 20
22.04499664164222
 30
0.0
 11
6.330001379684745
 21
27.34499664164241
 31
0.0
  0
LINE
  5
1A1ED
330
1A1B9
100
AcDbEntity
  8
0
100
AcDbLine
 10
7.02522767595974
 20
26.99499664164204
 30
0.0
 11
7.02522767595974
 21
22.39499664164259
 31
0.0
  0
LINE
  5
1A1EE
330
1A1B9
100
AcDbEntity
  8
0
100
AcDbLine
 10
7.36000137968449
 20
26.69499664164186
 30
0.0
 11
7.36000137968449
 21
22.69499664164186
 31
0.0
  0
LINE
  5
1A1EF
330
1A1B9
100
AcDbEntity
  8
0
100
AcDbLine
 10
4.73000137968529
 20
29.42999664164244
 30
0.0
 11
1.830001379684745
 21
29.42999664164244
 31
0.0
  0
LINE
  5
1A1F0
330
1A1B9
100
AcDbEntity
  8
0
100
AcDbLine
 10
4.166515116909522
 20
28.03166306104185
 30
0.0
 11
3.193487642459786
 21
28.03166306104185
 31
0.0
  0
LINE
  5
1A1F1
330
1A1B9
100
AcDbEntity
  8
0
100
AcDbLine
 10
4.161873148035283
 20
28.0299966416419
 30
0.0
 11
3.198129611334934
 21
28.0299966416419
 31
0.0
  0
LINE
  5
1A1F2
330
1A1B9
100
AcDbEntity
  8
0
100
AcDbLine
 10
2.970001379685072
 20
27.29999664164234
 30
0.0
 11
4.390001379685145
 21
27.29999664164234
 31
0.0
  0
LINE
  5
1A1F3
330
1A1B9
100
AcDbEntity
  8
0
100
AcDbLine
 10
3.070001379684526
 20
27.09999664164252
 30
0.0
 11
4.290001379684781
 21
27.09999664164252
 31
0.0
  0
LINE
  5
1A1F4
330
1A1B9
100
AcDbEntity
  8
0
100
AcDbLine
 10
4.390001379685145
 20
26.44999664164197
 30
0.0
 11
4.390001379685145
 21
25.47999664164263
 31
0.0
  0
LINE
  5
1A1F5
330
1A1B9
100
AcDbEntity
  8
0
100
AcDbLine
 10
4.341589232209571
 20
25.47999664164263
 30
0.0
 11
4.73995266276006
 21
25.47999664164263
 31
0.0
  0
LINE
  5
1A1F6
330
1A1B9
100
AcDbEntity
  8
0
100
AcDbLine
 10
4.341589232209571
 20
25.17999664164245
 30
0.0
 11
4.341589232209571
 21
25.47999664164263
 31
0.0
  0
LINE
  5
1A1F7
330
1A1B9
100
AcDbEntity
  8
0
100
AcDbLine
 10
4.488572808259505
 20
25.17999664164245
 30
0.0
 11
4.488572808259505
 21
25.47999664164263
 31
0.0
  0
LINE
  5
1A1F8
330
1A1B9
100
AcDbEntity
  8
0
100
AcDbLine
 10
4.341589232209571
 20
25.17999664164245
 30
0.0
 11
4.73995266276006
 21
25.17999664164245
 31
0.0
  0
LINE
  5
1A1F9
330
1A1B9
100
AcDbEntity
  8
0
100
AcDbLine
 10
4.740001379684599
 20
25.17999664164245
 30
0.0
 11
4.740001379684599
 21
25.47999664164263
 31
0.0
  0
LINE
  5
1A1FA
330
1A1B9
100
AcDbEntity
  8
0
100
AcDbLine
 10
4.390001379685145
 20
27.29999664164234
 30
0.0
 11
4.390001379685145
 21
26.74999664164215
 31
0.0
  0
LINE
  5
1A1FB
330
1A1B9
100
AcDbEntity
  8
0
100
AcDbLine
 10
4.341589232209571
 20
26.74999664164215
 30
0.0
 11
4.73995266276006
 21
26.74999664164215
 31
0.0
  0
LINE
  5
1A1FC
330
1A1B9
100
AcDbEntity
  8
0
100
AcDbLine
 10
4.341589232209571
 20
26.44999664164197
 30
0.0
 11
4.73995266276006
 21
26.44999664164197
 31
0.0
  0
LINE
  5
1A1FD
330
1A1B9
100
AcDbEntity
  8
0
100
AcDbLine
 10
4.341589232209571
 20
26.44999664164197
 30
0.0
 11
4.341589232209571
 21
26.74999664164215
 31
0.0
  0
LINE
  5
1A1FE
330
1A1B9
100
AcDbEntity
  8
0
100
AcDbLine
 10
4.488572808259505
 20
26.44999664164197
 30
0.0
 11
4.488572808259505
 21
26.74999664164215
 31
0.0
  0
LINE
  5
1A1FF
330
1A1B9
100
AcDbEntity
  8
0
100
AcDbLine
 10
4.740001379684599
 20
26.44999664164197
 30
0.0
 11
4.740001379684599
 21
26.74999664164215
 31
0.0
  0
LINE
  5
1A200
330
1A1B9
100
AcDbEntity
  8
0
100
AcDbLine
 10
4.390001379685145
 20
27.29999664164234
 30
0.0
 11
4.290001379684781
 21
27.09999664164252
 31
0.0
  0
LINE
  5
1A201
330
1A1B9
100
AcDbEntity
  8
0
100
AcDbLine
 10
4.161819134534653
 20
28.0300507838424
 30
0.0
 11
4.166515116909522
 21
28.03166306104185
 31
0.0
  0
LINE
  5
1A202
330
1A1B9
100
AcDbEntity
  8
0
100
AcDbLine
 10
4.166515116909522
 20
28.03166306104185
 30
0.0
 11
4.680001379685108
 21
28.39999664164179
 31
0.0
  0
ARC
  5
1A203
330
1A1B9
100
AcDbEntity
  8
0
100
AcDbCircle
 10
0.3000013796849998
 20
27.48499664164274
 30
0.0
 40
0.3
100
AcDbArc
 50
90.0
 51
180.0
  0
LINE
  5
1A204
330
1A1B9
100
AcDbEntity
  8
0
100
AcDbLine
 10
0.680001379685109
 20
28.29999664164233
 30
0.0
 11
0.680001379685109
 21
27.78499664164201
 31
0.0
  0
LINE
  5
1A205
330
1A1B9
100
AcDbEntity
  8
0
100
AcDbLine
 10
1.030001379684563
 20
26.44499664164186
 30
0.0
 11
1.030001379684563
 21
28.29999664164233
 31
0.0
  0
LINE
  5
1A206
330
1A1B9
100
AcDbEntity
  8
0
100
AcDbLine
 10
1.180001379685108
 20
27.84999664164252
 30
0.0
 11
1.180001379685108
 21
26.44499664164186
 31
0.0
  0
SPLINE
  5
1A207
330
1A1B9
100
AcDbEntity
  8
0
100
AcDbSpline
210
0.0
220
0.0
230
1.0
 70
     8
 71
     3
 72
    15
 73
    11
 74
     9
 42
0.0000000001
 43
0.0000000001
 44
0.0000000001
 12
-1.0
 22
0.0000000000000003
 32
0.0
 13
-0.0000000000000003
 23
-1.0
 33
0.0
 40
0.0
 40
0.0
 40
0.0
 40
0.0
 40
0.0549104034383483
 40
0.1112943695380107
 40
0.1688458398557608
 40
0.2272617165085018
 40
0.2861891301455971
 40
0.3453715916121558
 40
0.4047062933587064
 40
0.4640323935828287
 40
0.4640323935828287
 40
0.4640323935828287
 40
0.4640323935828287
 10
0.6335375942103383
 20
26.44499664164186
 30
0.0
 10
0.6152341263975555
 20
26.44499664164186
 30
0.0
 10
0.5780376369881808
 20
26.44125323776591
 30
0.0
 10
0.5239010772917283
 20
26.42463025459774
 30
0.0
 10
0.4730043104716762
 20
26.39718646788169
 30
0.0
 10
0.4277546370649393
 20
26.35984219381551
 30
0.0
 10
0.3902612208789354
 20
26.3140092466633
 30
0.0
 10
0.3622024247632241
 20
26.26150620282421
 30
0.0
 10
0.3448735061397613
 20
26.20443393884813
 30
0.0
 10
0.3409535863352175
 20
26.16477200838396
 30
0.0
 10
0.3409535863352175
 20
26.14499664164259
 30
0.0
 11
0.6335375942103383
 21
26.44499664164186
 31
0.0
 11
0.5788983036850368
 21
26.4395468401176
 31
0.0
 11
0.5249818861097993
 21
26.4230492175925
 31
0.0
 11
0.474304435985232
 21
26.39577344474173
 31
0.0
 11
0.429234255935171
 21
26.35861037819222
 31
0.0
 11
0.391910911035211
 21
26.31300985184179
 31
0.0
 11
0.3640200186596303
 21
26.26081155811744
 31
0.0
 11
0.3467835206852214
 21
26.20403559516716
 31
0.0
 11
0.3409535863352175
 21
26.14499664164259
 31
0.0
  0
SPLINE
  5
1A208
330
1A1B9
100
AcDbEntity
  8
0
100
AcDbSpline
210
0.0
220
0.0
230
1.0
 70
     8
 71
     3
 72
    15
 73
    11
 74
     9
 42
0.0000000001
 43
0.0000000001
 44
0.0000000001
 12
0.0000000000000003
 22
1.0
 32
0.0
 13
1.0
 23
-0.0000000000000003
 33
0.0
 40
0.0
 40
0.0
 40
0.0
 40
0.0
 40
0.0601976440144101
 40
0.1203434046987003
 40
0.1802921062117081
 40
0.2397999660839145
 40
0.2983669952289781
 40
0.3552634378523416
 40
0.409714363644495
 40
0.4611969379708673
 40
0.4611969379708673
 40
0.4611969379708673
 40
0.4611969379708673
 10
0.3000013796849998
 20
26.14499664164259
 30
0.0
 10
0.3000013796849998
 20
26.16506252298073
 30
0.0
 10
0.3040322359781408
 20
26.20529065598226
 30
0.0
 10
0.3218421192807477
 20
26.26308352409739
 30
0.0
 10
0.3505584473514864
 20
26.31606209040948
 30
0.0
 10
0.3887041939523532
 20
26.36201269892053
 30
0.0
 10
0.4342489482939742
 20
26.39903800023683
 30
0.0
 10
0.4846131778883207
 20
26.42573755708336
 30
0.0
 10
0.5368957597006454
 20
26.44149507385642
 30
0.0
 10
0.5722928914012942
 20
26.44499664164186
 30
0.0
 10
0.5894537495100849
 20
26.44499664164186
 30
0.0
 11
0.3000013796849998
 21
26.14499664164259
 31
0.0
 11
0.3059999391348356
 21
26.20489466856679
 31
0.0
 11
0.3237022014350259
 21
26.26237633901701
 31
0.0
 11
0.3522651082598713
 21
26.315083142817
 31
0.0
 11
0.3902861203600878
 21
26.36086073586693
 31
0.0
 11
0.4357565575351146
 21
26.3977732844919
 31
0.0
 11
0.4860555045602269
 21
26.42436691364173
 31
0.0
 11
0.5382143252850256
 21
26.43999895574188
 31
0.0
 11
0.5894537495100849
 21
26.44499664164186
 31
0.0
  0
LINE
  5
1A209
330
1A1B9
100
AcDbEntity
  8
0
100
AcDbLine
 10
0.3000013796849998
 20
27.78499664164201
 30
0.0
 11
1.030001379684563
 21
27.78499664164201
 31
0.0
  0
LINE
  5
1A20A
330
1A1B9
100
AcDbEntity
  8
0
100
AcDbLine
 10
0.3000013796849998
 20
26.79499664164223
 30
0.0
 11
1.030001379684563
 21
26.79499664164223
 31
0.0
  0
LINE
  5
1A20B
330
1A1B9
100
AcDbEntity
  8
0
100
AcDbLine
 10
2.970001379685072
 20
26.44999664164197
 30
0.0
 11
2.970001379685072
 21
25.47999664164263
 31
0.0
  0
LINE
  5
1A20C
330
1A1B9
100
AcDbEntity
  8
0
100
AcDbLine
 10
2.620001379684708
 20
25.17999664164245
 30
0.0
 11
2.620001379684708
 21
25.47999664164263
 31
0.0
  0
LINE
  5
1A20D
330
1A1B9
100
AcDbEntity
  8
0
100
AcDbLine
 10
2.871429951109803
 20
25.17999664164245
 30
0.0
 11
2.871429951109803
 21
25.47999664164263
 31
0.0
  0
LINE
  5
1A20E
330
1A1B9
100
AcDbEntity
  8
0
100
AcDbLine
 10
3.018413527159736
 20
25.17999664164245
 30
0.0
 11
3.018413527159736
 21
25.47999664164263
 31
0.0
  0
LINE
  5
1A20F
330
1A1B9
100
AcDbEntity
  8
0
100
AcDbLine
 10
2.620050096610157
 20
25.47999664164263
 30
0.0
 11
3.018413527159736
 21
25.47999664164263
 31
0.0
  0
LINE
  5
1A210
330
1A1B9
100
AcDbEntity
  8
0
100
AcDbLine
 10
2.620050096610157
 20
25.17999664164245
 30
0.0
 11
3.018413527159736
 21
25.17999664164245
 31
0.0
  0
LINE
  5
1A211
330
1A1B9
100
AcDbEntity
  8
0
100
AcDbLine
 10
2.970001379685072
 20
27.29999664164234
 30
0.0
 11
2.970001379685072
 21
26.74999664164215
 31
0.0
  0
LINE
  5
1A212
330
1A1B9
100
AcDbEntity
  8
0
100
AcDbLine
 10
2.620001379684708
 20
26.44999664164197
 30
0.0
 11
2.620001379684708
 21
26.74999664164215
 31
0.0
  0
LINE
  5
1A213
330
1A1B9
100
AcDbEntity
  8
0
100
AcDbLine
 10
2.620050096610157
 20
26.74999664164215
 30
0.0
 11
3.018413527159736
 21
26.74999664164215
 31
0.0
  0
LINE
  5
1A214
330
1A1B9
100
AcDbEntity
  8
0
100
AcDbLine
 10
2.871429951109803
 20
26.44999664164197
 30
0.0
 11
2.871429951109803
 21
26.74999664164215
 31
0.0
  0
LINE
  5
1A215
330
1A1B9
100
AcDbEntity
  8
0
100
AcDbLine
 10
3.018413527159736
 20
26.44999664164197
 30
0.0
 11
3.018413527159736
 21
26.74999664164215
 31
0.0
  0
LINE
  5
1A216
330
1A1B9
100
AcDbEntity
  8
0
100
AcDbLine
 10
2.620050096610157
 20
26.44999664164197
 30
0.0
 11
3.018413527159736
 21
26.44999664164197
 31
0.0
  0
LINE
  5
1A217
330
1A1B9
100
AcDbEntity
  8
0
100
AcDbLine
 10
3.070001379684526
 20
27.09999664164252
 30
0.0
 11
2.970001379685072
 21
27.29999664164234
 31
0.0
  0
LINE
  5
1A218
330
1A1B9
100
AcDbEntity
  8
0
100
AcDbLine
 10
0.680001379685109
 20
26.79499664164223
 30
0.0
 11
0.680001379685109
 21
26.44499664164186
 31
0.0
  0
LINE
  5
1A219
330
1A1B9
100
AcDbEntity
  8
0
100
AcDbLine
 10
0.6335375942094288
 20
26.44499664164186
 30
0.0
 11
1.229926632410297
 21
26.44499664164186
 31
0.0
  0
ARC
  5
1A21A
330
1A1B9
100
AcDbEntity
  8
0
100
AcDbCircle
 10
0.3000013796849998
 20
27.09499664164241
 30
0.0
 40
0.3
100
AcDbArc
 50
180.0
 51
270.0
  0
LINE
  5
1A21B
330
1A1B9
100
AcDbEntity
  8
0
100
AcDbLine
 10
0.3000013796849998
 20
26.14499664164259
 30
0.0
 11
0.3409535863352175
 21
26.14499664164259
 31
0.0
  0
LINE
  5
1A21C
330
1A1B9
100
AcDbEntity
  8
0
100
AcDbLine
 10
0.0000013796848179
 20
27.09499664164241
 30
0.0
 11
0.0000013796848179
 21
27.48499664164183
 31
0.0
  0
LINE
  5
1A21D
330
1A1B9
100
AcDbEntity
  8
0
100
AcDbLine
 10
0.3347750834095677
 20
26.79499664164223
 30
0.0
 11
0.3347750834095677
 21
27.78499664164201
 31
0.0
  0
LINE
  5
1A21E
330
1A1B9
100
AcDbEntity
  8
0
100
AcDbLine
 10
1.680001379685108
 20
28.34999664164252
 30
0.0
 11
2.749705350459862
 21
28.34999664164252
 31
0.0
  0
LINE
  5
1A21F
330
1A1B9
100
AcDbEntity
  8
0
100
AcDbLine
 10
1.48000137968529
 20
28.04999664164233
 30
0.0
 11
3.167929175110202
 21
28.04999664164233
 31
0.0
  0
ELLIPSE
  5
1A220
330
1A1B9
100
AcDbEntity
  8
0
100
AcDbEllipse
 10
2.452921693959524
 20
28.38272571269181
 30
0.0
 11
-0.25
 21
0.0000000000000001
 31
0.0
210
0.0
220
0.0
230
1.0
 40
0.0690837158
 41
-3.045580582599999
 42
-1.570805125099999
  0
LINE
  5
1A221
330
1A1B9
100
AcDbEntity
  8
0
100
AcDbLine
 10
3.198183624834655
 20
28.0300507838424
 30
0.0
 11
3.193487642459786
 21
28.03166306104185
 31
0.0
  0
LINE
  5
1A222
330
1A1B9
100
AcDbEntity
  8
0
100
AcDbLine
 10
2.600001379685181
 20
28.34999664164252
 30
0.0
 11
2.600001379685181
 21
28.39657378294259
 31
0.0
  0
LINE
  5
1A223
330
1A1B9
100
AcDbEntity
  8
0
100
AcDbLine
 10
3.193487642459786
 20
28.03166306104185
 30
0.0
 11
2.701770289134856
 21
28.38438138384253
 31
0.0
  0
ARC
  5
1A224
330
1A1B9
100
AcDbEntity
  8
0
100
AcDbCircle
 10
1.130001379684927
 20
28.29999664164233
 30
0.0
 40
0.45
100
AcDbArc
 50
90.0
 51
180.0
  0
LINE
  5
1A225
330
1A1B9
100
AcDbEntity
  8
0
100
AcDbLine
 10
1.530001379684563
 20
28.39999664164179
 30
0.0
 11
1.530001379684563
 21
29.12999664164226
 31
0.0
  0
ARC
  5
1A226
330
1A1B9
100
AcDbEntity
  8
0
100
AcDbCircle
 10
1.130001379684927
 20
28.29999664164233
 30
0.0
 40
0.1
100
AcDbArc
 50
90.0
 51
180.0
  0
ARC
  5
1A227
330
1A1B9
100
AcDbEntity
  8
0
100
AcDbCircle
 10
1.680001379685108
 20
27.84999664164252
 30
0.0
 40
0.5
100
AcDbArc
 50
90.0
 51
180.0
  0
LINE
  5
1A228
330
1A1B9
100
AcDbEntity
  8
0
100
AcDbLine
 10
1.530001379684563
 20
28.74999664164215
 30
0.0
 11
1.130001379684927
 21
28.74999664164215
 31
0.0
  0
LINE
  5
1A229
330
1A1B9
100
AcDbEntity
  8
0
100
AcDbLine
 10
1.48000137968529
 20
28.04999664164233
 30
0.0
 11
1.326447989084499
 21
28.20355003224221
 31
0.0
  0
ARC
  5
1A22A
330
1A1B9
100
AcDbEntity
  8
0
100
AcDbCircle
 10
1.830001379684745
 20
29.12999664164226
 30
0.0
 40
0.3
100
AcDbArc
 50
90.0
 51
180.0
  0
LINE
  5
1A22B
330
1A1B9
100
AcDbEntity
  8
0
100
AcDbLine
 10
4.341589232209571
 20
23.90999664164201
 30
0.0
 11
4.341589232209571
 21
24.20999664164219
 31
0.0
  0
LINE
  5
1A22C
330
1A1B9
100
AcDbEntity
  8
0
100
AcDbLine
 10
4.488572808259505
 20
23.90999664164201
 30
0.0
 11
4.488572808259505
 21
24.20999664164219
 31
0.0
  0
LINE
  5
1A22D
330
1A1B9
100
AcDbEntity
  8
0
100
AcDbLine
 10
4.740001379684599
 20
23.90999664164201
 30
0.0
 11
4.740001379684599
 21
24.20999664164219
 31
0.0
  0
LINE
  5
1A22E
330
1A1B9
100
AcDbEntity
  8
0
100
AcDbLine
 10
4.341589232209571
 20
24.20999664164219
 30
0.0
 11
4.73995266276006
 21
24.20999664164219
 31
0.0
  0
LINE
  5
1A22F
330
1A1B9
100
AcDbEntity
  8
0
100
AcDbLine
 10
4.341589232209571
 20
23.90999664164201
 30
0.0
 11
4.73995266276006
 21
23.90999664164201
 31
0.0
  0
LINE
  5
1A230
330
1A1B9
100
AcDbEntity
  8
0
100
AcDbLine
 10
2.620001379684708
 20
23.90999664164201
 30
0.0
 11
2.620001379684708
 21
24.20999664164219
 31
0.0
  0
LINE
  5
1A231
330
1A1B9
100
AcDbEntity
  8
0
100
AcDbLine
 10
2.871429951109803
 20
23.90999664164201
 30
0.0
 11
2.871429951109803
 21
24.20999664164219
 31
0.0
  0
LINE
  5
1A232
330
1A1B9
100
AcDbEntity
  8
0
100
AcDbLine
 10
3.018413527159736
 20
23.90999664164201
 30
0.0
 11
3.018413527159736
 21
24.20999664164219
 31
0.0
  0
LINE
  5
1A233
330
1A1B9
100
AcDbEntity
  8
0
100
AcDbLine
 10
2.620050096610157
 20
24.20999664164219
 30
0.0
 11
3.018413527159736
 21
24.20999664164219
 31
0.0
  0
LINE
  5
1A234
330
1A1B9
100
AcDbEntity
  8
0
100
AcDbLine
 10
2.620050096610157
 20
23.90999664164201
 30
0.0
 11
3.018413527159736
 21
23.90999664164201
 31
0.0
  0
LINE
  5
1A235
330
1A1B9
100
AcDbEntity
  8
0
100
AcDbLine
 10
4.390001379685145
 20
25.17999664164245
 30
0.0
 11
4.390001379685145
 21
24.20999664164219
 31
0.0
  0
LINE
  5
1A236
330
1A1B9
100
AcDbEntity
  8
0
100
AcDbLine
 10
2.970001379685072
 20
25.17999664164245
 30
0.0
 11
2.970001379685072
 21
24.20999664164219
 31
0.0
  0
LINE
  5
1A237
330
1A1B9
100
AcDbEntity
  8
0
100
AcDbLine
 10
5.23000137968529
 20
28.34499664164241
 30
0.0
 11
6.23000137968529
 21
27.34499664164241
 31
0.0
  0
LINE
  5
1A238
330
1A1B9
100
AcDbEntity
  8
0
100
AcDbLine
 10
6.680001379685108
 20
26.99499664164204
 30
0.0
 11
6.680001379685108
 21
28.29999664164233
 31
0.0
  0
LINE
  5
1A239
330
1A1B9
100
AcDbEntity
  8
0
100
AcDbLine
 10
7.250001379684817
 20
27.64999664164179
 30
0.0
 11
7.250001379684817
 21
28.34999664164252
 31
0.0
  0
LINE
  5
1A23A
330
1A1B9
100
AcDbEntity
  8
0
100
AcDbLine
 10
6.23000137968529
 20
27.34499664164241
 30
0.0
 11
6.680001379685108
 21
27.34499664164241
 31
0.0
  0
ARC
  5
1A23B
330
1A1B9
100
AcDbEntity
  8
0
100
AcDbCircle
 10
7.060001379685218
 20
26.69499664164277
 30
0.0
 40
0.3
100
AcDbArc
 50
0.0
 51
90.0
  0
LINE
  5
1A23C
330
1A1B9
100
AcDbEntity
  8
0
100
AcDbLine
 10
6.330001379684745
 20
26.99499664164204
 30
0.0
 11
7.060001379685218
 21
26.99499664164204
 31
0.0
  0
LINE
  5
1A23D
330
1A1B9
100
AcDbEntity
  8
0
100
AcDbLine
 10
6.780001379684563
 20
26.99499664164204
 30
0.0
 11
6.780001379684563
 21
27.64999664164179
 31
0.0
  0
LINE
  5
1A23E
330
1A1B9
100
AcDbEntity
  8
0
100
AcDbLine
 10
7.080001379684745
 20
26.99499664164204
 30
0.0
 11
7.080001379684745
 21
27.64999664164179
 31
0.0
  0
ARC
  5
1A23F
330
1A1B9
100
AcDbEntity
  8
0
100
AcDbCircle
 10
6.230001379684381
 20
28.29999664164233
 30
0.0
 40
0.1
100
AcDbArc
 50
0.0
 51
90.0
  0
ARC
  5
1A240
330
1A1B9
100
AcDbEntity
  8
0
100
AcDbCircle
 10
5.930001379685108
 20
28.75999664164237
 30
0.0
 40
0.3
100
AcDbArc
 50
0.0
 51
90.0
  0
ARC
  5
1A241
330
1A1B9
100
AcDbEntity
  8
0
100
AcDbCircle
 10
6.230001379684381
 20
28.29999664164233
 30
0.0
 40
0.45
100
AcDbArc
 50
0.0
 51
90.0
  0
LINE
  5
1A242
330
1A1B9
100
AcDbEntity
  8
0
100
AcDbLine
 10
7.330001379684745
 20
28.74999664164215
 30
0.0
 11
6.23000137968529
 21
28.74999664164215
 31
0.0
  0
LINE
  5
1A243
330
1A1B9
100
AcDbEntity
  8
0
100
AcDbLine
 10
6.23000137968529
 20
28.34999664164252
 30
0.0
 11
6.3145504905101
 21
28.34999664164252
 31
0.0
  0
LINE
  5
1A244
330
1A1B9
100
AcDbEntity
  8
0
100
AcDbLine
 10
6.680001379685108
 20
28.29999664164233
 30
0.0
 11
6.23000137968529
 21
28.29999664164233
 31
0.0
  0
LINE
  5
1A245
330
1A1B9
100
AcDbEntity
  8
0
100
AcDbLine
 10
7.380001379684927
 20
28.79999664164234
 30
0.0
 11
7.380001379684927
 21
29.59999664164252
 31
0.0
  0
ARC
  5
1A246
330
1A1B9
100
AcDbEntity
  8
0
100
AcDbCircle
 10
7.330001379684745
 20
28.79999664164234
 30
0.0
 40
0.05
100
AcDbArc
 50
270.0
 51
0.0
  0
LINE
  5
1A247
330
1A1B9
100
AcDbEntity
  8
0
100
AcDbLine
 10
6.666836129934836
 20
28.39999664164179
 30
0.0
 11
7.430001379685108
 21
28.39999664164179
 31
0.0
  0
LINE
  5
1A248
330
1A1B9
100
AcDbEntity
  8
0
100
AcDbLine
 10
6.673418754809517
 20
28.34999664164252
 30
0.0
 11
7.250001379684817
 21
28.34999664164252
 31
0.0
  0
LINE
  5
1A249
330
1A1B9
100
AcDbEntity
  8
0
100
AcDbLine
 10
6.680001379685108
 20
28.04999664164233
 30
0.0
 11
7.250001379684817
 21
28.04999664164233
 31
0.0
  0
LINE
  5
1A24A
330
1A1B9
100
AcDbEntity
  8
0
100
AcDbLine
 10
7.430001379685108
 20
28.41316189139206
 30
0.0
 11
7.430001379685108
 21
28.39999664164179
 31
0.0
  0
ARC
  5
1A24B
330
1A1B9
100
AcDbEntity
  8
0
100
AcDbCircle
 10
5.530001379684563
 20
28.75999664164237
 30
0.0
 40
0.3
100
AcDbArc
 50
90.0
 51
180.0
  0
LINE
  5
1A24C
330
1A1B9
100
AcDbEntity
  8
0
100
AcDbLine
 10
5.030001379684563
 20
28.39999664164179
 30
0.0
 11
5.030001379684563
 21
29.12999664164226
 31
0.0
  0
LINE
  5
1A24D
330
1A1B9
100
AcDbEntity
  8
0
100
AcDbLine
 10
5.23000137968529
 20
28.74999664164215
 30
0.0
 11
5.030001379684563
 21
28.74999664164215
 31
0.0
  0
LINE
  5
1A24E
330
1A1B9
100
AcDbEntity
  8
0
100
AcDbLine
 10
5.23000137968529
 20
28.75999664164237
 30
0.0
 11
5.23000137968529
 21
28.34499664164241
 31
0.0
  0
LINE
  5
1A24F
330
1A1B9
100
AcDbEntity
  8
0
100
AcDbLine
 10
6.23000137968529
 20
28.29999664164233
 30
0.0
 11
6.23000137968529
 21
28.75999664164237
 31
0.0
  0
LINE
  5
1A250
330
1A1B9
100
AcDbEntity
  8
0
100
AcDbLine
 10
5.930001379685108
 20
29.05999664164255
 30
0.0
 11
5.530001379684563
 21
29.05999664164255
 31
0.0
  0
LINE
  5
1A251
330
1A1B9
100
AcDbEntity
  8
0
100
AcDbLine
 10
5.030001379684563
 20
29.09522293791678
 30
0.0
 11
1.530001379684563
 21
29.09522293791678
 31
0.0
  0
LINE
  5
1A252
330
1A1B9
100
AcDbEntity
  8
0
100
AcDbLine
 10
5.23000137968529
 20
28.39999664164179
 30
0.0
 11
1.130001379684927
 21
28.39999664164179
 31
0.0
  0
ARC
  5
1A253
330
1A1B9
100
AcDbEntity
  8
0
100
AcDbCircle
 10
4.730001379684381
 20
29.12999664164226
 30
0.0
 40
0.3
100
AcDbArc
 50
0.0
 51
90.0
  0
LINE
  5
1A254
330
1A1B9
100
AcDbEntity
  8
0
100
AcDbLine
 10
4.610297408909445
 20
28.34999664164252
 30
0.0
 11
5.23000137968529
 21
28.34999664164252
 31
0.0
  0
LINE
  5
1A255
330
1A1B9
100
AcDbEntity
  8
0
100
AcDbLine
 10
4.192073584260015
 20
28.04999664164233
 30
0.0
 11
5.525001379684454
 21
28.04999664164233
 31
0.0
  0
LINE
  5
1A256
330
1A1B9
100
AcDbEntity
  8
0
100
AcDbLine
 10
4.73000137968529
 20
9.639996641642483
 30
0.0
 11
1.830001379684745
 21
9.639996641642483
 31
0.0
  0
LINE
  5
1A257
330
1A1B9
100
AcDbEntity
  8
0
100
AcDbLine
 10
1.680001379685108
 20
8.559996641642555
 30
0.0
 11
2.749705350459862
 21
8.559996641642555
 31
0.0
  0
ELLIPSE
  5
1A258
330
1A1B9
100
AcDbEntity
  8
0
100
AcDbEllipse
 10
2.452921693959524
 20
8.592725712692754
 30
0.0
 11
-0.25
 21
0.0000000000000001
 31
0.0
210
0.0
220
0.0
230
1.0
 40
0.0690837158
 41
-3.045580582599999
 42
-1.570805125099999
  0
LINE
  5
1A259
330
1A1B9
100
AcDbEntity
  8
0
100
AcDbLine
 10
2.600001379685181
 20
8.559996641642555
 30
0.0
 11
2.600001379685181
 21
8.606573782942632
 31
0.0
  0
ARC
  5
1A25A
330
1A1B9
100
AcDbEntity
  8
0
100
AcDbCircle
 10
1.130001379684927
 20
8.509996641642374
 30
0.0
 40
0.45
100
AcDbArc
 50
90.0
 51
180.0
  0
LINE
  5
1A25B
330
1A1B9
100
AcDbEntity
  8
0
100
AcDbLine
 10
1.530001379684563
 20
8.609996641642737
 30
0.0
 11
1.530001379684563
 21
9.339996641642301
 31
0.0
  0
ARC
  5
1A25C
330
1A1B9
100
AcDbEntity
  8
0
100
AcDbCircle
 10
1.130001379684927
 20
8.509996641642374
 30
0.0
 40
0.1
100
AcDbArc
 50
90.0
 51
180.0
  0
LINE
  5
1A25D
330
1A1B9
100
AcDbEntity
  8
0
100
AcDbLine
 10
1.530001379684563
 20
8.959996641642192
 30
0.0
 11
1.130001379684927
 21
8.959996641642192
 31
0.0
  0
ARC
  5
1A25E
330
1A1B9
100
AcDbEntity
  8
0
100
AcDbCircle
 10
1.830001379684745
 20
9.339996641642301
 30
0.0
 40
0.3
100
AcDbArc
 50
90.0
 51
180.0
  0
ARC
  5
1A25F
330
1A1B9
100
AcDbEntity
  8
0
100
AcDbCircle
 10
6.230001379684381
 20
8.509996641642374
 30
0.0
 40
0.1
100
AcDbArc
 50
0.0
 51
90.0
  0
ARC
  5
1A260
330
1A1B9
100
AcDbEntity
  8
0
100
AcDbCircle
 10
5.930001379685108
 20
8.96999664164241
 30
0.0
 40
0.3
100
AcDbArc
 50
0.0
 51
90.0
  0
ARC
  5
1A261
330
1A1B9
100
AcDbEntity
  8
0
100
AcDbCircle
 10
6.230001379684381
 20
8.509996641642374
 30
0.0
 40
0.45
100
AcDbArc
 50
0.0
 51
90.0
  0
LINE
  5
1A262
330
1A1B9
100
AcDbEntity
  8
0
100
AcDbLine
 10
7.330001379684745
 20
8.959996641642192
 30
0.0
 11
6.23000137968529
 21
8.959996641642192
 31
0.0
  0
LINE
  5
1A263
330
1A1B9
100
AcDbEntity
  8
0
100
AcDbLine
 10
6.23000137968529
 20
8.559996641642555
 30
0.0
 11
6.3145504905101
 21
8.559996641642555
 31
0.0
  0
LINE
  5
1A264
330
1A1B9
100
AcDbEntity
  8
0
100
AcDbLine
 10
6.680001379685108
 20
8.509996641642374
 30
0.0
 11
6.23000137968529
 21
8.509996641642374
 31
0.0
  0
LINE
  5
1A265
330
1A1B9
100
AcDbEntity
  8
0
100
AcDbLine
 10
7.380001379684927
 20
9.009996641642374
 30
0.0
 11
7.380001379684927
 21
9.809996641642555
 31
0.0
  0
ARC
  5
1A266
330
1A1B9
100
AcDbEntity
  8
0
100
AcDbCircle
 10
7.330001379684745
 20
9.009996641642374
 30
0.0
 40
0.05
100
AcDbArc
 50
270.0
 51
0.0
  0
LINE
  5
1A267
330
1A1B9
100
AcDbEntity
  8
0
100
AcDbLine
 10
6.666836129934836
 20
8.609996641642737
 30
0.0
 11
7.430001379685108
 21
8.609996641642737
 31
0.0
  0
LINE
  5
1A268
330
1A1B9
100
AcDbEntity
  8
0
100
AcDbLine
 10
6.673418754809517
 20
8.559996641642555
 30
0.0
 11
7.250001379684817
 21
8.559996641642555
 31
0.0
  0
LINE
  5
1A269
330
1A1B9
100
AcDbEntity
  8
0
100
AcDbLine
 10
7.430001379685108
 20
8.623161891392101
 30
0.0
 11
7.430001379685108
 21
8.609996641642737
 31
0.0
  0
ARC
  5
1A26A
330
1A1B9
100
AcDbEntity
  8
0
100
AcDbCircle
 10
5.530001379684563
 20
8.96999664164241
 30
0.0
 40
0.3
100
AcDbArc
 50
90.0
 51
180.0
  0
LINE
  5
1A26B
330
1A1B9
100
AcDbEntity
  8
0
100
AcDbLine
 10
5.030001379684563
 20
8.609996641642737
 30
0.0
 11
5.030001379684563
 21
9.339996641642301
 31
0.0
  0
LINE
  5
1A26C
330
1A1B9
100
AcDbEntity
  8
0
100
AcDbLine
 10
5.23000137968529
 20
8.959996641642192
 30
0.0
 11
5.030001379684563
 21
8.959996641642192
 31
0.0
  0
LINE
  5
1A26D
330
1A1B9
100
AcDbEntity
  8
0
100
AcDbLine
 10
5.23000137968529
 20
8.96999664164241
 30
0.0
 11
5.23000137968529
 21
8.554996641642446
 31
0.0
  0
LINE
  5
1A26E
330
1A1B9
100
AcDbEntity
  8
0
100
AcDbLine
 10
6.23000137968529
 20
8.509996641642374
 30
0.0
 11
6.23000137968529
 21
8.96999664164241
 31
0.0
  0
LINE
  5
1A26F
330
1A1B9
100
AcDbEntity
  8
0
100
AcDbLine
 10
5.930001379685108
 20
9.269996641642592
 30
0.0
 11
5.530001379684563
 21
9.269996641642592
 31
0.0
  0
LINE
  5
1A270
330
1A1B9
100
AcDbEntity
  8
0
100
AcDbLine
 10
5.030001379684563
 20
9.305222937917733
 30
0.0
 11
1.530001379684563
 21
9.305222937917733
 31
0.0
  0
LINE
  5
1A271
330
1A1B9
100
AcDbEntity
  8
0
100
AcDbLine
 10
5.23000137968529
 20
8.609996641642737
 30
0.0
 11
1.130001379684927
 21
8.609996641642737
 31
0.0
  0
ARC
  5
1A272
330
1A1B9
100
AcDbEntity
  8
0
100
AcDbCircle
 10
4.730001379684381
 20
9.339996641642301
 30
0.0
 40
0.3
100
AcDbArc
 50
0.0
 51
90.0
  0
LINE
  5
1A273
330
1A1B9
100
AcDbEntity
  8
0
100
AcDbLine
 10
4.610297408909445
 20
8.559996641642555
 30
0.0
 11
5.23000137968529
 21
8.559996641642555
 31
0.0
  0
LINE
  5
1A274
330
1A1B9
100
AcDbEntity
  8
0
100
AcDbLine
 10
4.290001379684781
 20
22.28999664164212
 30
0.0
 11
3.070001379684526
 21
22.28999664164212
 31
0.0
  0
LINE
  5
1A275
330
1A1B9
100
AcDbEntity
  8
0
100
AcDbLine
 10
4.390001379685145
 20
22.0899966416423
 30
0.0
 11
2.970001379685072
 21
22.0899966416423
 31
0.0
  0
LINE
  5
1A276
330
1A1B9
100
AcDbEntity
  8
0
100
AcDbLine
 10
4.161873148035283
 20
21.35999664164182
 30
0.0
 11
3.198129611334934
 21
21.35999664164182
 31
0.0
  0
LINE
  5
1A277
330
1A1B9
100
AcDbEntity
  8
0
100
AcDbLine
 10
4.166515116909522
 20
21.35833022224187
 30
0.0
 11
3.193487642459786
 21
21.35833022224187
 31
0.0
  0
LINE
  5
1A278
330
1A1B9
100
AcDbEntity
  8
0
100
AcDbLine
 10
4.73000137968529
 20
19.95999664164219
 30
0.0
 11
1.830001379684745
 21
19.95999664164219
 31
0.0
  0
LINE
  5
1A279
330
1A1B9
100
AcDbEntity
  8
0
100
AcDbLine
 10
4.658232470234452
 20
21.0056118994421
 30
0.0
 11
4.166515116909522
 21
21.35833022224187
 31
0.0
  0
LINE
  5
1A27A
330
1A1B9
100
AcDbEntity
  8
0
100
AcDbLine
 10
4.166515116909522
 20
21.35833022224187
 30
0.0
 11
4.161819134534653
 21
21.35994249944224
 31
0.0
  0
LINE
  5
1A27B
330
1A1B9
100
AcDbEntity
  8
0
100
AcDbLine
 10
4.341589232209571
 20
22.63999664164248
 30
0.0
 11
4.341589232209571
 21
22.93999664164175
 31
0.0
  0
LINE
  5
1A27C
330
1A1B9
100
AcDbEntity
  8
0
100
AcDbLine
 10
4.488572808259505
 20
22.63999664164248
 30
0.0
 11
4.488572808259505
 21
22.93999664164175
 31
0.0
  0
LINE
  5
1A27D
330
1A1B9
100
AcDbEntity
  8
0
100
AcDbLine
 10
4.740001379684599
 20
22.63999664164248
 30
0.0
 11
4.740001379684599
 21
22.93999664164175
 31
0.0
  0
LINE
  5
1A27E
330
1A1B9
100
AcDbEntity
  8
0
100
AcDbLine
 10
4.390001379685145
 20
22.63999664164248
 30
0.0
 11
4.390001379685145
 21
22.0899966416423
 31
0.0
  0
LINE
  5
1A27F
330
1A1B9
100
AcDbEntity
  8
0
100
AcDbLine
 10
4.290001379684781
 20
22.28999664164212
 30
0.0
 11
4.390001379685145
 21
22.0899966416423
 31
0.0
  0
LINE
  5
1A280
330
1A1B9
100
AcDbEntity
  8
0
100
AcDbLine
 10
4.341589232209571
 20
22.63999664164248
 30
0.0
 11
4.73995266276006
 21
22.63999664164248
 31
0.0
  0
LINE
  5
1A281
330
1A1B9
100
AcDbEntity
  8
0
100
AcDbLine
 10
4.341589232209571
 20
22.93999664164175
 30
0.0
 11
4.73995266276006
 21
22.93999664164175
 31
0.0
  0
SPLINE
  5
1A282
330
1A1B9
100
AcDbEntity
  8
0
100
AcDbSpline
210
0.0
220
0.0
230
1.0
 70
     8
 71
     3
 72
    15
 73
    11
 74
     9
 42
0.0000000001
 43
0.0000000001
 44
0.0000000001
 12
-0.0000000000000003
 22
-1.0
 32
0.0
 13
1.0
 23
-0.0000000000000003
 33
0.0
 40
0.0
 40
0.0
 40
0.0
 40
0.0
 40
0.0593261002241222
 40
0.1186608019706727
 40
0.1778432634380336
 40
0.2367706770744251
 40
0.2951865537277448
 40
0.3527380240450639
 40
0.4091219901447263
 40
0.4640323935831649
 40
0.4640323935831649
 40
0.4640323935831649
 40
0.4640323935831649
 10
0.3409535863352175
 20
23.24499664164204
 30
0.0
 10
0.3409535863352175
 20
23.22522127490067
 30
0.0
 10
0.3448735061396992
 20
23.18555934443646
 30
0.0
 10
0.3622024247635202
 20
23.1284870804603
 30
0.0
 10
0.3902612208782966
 20
23.07598403662055
 30
0.0
 10
0.4277546370656406
 20
23.03015108946923
 30
0.0
 10
0.4730043104710485
 20
22.99280681540177
 30
0.0
 10
0.5239010772920403
 20
22.96536302868703
 30
0.0
 10
0.5780376369882016
 20
22.94874004551907
 30
0.0
 10
0.6152341263975254
 20
22.94499664164186
 30
0.0
 10
0.6335375942103383
 20
22.94499664164186
 30
0.0
 11
0.3409535863352175
 21
23.24499664164204
 31
0.0
 11
0.3467835206852214
 21
23.18595768811746
 31
0.0
 11
0.3640200186596303
 21
23.1291817251672
 31
0.0
 11
0.391910911035211
 21
23.07698343144193
 31
0.0
 11
0.429234255935171
 21
23.03138290509241
 31
0.0
 11
0.474304435985232
 21
22.99421983854199
 31
0.0
 11
0.5249818861097993
 21
22.96694406569213
 31
0.0
 11
0.5788983036850368
 21
22.95044644316703
 31
0.0
 11
0.6335375942103383
 21
22.94499664164186
 31
0.0
  0
SPLINE
  5
1A283
330
1A1B9
100
AcDbEntity
  8
0
100
AcDbSpline
210
0.0
220
0.0
230
1.0
 70
     8
 71
     3
 72
    15
 73
    11
 74
     9
 42
0.0000000001
 43
0.0000000001
 44
0.0000000001
 12
-1.0
 22
0.0000000000000003
 32
0.0
 13
0.0000000000000003
 23
1.0
 33
0.0
 40
0.0
 40
0.0
 40
0.0
 40
0.0
 40
0.0514825650951296
 40
0.1059334599722235
 40
0.1628298698746586
 40
0.2213968778993326
 40
0.2809047422607355
 40
0.3408534599842663
 40
0.4009992673993743
 40
0.4611969358587337
 40
0.4611969358587337
 40
0.4611969358587337
 40
0.4611969358587337
 10
0.5894537495100849
 20
22.94499664164186
 30
0.0
 10
0.5722928944783751
 20
22.94499664164186
 30
0.0
 10
0.5368957761326183
 20
22.94849820712837
 30
0.0
 10
0.4846132170050974
 20
22.96425571355062
 30
0.0
 10
0.4342490084239299
 20
22.99095524794079
 30
0.0
 10
0.3887042555712235
 20
23.02798052493331
 30
0.0
 10
0.3505584986080525
 20
23.07393112417022
 30
0.0
 10
0.321842138711332
 20
23.12690969965113
 30
0.0
 10
0.3040322468040371
 20
23.18470259639784
 30
0.0
 10
0.3000013796849998
 20
23.22493075215559
 30
0.0
 10
0.3000013796849998
 20
23.24499664164204
 30
0.0
 11
0.5894537495100849
 21
22.94499664164186
 31
0.0
 11
0.5382143343845201
 21
22.94999432574195
 31
0.0
 11
0.4860555422096695
 21
22.9656263554175
 31
0.0
 11
0.4357566193098137
 21
22.99221996019196
 31
0.0
 11
0.3902861881101671
 21
23.02913248266713
 31
0.0
 11
0.3522651602847873
 21
23.07491006849204
 31
0.0
 11
0.323702229310129
 21
23.12761687764259
 31
0.0
 11
0.3059999475349286
 21
23.18509859099185
 31
0.0
 11
0.3000013796849998
 21
23.24499664164204
 31
0.0
  0
LINE
  5
1A284
330
1A1B9
100
AcDbEntity
  8
0
100
AcDbLine
 10
0.3000013796849998
 20
22.59499664164241
 30
0.0
 11
1.030001379684563
 21
22.59499664164241
 31
0.0
  0
LINE
  5
1A285
330
1A1B9
100
AcDbEntity
  8
0
100
AcDbLine
 10
0.3000013796849998
 20
21.60499664164262
 30
0.0
 11
1.030001379684563
 21
21.60499664164262
 31
0.0
  0
LINE
  5
1A286
330
1A1B9
100
AcDbEntity
  8
0
100
AcDbLine
 10
1.030001379684563
 20
21.0899966416423
 30
0.0
 11
1.030001379684563
 21
22.94499664164186
 31
0.0
  0
LINE
  5
1A287
330
1A1B9
100
AcDbEntity
  8
0
100
AcDbLine
 10
1.180001379685108
 20
22.94499664164186
 30
0.0
 11
1.180001379685108
 21
21.53999664164211
 31
0.0
  0
LINE
  5
1A288
330
1A1B9
100
AcDbEntity
  8
0
100
AcDbLine
 10
3.167929175110202
 20
21.3399966416423
 30
0.0
 11
1.48000137968529
 21
21.3399966416423
 31
0.0
  0
LINE
  5
1A289
330
1A1B9
100
AcDbEntity
  8
0
100
AcDbLine
 10
2.749705350459862
 20
21.03999664164212
 30
0.0
 11
1.680001379685108
 21
21.03999664164212
 31
0.0
  0
LINE
  5
1A28A
330
1A1B9
100
AcDbEntity
  8
0
100
AcDbLine
 10
2.600001379685181
 20
20.98999664164193
 30
0.0
 11
2.600001379685181
 21
21.03999664164212
 31
0.0
  0
LINE
  5
1A28B
330
1A1B9
100
AcDbEntity
  8
0
100
AcDbLine
 10
2.680001379685108
 20
20.98999664164193
 30
0.0
 11
3.193487642459786
 21
21.35833022224187
 31
0.0
  0
LINE
  5
1A28C
330
1A1B9
100
AcDbEntity
  8
0
100
AcDbLine
 10
3.193487642459786
 20
21.35833022224187
 30
0.0
 11
3.198183624834655
 21
21.35994249944224
 31
0.0
  0
ARC
  5
1A28D
330
1A1B9
100
AcDbEntity
  8
0
100
AcDbCircle
 10
1.130001379684927
 20
21.0899966416423
 30
0.0
 40
0.45
100
AcDbArc
 50
180.0
 51
270.0
  0
LINE
  5
1A28E
330
1A1B9
100
AcDbEntity
  8
0
100
AcDbLine
 10
1.530001379684563
 20
20.25999664164237
 30
0.0
 11
1.530001379684563
 21
20.98999664164193
 31
0.0
  0
ARC
  5
1A28F
330
1A1B9
100
AcDbEntity
  8
0
100
AcDbCircle
 10
1.830001379684745
 20
20.25999664164237
 30
0.0
 40
0.3
100
AcDbArc
 50
180.0
 51
270.0
  0
ARC
  5
1A290
330
1A1B9
100
AcDbEntity
  8
0
100
AcDbCircle
 10
1.130001379684927
 20
21.0899966416423
 30
0.0
 40
0.1
100
AcDbArc
 50
180.0
 51
270.0
  0
ARC
  5
1A291
330
1A1B9
100
AcDbEntity
  8
0
100
AcDbCircle
 10
1.680001379685108
 20
21.53999664164211
 30
0.0
 40
0.5
100
AcDbArc
 50
180.0
 51
270.0
  0
LINE
  5
1A292
330
1A1B9
100
AcDbEntity
  8
0
100
AcDbLine
 10
0.680001379685109
 20
21.60499664164262
 30
0.0
 11
0.680001379685109
 21
21.0899966416423
 31
0.0
  0
LINE
  5
1A293
330
1A1B9
100
AcDbEntity
  8
0
100
AcDbLine
 10
1.48000137968529
 20
21.3399966416423
 30
0.0
 11
1.326447989084499
 21
21.18644325104241
 31
0.0
  0
LINE
  5
1A294
330
1A1B9
100
AcDbEntity
  8
0
100
AcDbLine
 10
1.130001379684927
 20
20.63999664164248
 30
0.0
 11
1.530001379684563
 21
20.63999664164248
 31
0.0
  0
LINE
  5
1A295
330
1A1B9
100
AcDbEntity
  8
0
100
AcDbLine
 10
2.620001379684708
 20
22.63999664164248
 30
0.0
 11
2.620001379684708
 21
22.93999664164175
 31
0.0
  0
LINE
  5
1A296
330
1A1B9
100
AcDbEntity
  8
0
100
AcDbLine
 10
2.871429951109803
 20
22.63999664164248
 30
0.0
 11
2.871429951109803
 21
22.93999664164175
 31
0.0
  0
LINE
  5
1A297
330
1A1B9
100
AcDbEntity
  8
0
100
AcDbLine
 10
3.018413527159736
 20
22.63999664164248
 30
0.0
 11
3.018413527159736
 21
22.93999664164175
 31
0.0
  0
LINE
  5
1A298
330
1A1B9
100
AcDbEntity
  8
0
100
AcDbLine
 10
2.970001379685072
 20
22.63999664164248
 30
0.0
 11
2.970001379685072
 21
22.0899966416423
 31
0.0
  0
LINE
  5
1A299
330
1A1B9
100
AcDbEntity
  8
0
100
AcDbLine
 10
3.070001379684526
 20
22.28999664164212
 30
0.0
 11
2.970001379685072
 21
22.0899966416423
 31
0.0
  0
LINE
  5
1A29A
330
1A1B9
100
AcDbEntity
  8
0
100
AcDbLine
 10
2.620050096610157
 20
22.63999664164248
 30
0.0
 11
3.018413527159736
 21
22.63999664164248
 31
0.0
  0
LINE
  5
1A29B
330
1A1B9
100
AcDbEntity
  8
0
100
AcDbLine
 10
2.620050096610157
 20
22.93999664164175
 30
0.0
 11
3.018413527159736
 21
22.93999664164175
 31
0.0
  0
LINE
  5
1A29C
330
1A1B9
100
AcDbEntity
  8
0
100
AcDbLine
 10
0.680001379685109
 20
22.94499664164186
 30
0.0
 11
0.680001379685109
 21
22.59499664164241
 31
0.0
  0
LINE
  5
1A29D
330
1A1B9
100
AcDbEntity
  8
0
100
AcDbLine
 10
0.6335375942094288
 20
22.94499664164186
 30
0.0
 11
1.229926632410297
 21
22.94499664164186
 31
0.0
  0
ARC
  5
1A29E
330
1A1B9
100
AcDbEntity
  8
0
100
AcDbCircle
 10
0.3000013796849998
 20
21.90499664164281
 30
0.0
 40
0.3
100
AcDbArc
 50
180.0
 51
270.0
  0
LINE
  5
1A29F
330
1A1B9
100
AcDbEntity
  8
0
100
AcDbLine
 10
0.3347750834095677
 20
22.59499664164241
 30
0.0
 11
0.3347750834095677
 21
21.60499664164262
 31
0.0
  0
ARC
  5
1A2A0
330
1A1B9
100
AcDbEntity
  8
0
100
AcDbCircle
 10
0.3000013796849998
 20
22.29499664164222
 30
0.0
 40
0.3
100
AcDbArc
 50
90.0
 51
180.0
  0
LINE
  5
1A2A1
330
1A1B9
100
AcDbEntity
  8
0
100
AcDbLine
 10
0.0000013796848179
 20
22.29499664164222
 30
0.0
 11
0.0000013796848179
 21
21.9049966416419
 31
0.0
  0
LINE
  5
1A2A2
330
1A1B9
100
AcDbEntity
  8
0
100
AcDbLine
 10
0.3409535863352175
 20
23.24499664164204
 30
0.0
 11
0.3000013796849998
 21
23.24499664164204
 31
0.0
  0
ARC
  5
1A2A3
330
1A1B9
100
AcDbEntity
  8
0
100
AcDbCircle
 10
6.230001379684381
 20
21.0899966416423
 30
0.0
 40
0.1
100
AcDbArc
 50
270.0
 51
0.0
  0
ARC
  5
1A2A4
330
1A1B9
100
AcDbEntity
  8
0
100
AcDbCircle
 10
5.930001379685108
 20
20.62999664164226
 30
0.0
 40
0.3
100
AcDbArc
 50
270.0
 51
0.0
  0
ARC
  5
1A2A5
330
1A1B9
100
AcDbEntity
  8
0
100
AcDbCircle
 10
6.230001379684381
 20
21.0899966416423
 30
0.0
 40
0.45
100
AcDbArc
 50
270.0
 51
0.0
  0
LINE
  5
1A2A6
330
1A1B9
100
AcDbEntity
  8
0
100
AcDbLine
 10
6.680001379685108
 20
22.04499664164222
 30
0.0
 11
6.23000137968529
 21
22.04499664164222
 31
0.0
  0
LINE
  5
1A2A7
330
1A1B9
100
AcDbEntity
  8
0
100
AcDbLine
 10
6.23000137968529
 20
21.0899966416423
 30
0.0
 11
6.680001379685108
 21
21.0899966416423
 31
0.0
  0
LINE
  5
1A2A8
330
1A1B9
100
AcDbEntity
  8
0
100
AcDbLine
 10
6.3145504905101
 20
21.03999664164212
 30
0.0
 11
6.23000137968529
 21
21.03999664164212
 31
0.0
  0
LINE
  5
1A2A9
330
1A1B9
100
AcDbEntity
  8
0
100
AcDbLine
 10
6.23000137968529
 20
20.63999664164248
 30
0.0
 11
7.330001379684745
 21
20.63999664164248
 31
0.0
  0
LINE
  5
1A2AA
330
1A1B9
100
AcDbEntity
  8
0
100
AcDbLine
 10
6.680001379685108
 20
21.0899966416423
 30
0.0
 11
6.680001379685108
 21
22.39499664164259
 31
0.0
  0
LINE
  5
1A2AB
330
1A1B9
100
AcDbEntity
  8
0
100
AcDbLine
 10
7.250001379684817
 20
21.03999664164212
 30
0.0
 11
7.250001379684817
 21
21.73999664164193
 31
0.0
  0
ARC
  5
1A2AC
330
1A1B9
100
AcDbEntity
  8
0
100
AcDbCircle
 10
7.330001379684745
 20
20.5899966416423
 30
0.0
 40
0.05
100
AcDbArc
 50
0.0
 51
90.0
  0
LINE
  5
1A2AD
330
1A1B9
100
AcDbEntity
  8
0
100
AcDbLine
 10
7.380001379684927
 20
19.78999664164211
 30
0.0
 11
7.380001379684927
 21
20.5899966416423
 31
0.0
  0
LINE
  5
1A2AE
330
1A1B9
100
AcDbEntity
  8
0
100
AcDbLine
 10
7.430001379685108
 20
20.97683139189257
 30
0.0
 11
7.430001379685108
 21
20.98999664164193
 31
0.0
  0
LINE
  5
1A2AF
330
1A1B9
100
AcDbEntity
  8
0
100
AcDbLine
 10
7.250001379684817
 20
21.3399966416423
 30
0.0
 11
6.680001379685108
 21
21.3399966416423
 31
0.0
  0
LINE
  5
1A2B0
330
1A1B9
100
AcDbEntity
  8
0
100
AcDbLine
 10
7.250001379684817
 20
21.03999664164212
 30
0.0
 11
6.673418754809517
 21
21.03999664164212
 31
0.0
  0
LINE
  5
1A2B1
330
1A1B9
100
AcDbEntity
  8
0
100
AcDbLine
 10
7.430001379685108
 20
20.98999664164193
 30
0.0
 11
6.666836129934836
 21
20.98999664164193
 31
0.0
  0
ARC
  5
1A2B2
330
1A1B9
100
AcDbEntity
  8
0
100
AcDbCircle
 10
7.060001379685218
 20
22.69499664164277
 30
0.0
 40
0.3
100
AcDbArc
 50
270.0
 51
0.0
  0
LINE
  5
1A2B3
330
1A1B9
100
AcDbEntity
  8
0
100
AcDbLine
 10
6.780001379684563
 20
21.73999664164193
 30
0.0
 11
6.780001379684563
 21
22.39499664164259
 31
0.0
  0
LINE
  5
1A2B4
330
1A1B9
100
AcDbEntity
  8
0
100
AcDbLine
 10
7.080001379684745
 20
21.73999664164193
 30
0.0
 11
7.080001379684745
 21
22.39499664164259
 31
0.0
  0
LINE
  5
1A2B5
330
1A1B9
100
AcDbEntity
  8
0
100
AcDbLine
 10
6.330001379684745
 20
22.39499664164259
 30
0.0
 11
7.060001379685218
 21
22.39499664164259
 31
0.0
  0
LINE
  5
1A2B6
330
1A1B9
100
AcDbEntity
  8
0
100
AcDbLine
 10
6.23000137968529
 20
22.04499664164222
 30
0.0
 11
5.23000137968529
 21
21.04499664164222
 31
0.0
  0
LINE
  5
1A2B7
330
1A1B9
100
AcDbEntity
  8
0
100
AcDbLine
 10
5.030001379684563
 20
20.25999664164237
 30
0.0
 11
5.030001379684563
 21
20.98999664164193
 31
0.0
  0
LINE
  5
1A2B8
330
1A1B9
100
AcDbEntity
  8
0
100
AcDbLine
 10
5.23000137968529
 20
21.04499664164222
 30
0.0
 11
5.23000137968529
 21
20.62999664164226
 31
0.0
  0
LINE
  5
1A2B9
330
1A1B9
100
AcDbEntity
  8
0
100
AcDbLine
 10
6.23000137968529
 20
20.62999664164226
 30
0.0
 11
6.23000137968529
 21
21.0899966416423
 31
0.0
  0
ARC
  5
1A2BA
330
1A1B9
100
AcDbEntity
  8
0
100
AcDbCircle
 10
5.530001379684563
 20
20.62999664164226
 30
0.0
 40
0.3
100
AcDbArc
 50
180.0
 51
270.0
  0
LINE
  5
1A2BB
330
1A1B9
100
AcDbEntity
  8
0
100
AcDbLine
 10
5.530001379684563
 20
20.32999664164208
 30
0.0
 11
5.930001379685108
 21
20.32999664164208
 31
0.0
  0
LINE
  5
1A2BC
330
1A1B9
100
AcDbEntity
  8
0
100
AcDbLine
 10
5.030001379684563
 20
20.63999664164248
 30
0.0
 11
5.23000137968529
 21
20.63999664164248
 31
0.0
  0
LINE
  5
1A2BD
330
1A1B9
100
AcDbEntity
  8
0
100
AcDbLine
 10
5.23000137968529
 20
20.98999664164193
 30
0.0
 11
1.130001379684927
 21
20.98999664164193
 31
0.0
  0
LINE
  5
1A2BE
330
1A1B9
100
AcDbEntity
  8
0
100
AcDbLine
 10
5.030001379684563
 20
20.29477034536694
 30
0.0
 11
1.530001379684563
 21
20.29477034536694
 31
0.0
  0
ELLIPSE
  5
1A2BF
330
1A1B9
100
AcDbEntity
  8
0
100
AcDbEllipse
 10
4.907081065409784
 20
21.00726757059192
 30
0.0
 11
-0.25
 21
0.0000000000000001
 31
0.0
210
0.0
220
0.0
230
1.0
 40
0.0690837158
 41
0.096012071
 42
1.570787529499999
  0
ARC
  5
1A2C0
330
1A1B9
100
AcDbEntity
  8
0
100
AcDbCircle
 10
4.730001379684381
 20
20.25999664164237
 30
0.0
 40
0.3
100
AcDbArc
 50
270.0
 51
0.0
  0
LINE
  5
1A2C1
330
1A1B9
100
AcDbEntity
  8
0
100
AcDbLine
 10
5.525001379684454
 20
21.3399966416423
 30
0.0
 11
4.192073584260015
 21
21.3399966416423
 31
0.0
  0
LINE
  5
1A2C2
330
1A1B9
100
AcDbEntity
  8
0
100
AcDbLine
 10
5.23000137968529
 20
21.03999664164212
 30
0.0
 11
4.610297408909445
 21
21.03999664164212
 31
0.0
  0
LINE
  5
1A2C3
330
1A1B9
100
AcDbEntity
  8
0
100
AcDbLine
 10
4.166515116909522
 20
8.2416630610428
 30
0.0
 11
3.193487642459786
 21
8.2416630610428
 31
0.0
  0
LINE
  5
1A2C4
330
1A1B9
100
AcDbEntity
  8
0
100
AcDbLine
 10
4.161873148035283
 20
8.239996641642846
 30
0.0
 11
3.198129611334934
 21
8.239996641642846
 31
0.0
  0
LINE
  5
1A2C5
330
1A1B9
100
AcDbEntity
  8
0
100
AcDbLine
 10
2.970001379685072
 20
7.509996641642374
 30
0.0
 11
4.390001379685145
 21
7.509996641642374
 31
0.0
  0
LINE
  5
1A2C6
330
1A1B9
100
AcDbEntity
  8
0
100
AcDbLine
 10
3.070001379684526
 20
7.309996641642555
 30
0.0
 11
4.290001379684781
 21
7.309996641642555
 31
0.0
  0
LINE
  5
1A2C7
330
1A1B9
100
AcDbEntity
  8
0
100
AcDbLine
 10
4.390001379685145
 20
7.509996641642374
 30
0.0
 11
4.390001379685145
 21
6.959996641642192
 31
0.0
  0
LINE
  5
1A2C8
330
1A1B9
100
AcDbEntity
  8
0
100
AcDbLine
 10
4.341589232209571
 20
6.959996641642192
 30
0.0
 11
4.73995266276006
 21
6.959996641642192
 31
0.0
  0
LINE
  5
1A2C9
330
1A1B9
100
AcDbEntity
  8
0
100
AcDbLine
 10
4.341589232209571
 20
6.659996641642919
 30
0.0
 11
4.73995266276006
 21
6.659996641642919
 31
0.0
  0
LINE
  5
1A2CA
330
1A1B9
100
AcDbEntity
  8
0
100
AcDbLine
 10
4.341589232209571
 20
6.659996641642919
 30
0.0
 11
4.341589232209571
 21
6.959996641642192
 31
0.0
  0
LINE
  5
1A2CB
330
1A1B9
100
AcDbEntity
  8
0
100
AcDbLine
 10
4.488572808259505
 20
6.659996641642919
 30
0.0
 11
4.488572808259505
 21
6.959996641642192
 31
0.0
  0
LINE
  5
1A2CC
330
1A1B9
100
AcDbEntity
  8
0
100
AcDbLine
 10
4.740001379684599
 20
6.659996641642919
 30
0.0
 11
4.740001379684599
 21
6.959996641642192
 31
0.0
  0
LINE
  5
1A2CD
330
1A1B9
100
AcDbEntity
  8
0
100
AcDbLine
 10
4.390001379685145
 20
7.509996641642374
 30
0.0
 11
4.290001379684781
 21
7.309996641642555
 31
0.0
  0
LINE
  5
1A2CE
330
1A1B9
100
AcDbEntity
  8
0
100
AcDbLine
 10
4.161819134534653
 20
8.240050783842434
 30
0.0
 11
4.166515116909522
 21
8.2416630610428
 31
0.0
  0
ARC
  5
1A2CF
330
1A1B9
100
AcDbEntity
  8
0
100
AcDbCircle
 10
0.3000013796849998
 20
7.694996641642774
 30
0.0
 40
0.3
100
AcDbArc
 50
90.0
 51
180.0
  0
LINE
  5
1A2D0
330
1A1B9
100
AcDbEntity
  8
0
100
AcDbLine
 10
1.180001379685108
 20
8.059996641642555
 30
0.0
 11
1.180001379685108
 21
6.65499664164281
 31
0.0
  0
SPLINE
  5
1A2D1
330
1A1B9
100
AcDbEntity
  8
0
100
AcDbSpline
210
0.0
220
0.0
230
1.0
 70
     8
 71
     3
 72
    15
 73
    11
 74
     9
 42
0.0000000001
 43
0.0000000001
 44
0.0000000001
 12
-1.0
 22
0.0000000000000003
 32
0.0
 13
-0.0000000000000003
 23
-1.0
 33
0.0
 40
0.0
 40
0.0
 40
0.0
 40
0.0
 40
0.0549104034384386
 40
0.1112943695381009
 40
0.16884583985542
 40
0.2272617165087397
 40
0.2861891301451311
 40
0.345371591612492
 40
0.4047062933590426
 40
0.4640323935831649
 40
0.4640323935831649
 40
0.4640323935831649
 40
0.4640323935831649
 10
0.6335375942103383
 20
6.65499664164281
 30
0.0
 10
0.6152341263975254
 20
6.65499664164281
 30
0.0
 10
0.5780376369882016
 20
6.651253237765599
 30
0.0
 10
0.5239010772920402
 20
6.634630254597635
 30
0.0
 10
0.4730043104710487
 20
6.607186467882911
 30
0.0
 10
0.4277546370656406
 20
6.56984219381544
 30
0.0
 10
0.3902612208782967
 20
6.524009246664121
 30
0.0
 10
0.3622024247635201
 20
6.471506202824361
 30
0.0
 10
0.3448735061396992
 20
6.414433938848222
 30
0.0
 10
0.3409535863352175
 20
6.374772008384002
 30
0.0
 10
0.3409535863352175
 20
6.354996641642628
 30
0.0
 11
0.6335375942103383
 21
6.65499664164281
 31
0.0
 11
0.5788983036850368
 21
6.649546840117636
 31
0.0
 11
0.5249818861097993
 21
6.633049217592542
 31
0.0
 11
0.474304435985232
 21
6.605773444742681
 31
0.0
 11
0.429234255935171
 21
6.568610378192261
 31
0.0
 11
0.391910911035211
 21
6.523009851842743
 31
0.0
 11
0.3640200186596303
 21
6.470811558117475
 31
0.0
 11
0.3467835206852214
 21
6.414035595167206
 31
0.0
 11
0.3409535863352175
 21
6.354996641642628
 31
0.0
  0
SPLINE
  5
1A2D2
330
1A1B9
100
AcDbEntity
  8
0
100
AcDbSpline
210
0.0
220
0.0
230
1.0
 70
     8
 71
     3
 72
    15
 73
    11
 74
     9
 42
0.0000000001
 43
0.0000000001
 44
0.0000000001
 12
0.0000000000000003
 22
1.0
 32
0.0
 13
1.0
 23
-0.0000000000000003
 33
0.0
 40
0.0
 40
0.0
 40
0.0
 40
0.0
 40
0.060197644015315
 40
0.1203434046987361
 40
0.1802921062117438
 40
0.2397999660846499
 40
0.2983669952297135
 40
0.355263437853077
 40
0.4097143636452304
 40
0.4611969379716027
 40
0.4611969379716027
 40
0.4611969379716027
 40
0.4611969379716027
 10
0.3000013796849998
 20
6.354996641642628
 30
0.0
 10
0.3000013796849998
 20
6.375062522981067
 30
0.0
 10
0.3040322359778884
 20
6.415290655982655
 30
0.0
 10
0.3218421192809247
 20
6.473083524097699
 30
0.0
 10
0.3505584473517525
 20
6.52606209040959
 30
0.0
 10
0.3887041939520267
 20
6.572012698921454
 30
0.0
 10
0.4342489482940114
 20
6.609038000237749
 30
0.0
 10
0.4846131778883113
 20
6.635737557084316
 30
0.0
 10
0.5368957597006478
 20
6.651495073857362
 30
0.0
 10
0.5722928914012942
 20
6.65499664164281
 30
0.0
 10
0.5894537495100849
 20
6.65499664164281
 30
0.0
 11
0.3000013796849998
 21
6.354996641642628
 31
0.0
 11
0.3059999391348356
 21
6.41489466856774
 31
0.0
 11
0.3237022014350259
 21
6.472376339017046
 31
0.0
 11
0.3522651082598713
 21
6.525083142817038
 31
0.0
 11
0.3902861203600878
 21
6.570860735867881
 31
0.0
 11
0.4357565575351146
 21
6.60777328449285
 31
0.0
 11
0.4860555045602269
 21
6.634366913642679
 31
0.0
 11
0.5382143252850256
 21
6.64999895574283
 31
0.0
 11
0.5894537495100849
 21
6.65499664164281
 31
0.0
  0
LINE
  5
1A2D3
330
1A1B9
100
AcDbEntity
  8
0
100
AcDbLine
 10
0.3000013796849998
 20
7.994996641642046
 30
0.0
 11
1.030001379684563
 21
7.994996641642046
 31
0.0
  0
LINE
  5
1A2D4
330
1A1B9
100
AcDbEntity
  8
0
100
AcDbLine
 10
0.3000013796849998
 20
7.004996641642264
 30
0.0
 11
1.030001379684563
 21
7.004996641642264
 31
0.0
  0
LINE
  5
1A2D5
330
1A1B9
100
AcDbEntity
  8
0
100
AcDbLine
 10
2.970001379685072
 20
7.509996641642374
 30
0.0
 11
2.970001379685072
 21
6.959996641642192
 31
0.0
  0
LINE
  5
1A2D6
330
1A1B9
100
AcDbEntity
  8
0
100
AcDbLine
 10
2.620001379684708
 20
6.659996641642919
 30
0.0
 11
2.620001379684708
 21
6.959996641642192
 31
0.0
  0
LINE
  5
1A2D7
330
1A1B9
100
AcDbEntity
  8
0
100
AcDbLine
 10
2.620050096610157
 20
6.959996641642192
 30
0.0
 11
3.018413527159736
 21
6.959996641642192
 31
0.0
  0
LINE
  5
1A2D8
330
1A1B9
100
AcDbEntity
  8
0
100
AcDbLine
 10
2.871429951109803
 20
6.659996641642919
 30
0.0
 11
2.871429951109803
 21
6.959996641642192
 31
0.0
  0
LINE
  5
1A2D9
330
1A1B9
100
AcDbEntity
  8
0
100
AcDbLine
 10
3.018413527159736
 20
6.659996641642919
 30
0.0
 11
3.018413527159736
 21
6.959996641642192
 31
0.0
  0
LINE
  5
1A2DA
330
1A1B9
100
AcDbEntity
  8
0
100
AcDbLine
 10
2.620050096610157
 20
6.659996641642919
 30
0.0
 11
3.018413527159736
 21
6.659996641642919
 31
0.0
  0
LINE
  5
1A2DB
330
1A1B9
100
AcDbEntity
  8
0
100
AcDbLine
 10
3.070001379684526
 20
7.309996641642555
 30
0.0
 11
2.970001379685072
 21
7.509996641642374
 31
0.0
  0
LINE
  5
1A2DC
330
1A1B9
100
AcDbEntity
  8
0
100
AcDbLine
 10
0.680001379685109
 20
7.004996641642264
 30
0.0
 11
0.680001379685109
 21
6.65499664164281
 31
0.0
  0
LINE
  5
1A2DD
330
1A1B9
100
AcDbEntity
  8
0
100
AcDbLine
 10
0.6335375942094288
 20
6.65499664164281
 30
0.0
 11
1.229926632410297
 21
6.65499664164281
 31
0.0
  0
ARC
  5
1A2DE
330
1A1B9
100
AcDbEntity
  8
0
100
AcDbCircle
 10
0.3000013796849998
 20
7.304996641642446
 30
0.0
 40
0.3
100
AcDbArc
 50
180.0
 51
270.0
  0
LINE
  5
1A2DF
330
1A1B9
100
AcDbEntity
  8
0
100
AcDbLine
 10
0.3000013796849998
 20
6.354996641642628
 30
0.0
 11
0.3409535863352175
 21
6.354996641642628
 31
0.0
  0
LINE
  5
1A2E0
330
1A1B9
100
AcDbEntity
  8
0
100
AcDbLine
 10
0.0000013796848179
 20
7.304996641642446
 30
0.0
 11
0.0000013796848179
 21
7.694996641642774
 31
0.0
  0
LINE
  5
1A2E1
330
1A1B9
100
AcDbEntity
  8
0
100
AcDbLine
 10
0.3347750834095677
 20
7.004996641642264
 30
0.0
 11
0.3347750834095677
 21
7.994996641642046
 31
0.0
  0
LINE
  5
1A2E2
330
1A1B9
100
AcDbEntity
  8
0
100
AcDbLine
 10
1.48000137968529
 20
8.259996641642374
 30
0.0
 11
3.167929175110202
 21
8.259996641642374
 31
0.0
  0
LINE
  5
1A2E3
330
1A1B9
100
AcDbEntity
  8
0
100
AcDbLine
 10
3.198183624834655
 20
8.240050783842434
 30
0.0
 11
3.193487642459786
 21
8.2416630610428
 31
0.0
  0
LINE
  5
1A2E4
330
1A1B9
100
AcDbEntity
  8
0
100
AcDbLine
 10
1.48000137968529
 20
8.259996641642374
 30
0.0
 11
1.326447989084499
 21
8.413550032242255
 31
0.0
  0
LINE
  5
1A2E5
330
1A1B9
100
AcDbEntity
  8
0
100
AcDbLine
 10
6.23000137968529
 20
7.554996641642446
 30
0.0
 11
6.680001379685108
 21
7.554996641642446
 31
0.0
  0
ARC
  5
1A2E6
330
1A1B9
100
AcDbEntity
  8
0
100
AcDbCircle
 10
7.060001379685218
 20
6.90499664164281
 30
0.0
 40
0.3
100
AcDbArc
 50
0.0
 51
90.0
  0
LINE
  5
1A2E7
330
1A1B9
100
AcDbEntity
  8
0
100
AcDbLine
 10
6.330001379684745
 20
7.204996641642082
 30
0.0
 11
7.060001379685218
 21
7.204996641642082
 31
0.0
  0
LINE
  5
1A2E8
330
1A1B9
100
AcDbEntity
  8
0
100
AcDbLine
 10
6.780001379684563
 20
7.204996641642082
 30
0.0
 11
6.780001379684563
 21
7.859996641642737
 31
0.0
  0
LINE
  5
1A2E9
330
1A1B9
100
AcDbEntity
  8
0
100
AcDbLine
 10
7.080001379684745
 20
7.204996641642082
 30
0.0
 11
7.080001379684745
 21
7.859996641642737
 31
0.0
  0
LINE
  5
1A2EA
330
1A1B9
100
AcDbEntity
  8
0
100
AcDbLine
 10
6.680001379685108
 20
8.259996641642374
 30
0.0
 11
7.250001379684817
 21
8.259996641642374
 31
0.0
  0
LINE
  5
1A2EB
330
1A1B9
100
AcDbEntity
  8
0
100
AcDbLine
 10
4.192073584260015
 20
8.259996641642374
 30
0.0
 11
5.525001379684454
 21
8.259996641642374
 31
0.0
  0
LINE
  5
1A2EC
330
1A1B9
100
AcDbEntity
  8
0
100
AcDbLine
 10
4.341589232209571
 20
4.119996641642046
 30
0.0
 11
4.341589232209571
 21
4.419996641642228
 31
0.0
  0
LINE
  5
1A2ED
330
1A1B9
100
AcDbEntity
  8
0
100
AcDbLine
 10
4.488572808259505
 20
4.119996641642046
 30
0.0
 11
4.488572808259505
 21
4.419996641642228
 31
0.0
  0
LINE
  5
1A2EE
330
1A1B9
100
AcDbEntity
  8
0
100
AcDbLine
 10
4.740001379684599
 20
4.119996641642046
 30
0.0
 11
4.740001379684599
 21
4.419996641642228
 31
0.0
  0
LINE
  5
1A2EF
330
1A1B9
100
AcDbEntity
  8
0
100
AcDbLine
 10
2.620001379684708
 20
4.119996641642046
 30
0.0
 11
2.620001379684708
 21
4.419996641642228
 31
0.0
  0
LINE
  5
1A2F0
330
1A1B9
100
AcDbEntity
  8
0
100
AcDbLine
 10
2.871429951109803
 20
4.119996641642046
 30
0.0
 11
2.871429951109803
 21
4.419996641642228
 31
0.0
  0
LINE
  5
1A2F1
330
1A1B9
100
AcDbEntity
  8
0
100
AcDbLine
 10
3.018413527159736
 20
4.119996641642046
 30
0.0
 11
3.018413527159736
 21
4.419996641642228
 31
0.0
  0
LINE
  5
1A2F2
330
1A1B9
100
AcDbEntity
  8
0
100
AcDbLine
 10
4.290001379684781
 20
2.499996641642155
 30
0.0
 11
3.070001379684526
 21
2.499996641642155
 31
0.0
  0
LINE
  5
1A2F3
330
1A1B9
100
AcDbEntity
  8
0
100
AcDbLine
 10
4.390001379685145
 20
2.299996641642337
 30
0.0
 11
2.970001379685072
 21
2.299996641642337
 31
0.0
  0
LINE
  5
1A2F4
330
1A1B9
100
AcDbEntity
  8
0
100
AcDbLine
 10
4.161873148035283
 20
1.569996641642774
 30
0.0
 11
3.198129611334934
 21
1.569996641642774
 31
0.0
  0
LINE
  5
1A2F5
330
1A1B9
100
AcDbEntity
  8
0
100
AcDbLine
 10
4.166515116909522
 20
1.568330222242821
 30
0.0
 11
3.193487642459786
 21
1.568330222242821
 31
0.0
  0
LINE
  5
1A2F6
330
1A1B9
100
AcDbEntity
  8
0
100
AcDbLine
 10
4.73000137968529
 20
0.1699966416422285
 30
0.0
 11
1.830001379684745
 21
0.1699966416422285
 31
0.0
  0
LINE
  5
1A2F7
330
1A1B9
100
AcDbEntity
  8
0
100
AcDbLine
 10
4.390001379685145
 20
4.119996641642046
 30
0.0
 11
4.390001379685145
 21
3.149996641642701
 31
0.0
  0
LINE
  5
1A2F8
330
1A1B9
100
AcDbEntity
  8
0
100
AcDbLine
 10
4.658232470234452
 20
1.215611899442137
 30
0.0
 11
4.166515116909522
 21
1.568330222242821
 31
0.0
  0
LINE
  5
1A2F9
330
1A1B9
100
AcDbEntity
  8
0
100
AcDbLine
 10
4.166515116909522
 20
1.568330222242821
 30
0.0
 11
4.161819134534653
 21
1.569942499442277
 31
0.0
  0
LINE
  5
1A2FA
330
1A1B9
100
AcDbEntity
  8
0
100
AcDbLine
 10
4.341589232209571
 20
2.849996641642519
 30
0.0
 11
4.341589232209571
 21
3.149996641642701
 31
0.0
  0
LINE
  5
1A2FB
330
1A1B9
100
AcDbEntity
  8
0
100
AcDbLine
 10
4.488572808259505
 20
2.849996641642519
 30
0.0
 11
4.488572808259505
 21
3.149996641642701
 31
0.0
  0
LINE
  5
1A2FC
330
1A1B9
100
AcDbEntity
  8
0
100
AcDbLine
 10
4.740001379684599
 20
2.849996641642519
 30
0.0
 11
4.740001379684599
 21
3.149996641642701
 31
0.0
  0
LINE
  5
1A2FD
330
1A1B9
100
AcDbEntity
  8
0
100
AcDbLine
 10
4.390001379685145
 20
2.849996641642519
 30
0.0
 11
4.390001379685145
 21
2.299996641642337
 31
0.0
  0
LINE
  5
1A2FE
330
1A1B9
100
AcDbEntity
  8
0
100
AcDbLine
 10
4.290001379684781
 20
2.499996641642155
 30
0.0
 11
4.390001379685145
 21
2.299996641642337
 31
0.0
  0
LINE
  5
1A2FF
330
1A1B9
100
AcDbEntity
  8
0
100
AcDbLine
 10
4.341589232209571
 20
2.849996641642519
 30
0.0
 11
4.73995266276006
 21
2.849996641642519
 31
0.0
  0
LINE
  5
1A300
330
1A1B9
100
AcDbEntity
  8
0
100
AcDbLine
 10
4.341589232209571
 20
3.149996641642701
 30
0.0
 11
4.73995266276006
 21
3.149996641642701
 31
0.0
  0
LINE
  5
1A301
330
1A1B9
100
AcDbEntity
  8
0
100
AcDbLine
 10
4.341589232209571
 20
4.119996641642046
 30
0.0
 11
4.73995266276006
 21
4.119996641642046
 31
0.0
  0
LINE
  5
1A302
330
1A1B9
100
AcDbEntity
  8
0
100
AcDbLine
 10
2.970001379685072
 20
4.119996641642046
 30
0.0
 11
2.970001379685072
 21
3.149996641642701
 31
0.0
  0
SPLINE
  5
1A303
330
1A1B9
100
AcDbEntity
  8
0
100
AcDbSpline
210
0.0
220
0.0
230
1.0
 70
     8
 71
     3
 72
    15
 73
    11
 74
     9
 42
0.0000000001
 43
0.0000000001
 44
0.0000000001
 12
-0.0000000000000003
 22
-1.0
 32
0.0
 13
1.0
 23
-0.0000000000000003
 33
0.0
 40
0.0
 40
0.0
 40
0.0
 40
0.0
 40
0.0593261002241222
 40
0.1186608019706727
 40
0.1778432634372315
 40
0.2367706770743267
 40
0.2951865537270678
 40
0.3527380240448179
 40
0.4091219901444803
 40
0.4640323935828287
 40
0.4640323935828287
 40
0.4640323935828287
 40
0.4640323935828287
 10
0.3409535863352175
 20
3.454996641642082
 30
0.0
 10
0.3409535863352175
 20
3.435221274900708
 30
0.0
 10
0.3448735061397614
 20
3.39555934443653
 30
0.0
 10
0.3622024247632243
 20
3.338487080460465
 30
0.0
 10
0.3902612208789354
 20
3.285984036621367
 30
0.0
 10
0.4277546370649393
 20
3.240151089469156
 30
0.0
 10
0.4730043104716762
 20
3.202806815402988
 30
0.0
 10
0.5239010772917283
 20
3.17536302868693
 30
0.0
 10
0.5780376369881808
 20
3.158740045518776
 30
0.0
 10
0.6152341263975555
 20
3.15499664164281
 30
0.0
 10
0.6335375942103383
 20
3.15499664164281
 30
0.0
 11
0.3409535863352175
 21
3.454996641642082
 31
0.0
 11
0.3467835206852214
 21
3.395957688117505
 31
0.0
 11
0.3640200186596303
 21
3.339181725167236
 31
0.0
 11
0.391910911035211
 21
3.286983431442877
 31
0.0
 11
0.429234255935171
 21
3.24138290509245
 31
0.0
 11
0.474304435985232
 21
3.20421983854294
 31
0.0
 11
0.5249818861097993
 21
3.176944065692168
 31
0.0
 11
0.5788983036850368
 21
3.160446443167074
 31
0.0
 11
0.6335375942103383
 21
3.15499664164281
 31
0.0
  0
SPLINE
  5
1A304
330
1A1B9
100
AcDbEntity
  8
0
100
AcDbSpline
210
0.0
220
0.0
230
1.0
 70
     8
 71
     3
 72
    15
 73
    11
 74
     9
 42
0.0000000001
 43
0.0000000001
 44
0.0000000001
 12
-1.0
 22
0.0000000000000003
 32
0.0
 13
0.0000000000000003
 23
1.0
 33
0.0
 40
0.0
 40
0.0
 40
0.0
 40
0.0
 40
0.0514825650951296
 40
0.1059334599719624
 40
0.1628298698748226
 40
0.2213968778989234
 40
0.2809047422603262
 40
0.340853459983857
 40
0.4009992673998343
 40
0.4611969358582888
 40
0.4611969358582888
 40
0.4611969358582888
 40
0.4611969358582888
 10
0.5894537495100849
 20
3.15499664164281
 30
0.0
 10
0.5722928944783751
 20
3.15499664164281
 30
0.0
 10
0.5368957761328405
 20
3.158498207129698
 30
0.0
 10
0.4846132170046161
 20
3.174255713550117
 30
0.0
 10
0.4342490084245389
 20
3.200955247942125
 30
0.0
 10
0.3887042555708718
 20
3.237980524933181
 30
0.0
 10
0.3505584986081358
 20
3.283931124170349
 30
0.0
 10
0.3218421387110907
 20
3.336909699651387
 30
0.0
 10
0.304032246804308
 20
3.394702596398251
 30
0.0
 10
0.3000013796849998
 20
3.434930752155931
 30
0.0
 10
0.3000013796849998
 20
3.454996641642082
 30
0.0
 11
0.5894537495100849
 21
3.15499664164281
 31
0.0
 11
0.5382143343845201
 21
3.1599943257429
 31
0.0
 11
0.4860555422096695
 21
3.175626355417534
 31
0.0
 11
0.4357566193098137
 21
3.202219960192906
 31
0.0
 11
0.3902861881101671
 21
3.239132482667173
 31
0.0
 11
0.3522651602847873
 21
3.284910068492081
 31
0.0
 11
0.323702229310129
 21
3.337616877642631
 31
0.0
 11
0.3059999475349286
 21
3.395098590992802
 31
0.0
 11
0.3000013796849998
 21
3.454996641642082
 31
0.0
  0
LINE
  5
1A305
330
1A1B9
100
AcDbEntity
  8
0
100
AcDbLine
 10
0.3000013796849998
 20
2.804996641642446
 30
0.0
 11
1.030001379684563
 21
2.804996641642446
 31
0.0
  0
LINE
  5
1A306
330
1A1B9
100
AcDbEntity
  8
0
100
AcDbLine
 10
0.3000013796849998
 20
1.814996641642665
 30
0.0
 11
1.030001379684563
 21
1.814996641642665
 31
0.0
  0
LINE
  5
1A307
330
1A1B9
100
AcDbEntity
  8
0
100
AcDbLine
 10
1.030001379684563
 20
1.299996641642337
 30
0.0
 11
1.030001379684563
 21
3.15499664164281
 31
0.0
  0
LINE
  5
1A308
330
1A1B9
100
AcDbEntity
  8
0
100
AcDbLine
 10
1.180001379685108
 20
3.15499664164281
 30
0.0
 11
1.180001379685108
 21
1.749996641642155
 31
0.0
  0
LINE
  5
1A309
330
1A1B9
100
AcDbEntity
  8
0
100
AcDbLine
 10
3.167929175110202
 20
1.549996641642337
 30
0.0
 11
1.48000137968529
 21
1.549996641642337
 31
0.0
  0
LINE
  5
1A30A
330
1A1B9
100
AcDbEntity
  8
0
100
AcDbLine
 10
2.749705350459862
 20
1.249996641642155
 30
0.0
 11
1.680001379685108
 21
1.249996641642155
 31
0.0
  0
LINE
  5
1A30B
330
1A1B9
100
AcDbEntity
  8
0
100
AcDbLine
 10
2.600001379685181
 20
1.199996641642883
 30
0.0
 11
2.600001379685181
 21
1.249996641642155
 31
0.0
  0
LINE
  5
1A30C
330
1A1B9
100
AcDbEntity
  8
0
100
AcDbLine
 10
2.680001379685108
 20
1.199996641642883
 30
0.0
 11
3.193487642459786
 21
1.568330222242821
 31
0.0
  0
LINE
  5
1A30D
330
1A1B9
100
AcDbEntity
  8
0
100
AcDbLine
 10
3.193487642459786
 20
1.568330222242821
 30
0.0
 11
3.198183624834655
 21
1.569942499442277
 31
0.0
  0
ARC
  5
1A30E
330
1A1B9
100
AcDbEntity
  8
0
100
AcDbCircle
 10
1.130001379684927
 20
1.299996641642337
 30
0.0
 40
0.45
100
AcDbArc
 50
180.0
 51
270.0
  0
LINE
  5
1A30F
330
1A1B9
100
AcDbEntity
  8
0
100
AcDbLine
 10
1.530001379684563
 20
0.4699966416424104
 30
0.0
 11
1.530001379684563
 21
1.199996641642883
 31
0.0
  0
ARC
  5
1A310
330
1A1B9
100
AcDbEntity
  8
0
100
AcDbCircle
 10
1.830001379684745
 20
0.4699966416424104
 30
0.0
 40
0.3
100
AcDbArc
 50
180.0
 51
270.0
  0
ARC
  5
1A311
330
1A1B9
100
AcDbEntity
  8
0
100
AcDbCircle
 10
1.130001379684927
 20
1.299996641642337
 30
0.0
 40
0.1
100
AcDbArc
 50
180.0
 51
270.0
  0
ARC
  5
1A312
330
1A1B9
100
AcDbEntity
  8
0
100
AcDbCircle
 10
1.680001379685108
 20
1.749996641643065
 30
0.0
 40
0.5
100
AcDbArc
 50
180.0
 51
270.0
  0
LINE
  5
1A313
330
1A1B9
100
AcDbEntity
  8
0
100
AcDbLine
 10
0.680001379685109
 20
1.814996641642665
 30
0.0
 11
0.680001379685109
 21
1.299996641642337
 31
0.0
  0
LINE
  5
1A314
330
1A1B9
100
AcDbEntity
  8
0
100
AcDbLine
 10
1.48000137968529
 20
1.549996641642337
 30
0.0
 11
1.326447989084499
 21
1.396443251042455
 31
0.0
  0
LINE
  5
1A315
330
1A1B9
100
AcDbEntity
  8
0
100
AcDbLine
 10
1.130001379684927
 20
0.8499966416425195
 30
0.0
 11
1.530001379684563
 21
0.8499966416425195
 31
0.0
  0
LINE
  5
1A316
330
1A1B9
100
AcDbEntity
  8
0
100
AcDbLine
 10
2.620001379684708
 20
2.849996641642519
 30
0.0
 11
2.620001379684708
 21
3.149996641642701
 31
0.0
  0
LINE
  5
1A317
330
1A1B9
100
AcDbEntity
  8
0
100
AcDbLine
 10
2.871429951109803
 20
2.849996641642519
 30
0.0
 11
2.871429951109803
 21
3.149996641642701
 31
0.0
  0
LINE
  5
1A318
330
1A1B9
100
AcDbEntity
  8
0
100
AcDbLine
 10
3.018413527159736
 20
2.849996641642519
 30
0.0
 11
3.018413527159736
 21
3.149996641642701
 31
0.0
  0
LINE
  5
1A319
330
1A1B9
100
AcDbEntity
  8
0
100
AcDbLine
 10
2.970001379685072
 20
2.849996641642519
 30
0.0
 11
2.970001379685072
 21
2.299996641642337
 31
0.0
  0
LINE
  5
1A31A
330
1A1B9
100
AcDbEntity
  8
0
100
AcDbLine
 10
3.070001379684526
 20
2.499996641642155
 30
0.0
 11
2.970001379685072
 21
2.299996641642337
 31
0.0
  0
LINE
  5
1A31B
330
1A1B9
100
AcDbEntity
  8
0
100
AcDbLine
 10
2.620050096610157
 20
2.849996641642519
 30
0.0
 11
3.018413527159736
 21
2.849996641642519
 31
0.0
  0
LINE
  5
1A31C
330
1A1B9
100
AcDbEntity
  8
0
100
AcDbLine
 10
2.620050096610157
 20
3.149996641642701
 30
0.0
 11
3.018413527159736
 21
3.149996641642701
 31
0.0
  0
LINE
  5
1A31D
330
1A1B9
100
AcDbEntity
  8
0
100
AcDbLine
 10
0.680001379685109
 20
3.15499664164281
 30
0.0
 11
0.680001379685109
 21
2.804996641642446
 31
0.0
  0
LINE
  5
1A31E
330
1A1B9
100
AcDbEntity
  8
0
100
AcDbLine
 10
0.6335375942094288
 20
3.15499664164281
 30
0.0
 11
1.229926632410297
 21
3.15499664164281
 31
0.0
  0
ARC
  5
1A31F
330
1A1B9
100
AcDbEntity
  8
0
100
AcDbCircle
 10
0.3000013796849998
 20
2.114996641642846
 30
0.0
 40
0.3
100
AcDbArc
 50
180.0
 51
270.0
  0
LINE
  5
1A320
330
1A1B9
100
AcDbEntity
  8
0
100
AcDbLine
 10
0.3347750834095677
 20
2.804996641642446
 30
0.0
 11
0.3347750834095677
 21
1.814996641642665
 31
0.0
  0
ARC
  5
1A321
330
1A1B9
100
AcDbEntity
  8
0
100
AcDbCircle
 10
0.3000013796849998
 20
2.504996641642264
 30
0.0
 40
0.3
100
AcDbArc
 50
90.0
 51
180.0
  0
LINE
  5
1A322
330
1A1B9
100
AcDbEntity
  8
0
100
AcDbLine
 10
0.0000013796848179
 20
2.504996641642264
 30
0.0
 11
0.0000013796848179
 21
2.114996641642846
 31
0.0
  0
LINE
  5
1A323
330
1A1B9
100
AcDbEntity
  8
0
100
AcDbLine
 10
0.3409535863352175
 20
3.454996641642082
 30
0.0
 11
0.3000013796849998
 21
3.454996641642082
 31
0.0
  0
LINE
  5
1A324
330
1A1B9
100
AcDbEntity
  8
0
100
AcDbLine
 10
2.620050096610157
 20
4.119996641642046
 30
0.0
 11
3.018413527159736
 21
4.119996641642046
 31
0.0
  0
ARC
  5
1A325
330
1A1B9
100
AcDbEntity
  8
0
100
AcDbCircle
 10
6.230001379684381
 20
1.299996641642337
 30
0.0
 40
0.1
100
AcDbArc
 50
270.0
 51
0.0
  0
ARC
  5
1A326
330
1A1B9
100
AcDbEntity
  8
0
100
AcDbCircle
 10
5.930001379685108
 20
0.8399966416423012
 30
0.0
 40
0.3
100
AcDbArc
 50
270.0
 51
0.0
  0
ARC
  5
1A327
330
1A1B9
100
AcDbEntity
  8
0
100
AcDbCircle
 10
6.230001379684381
 20
1.299996641642337
 30
0.0
 40
0.45
100
AcDbArc
 50
270.0
 51
0.0
  0
LINE
  5
1A328
330
1A1B9
100
AcDbEntity
  8
0
100
AcDbLine
 10
6.680001379685108
 20
2.254996641642264
 30
0.0
 11
6.23000137968529
 21
2.254996641642264
 31
0.0
  0
LINE
  5
1A329
330
1A1B9
100
AcDbEntity
  8
0
100
AcDbLine
 10
6.23000137968529
 20
1.299996641642337
 30
0.0
 11
6.680001379685108
 21
1.299996641642337
 31
0.0
  0
LINE
  5
1A32A
330
1A1B9
100
AcDbEntity
  8
0
100
AcDbLine
 10
6.3145504905101
 20
1.249996641642155
 30
0.0
 11
6.23000137968529
 21
1.249996641642155
 31
0.0
  0
LINE
  5
1A32B
330
1A1B9
100
AcDbEntity
  8
0
100
AcDbLine
 10
6.23000137968529
 20
0.8499966416425195
 30
0.0
 11
7.330001379684745
 21
0.8499966416425195
 31
0.0
  0
LINE
  5
1A32C
330
1A1B9
100
AcDbEntity
  8
0
100
AcDbLine
 10
6.680001379685108
 20
1.299996641642337
 30
0.0
 11
6.680001379685108
 21
2.604996641642628
 31
0.0
  0
LINE
  5
1A32D
330
1A1B9
100
AcDbEntity
  8
0
100
AcDbLine
 10
7.250001379684817
 20
1.249996641642155
 30
0.0
 11
7.250001379684817
 21
1.949996641642883
 31
0.0
  0
ARC
  5
1A32E
330
1A1B9
100
AcDbEntity
  8
0
100
AcDbCircle
 10
7.330001379684745
 20
0.7999966416423377
 30
0.0
 40
0.05
100
AcDbArc
 50
0.0
 51
90.0
  0
LINE
  5
1A32F
330
1A1B9
100
AcDbEntity
  8
0
100
AcDbLine
 10
7.380001379684927
 20
-0.0000033583578443
 30
0.0
 11
7.380001379684927
 21
0.7999966416423377
 31
0.0
  0
LINE
  5
1A330
330
1A1B9
100
AcDbEntity
  8
0
100
AcDbLine
 10
7.430001379685108
 20
1.18683139189261
 30
0.0
 11
7.430001379685108
 21
1.199996641642883
 31
0.0
  0
LINE
  5
1A331
330
1A1B9
100
AcDbEntity
  8
0
100
AcDbLine
 10
7.250001379684817
 20
1.549996641642337
 30
0.0
 11
6.680001379685108
 21
1.549996641642337
 31
0.0
  0
LINE
  5
1A332
330
1A1B9
100
AcDbEntity
  8
0
100
AcDbLine
 10
7.250001379684817
 20
1.249996641642155
 30
0.0
 11
6.673418754809517
 21
1.249996641642155
 31
0.0
  0
LINE
  5
1A333
330
1A1B9
100
AcDbEntity
  8
0
100
AcDbLine
 10
7.430001379685108
 20
1.199996641642883
 30
0.0
 11
6.666836129934836
 21
1.199996641642883
 31
0.0
  0
ARC
  5
1A334
330
1A1B9
100
AcDbEntity
  8
0
100
AcDbCircle
 10
7.060001379685218
 20
2.90499664164281
 30
0.0
 40
0.3
100
AcDbArc
 50
270.0
 51
0.0
  0
LINE
  5
1A335
330
1A1B9
100
AcDbEntity
  8
0
100
AcDbLine
 10
6.780001379684563
 20
1.949996641642883
 30
0.0
 11
6.780001379684563
 21
2.604996641642628
 31
0.0
  0
LINE
  5
1A336
330
1A1B9
100
AcDbEntity
  8
0
100
AcDbLine
 10
7.080001379684745
 20
1.949996641642883
 30
0.0
 11
7.080001379684745
 21
2.604996641642628
 31
0.0
  0
LINE
  5
1A337
330
1A1B9
100
AcDbEntity
  8
0
100
AcDbLine
 10
6.330001379684745
 20
2.604996641642628
 30
0.0
 11
7.060001379685218
 21
2.604996641642628
 31
0.0
  0
LINE
  5
1A338
330
1A1B9
100
AcDbEntity
  8
0
100
AcDbLine
 10
6.23000137968529
 20
2.254996641642264
 30
0.0
 11
5.23000137968529
 21
1.254996641642264
 31
0.0
  0
LINE
  5
1A339
330
1A1B9
100
AcDbEntity
  8
0
100
AcDbLine
 10
5.030001379684563
 20
0.4699966416424104
 30
0.0
 11
5.030001379684563
 21
1.199996641642883
 31
0.0
  0
LINE
  5
1A33A
330
1A1B9
100
AcDbEntity
  8
0
100
AcDbLine
 10
5.23000137968529
 20
1.254996641642264
 30
0.0
 11
5.23000137968529
 21
0.8399966416423012
 31
0.0
  0
LINE
  5
1A33B
330
1A1B9
100
AcDbEntity
  8
0
100
AcDbLine
 10
6.23000137968529
 20
0.8399966416423012
 30
0.0
 11
6.23000137968529
 21
1.299996641642337
 31
0.0
  0
ARC
  5
1A33C
330
1A1B9
100
AcDbEntity
  8
0
100
AcDbCircle
 10
5.530001379684563
 20
0.8399966416423012
 30
0.0
 40
0.3
100
AcDbArc
 50
180.0
 51
270.0
  0
LINE
  5
1A33D
330
1A1B9
100
AcDbEntity
  8
0
100
AcDbLine
 10
5.530001379684563
 20
0.5399966416421194
 30
0.0
 11
5.930001379685108
 21
0.5399966416421194
 31
0.0
  0
LINE
  5
1A33E
330
1A1B9
100
AcDbEntity
  8
0
100
AcDbLine
 10
5.030001379684563
 20
0.8499966416425195
 30
0.0
 11
5.23000137968529
 21
0.8499966416425195
 31
0.0
  0
LINE
  5
1A33F
330
1A1B9
100
AcDbEntity
  8
0
100
AcDbLine
 10
5.23000137968529
 20
1.199996641642883
 30
0.0
 11
1.130001379684927
 21
1.199996641642883
 31
0.0
  0
LINE
  5
1A340
330
1A1B9
100
AcDbEntity
  8
0
100
AcDbLine
 10
5.030001379684563
 20
0.5047703453678878
 30
0.0
 11
1.530001379684563
 21
0.5047703453678878
 31
0.0
  0
ELLIPSE
  5
1A341
330
1A1B9
100
AcDbEntity
  8
0
100
AcDbEllipse
 10
4.907081065409784
 20
1.217267570592866
 30
0.0
 11
-0.25
 21
0.0000000000000001
 31
0.0
210
0.0
220
0.0
230
1.0
 40
0.0690837158
 41
0.096012071
 42
1.570787529499999
  0
ARC
  5
1A342
330
1A1B9
100
AcDbEntity
  8
0
100
AcDbCircle
 10
4.730001379684381
 20
0.4699966416424104
 30
0.0
 40
0.3
100
AcDbArc
 50
270.0
 51
0.0
  0
LINE
  5
1A343
330
1A1B9
100
AcDbEntity
  8
0
100
AcDbLine
 10
5.525001379684454
 20
1.549996641642337
 30
0.0
 11
4.192073584260015
 21
1.549996641642337
 31
0.0
  0
LINE
  5
1A344
330
1A1B9
100
AcDbEntity
  8
0
100
AcDbLine
 10
5.23000137968529
 20
1.249996641642155
 30
0.0
 11
4.610297408909445
 21
1.249996641642155
 31
0.0
  0
LINE
  5
1A345
330
1A1B9
100
AcDbEntity
  8
0
100
AcDbLine
 10
4.341589232209571
 20
5.689996641642665
 30
0.0
 11
4.73995266276006
 21
5.689996641642665
 31
0.0
  0
LINE
  5
1A346
330
1A1B9
100
AcDbEntity
  8
0
100
AcDbLine
 10
4.341589232209571
 20
5.389996641642483
 30
0.0
 11
4.341589232209571
 21
5.689996641642665
 31
0.0
  0
LINE
  5
1A347
330
1A1B9
100
AcDbEntity
  8
0
100
AcDbLine
 10
4.488572808259505
 20
5.389996641642483
 30
0.0
 11
4.488572808259505
 21
5.689996641642665
 31
0.0
  0
LINE
  5
1A348
330
1A1B9
100
AcDbEntity
  8
0
100
AcDbLine
 10
4.341589232209571
 20
5.389996641642483
 30
0.0
 11
4.73995266276006
 21
5.389996641642483
 31
0.0
  0
LINE
  5
1A349
330
1A1B9
100
AcDbEntity
  8
0
100
AcDbLine
 10
4.740001379684599
 20
5.389996641642483
 30
0.0
 11
4.740001379684599
 21
5.689996641642665
 31
0.0
  0
LINE
  5
1A34A
330
1A1B9
100
AcDbEntity
  8
0
100
AcDbLine
 10
2.620001379684708
 20
5.389996641642483
 30
0.0
 11
2.620001379684708
 21
5.689996641642665
 31
0.0
  0
LINE
  5
1A34B
330
1A1B9
100
AcDbEntity
  8
0
100
AcDbLine
 10
2.871429951109803
 20
5.389996641642483
 30
0.0
 11
2.871429951109803
 21
5.689996641642665
 31
0.0
  0
LINE
  5
1A34C
330
1A1B9
100
AcDbEntity
  8
0
100
AcDbLine
 10
3.018413527159736
 20
5.389996641642483
 30
0.0
 11
3.018413527159736
 21
5.689996641642665
 31
0.0
  0
LINE
  5
1A34D
330
1A1B9
100
AcDbEntity
  8
0
100
AcDbLine
 10
2.620050096610157
 20
5.689996641642665
 30
0.0
 11
3.018413527159736
 21
5.689996641642665
 31
0.0
  0
LINE
  5
1A34E
330
1A1B9
100
AcDbEntity
  8
0
100
AcDbLine
 10
2.620050096610157
 20
5.389996641642483
 30
0.0
 11
3.018413527159736
 21
5.389996641642483
 31
0.0
  0
LINE
  5
1A34F
330
1A1B9
100
AcDbEntity
  8
0
100
AcDbLine
 10
4.341589232209571
 20
4.419996641642228
 30
0.0
 11
4.73995266276006
 21
4.419996641642228
 31
0.0
  0
LINE
  5
1A350
330
1A1B9
100
AcDbEntity
  8
0
100
AcDbLine
 10
2.620050096610157
 20
4.419996641642228
 30
0.0
 11
3.018413527159736
 21
4.419996641642228
 31
0.0
  0
LINE
  5
1A351
330
1A1B9
100
AcDbEntity
  8
0
100
AcDbLine
 10
4.390001379685145
 20
5.389996641642483
 30
0.0
 11
4.390001379685145
 21
4.419996641642228
 31
0.0
  0
LINE
  5
1A352
330
1A1B9
100
AcDbEntity
  8
0
100
AcDbLine
 10
2.970001379685072
 20
5.389996641642483
 30
0.0
 11
2.970001379685072
 21
4.419996641642228
 31
0.0
  0
LINE
  5
1A353
330
1A1B9
100
AcDbEntity
  8
0
100
AcDbLine
 10
4.290001379684781
 20
7.309996641642555
 30
0.0
 11
4.290001379684781
 21
2.499996641642155
 31
0.0
  0
LINE
  5
1A354
330
1A1B9
100
AcDbEntity
  8
0
100
AcDbLine
 10
0.3000013796849998
 20
3.454996641642082
 30
0.0
 11
0.3000013796849998
 21
6.354996641642628
 31
0.0
  0
LINE
  5
1A355
330
1A1B9
100
AcDbEntity
  8
0
100
AcDbLine
 10
0.3409535863352175
 20
3.454996641642082
 30
0.0
 11
0.3409535863352175
 21
6.354996641642628
 31
0.0
  0
LINE
  5
1A356
330
1A1B9
100
AcDbEntity
  8
0
100
AcDbLine
 10
1.23000137968529
 20
3.15499664164281
 30
0.0
 11
1.23000137968529
 21
6.65499664164281
 31
0.0
  0
LINE
  5
1A357
330
1A1B9
100
AcDbEntity
  8
0
100
AcDbLine
 10
1.48000137968529
 20
8.259996641642374
 30
0.0
 11
1.48000137968529
 21
1.549996641642337
 31
0.0
  0
LINE
  5
1A358
330
1A1B9
100
AcDbEntity
  8
0
100
AcDbLine
 10
3.070001379684526
 20
7.309996641642555
 30
0.0
 11
3.070001379684526
 21
2.499996641642155
 31
0.0
  0
LINE
  5
1A359
330
1A1B9
100
AcDbEntity
  8
0
100
AcDbLine
 10
6.330001379684745
 20
2.254996641642264
 30
0.0
 11
6.330001379684745
 21
7.554996641642446
 31
0.0
  0
LINE
  5
1A35A
330
1A1B9
100
AcDbEntity
  8
0
100
AcDbLine
 10
7.02522767595974
 20
7.204996641642082
 30
0.0
 11
7.02522767595974
 21
2.604996641642628
 31
0.0
  0
LINE
  5
1A35B
330
1A1B9
100
AcDbEntity
  8
0
100
AcDbLine
 10
7.36000137968449
 20
6.90499664164281
 30
0.0
 11
7.36000137968449
 21
2.90499664164281
 31
0.0
  0
LINE
  5
1A35C
330
1A1B9
100
AcDbEntity
  8
0
100
AcDbLine
 10
4.390001379685145
 20
6.659996641642919
 30
0.0
 11
4.390001379685145
 21
5.689996641642665
 31
0.0
  0
LINE
  5
1A35D
330
1A1B9
100
AcDbEntity
  8
0
100
AcDbLine
 10
2.970001379685072
 20
6.659996641642919
 30
0.0
 11
2.970001379685072
 21
5.689996641642665
 31
0.0
  0
ENDBLK
  5
1A35F
330
1A1B9
100
AcDbEntity
  8
0
100
AcDbBlockEnd
  0
BLOCK
  5
1AA0A
330
1AA06
100
AcDbEntity
  8
0
100
AcDbBlockBegin
  2
_Open
 70
     0
 10
0.0
 20
0.0
 30
0.0
  3
_Open
  1

  0
LINE
  5
1AA07
330
1AA06
100
AcDbEntity
  8
0
  6
ByBlock
 62
     0
370
    -2
100
AcDbLine
 10
-1.0
 20
0.1666666666666666
 30
0.0
 11
0.0
 21
0.0
 31
0.0
  0
LINE
  5
1AA08
330
1AA06
100
AcDbEntity
  8
0
  6
ByBlock
 62
     0
370
    -2
100
AcDbLine
 10
-1.0
 20
-0.1666666666666666
 30
0.0
 11
0.0
 21
0.0
 31
0.0
  0
LINE
  5
1AA09
330
1AA06
100
AcDbEntity
  8
0
  6
ByBlock
 62
     0
370
    -2
100
AcDbLine
 10
0.0
 20
0.0
 30
0.0
 11
-1.0
 21
0.0
 31
0.0
  0
ENDBLK
  5
1AA0B
330
1AA06
100
AcDbEntity
  8
0
100
AcDbBlockEnd
  0
ENDSEC
  0
SECTION
  2
ENTITIES
  0
LINE
  5
17ED0
330
18
100
AcDbEntity
  8
1
100
AcDbLine
 10
606.0113086849471
 20
-3435.501904147465
 30
0.0
 11
621.0113086849471
 21
-3435.501904147465
 31
0.0
  0
LINE
  5
17ED1
330
18
100
AcDbEntity
  8
1
100
AcDbLine
 10
613.5113086849472
 20
-3443.001904147465
 30
0.0
 11
613.5113086849472
 21
-3428.001904147466
 31
0.0
  0
LINE
  5
17ED2
330
18
100
AcDbEntity
  8
1
100
AcDbLine
 10
613.5113086849469
 20
-3259.001904147465
 30
0.0
 11
613.5113086849469
 21
-3244.001904147465
 31
0.0
  0
LINE
  5
17ED3
330
18
100
AcDbEntity
  8
1
100
AcDbLine
 10
606.0113086849471
 20
-3251.501904147465
 30
0.0
 11
621.0113086849471
 21
-3251.501904147465
 31
0.0
  0
INSERT
  5
17EDF
330
18
100
AcDbEntity
  8
0
100
AcDbBlockReference
  2
A$C7A762DB8
 10
570.5113124268129
 20
-3611.475715498094
 30
0.0
  0
INSERT
  5
17EE0
330
18
100
AcDbEntity
  8
0
100
AcDbBlockReference
  2
A$C413B70EE
 10
735.9113088510177
 20
-3447.00190648595
 30
0.0
  0
LINE
  5
17EEF
330
18
100
AcDbEntity
  8
0
100
AcDbLine
 10
589.5113086849471
 20
-3409.868723722552
 30
0.0
 11
589.5113086849471
 21
-3256.528090069035
 31
0.0
  0
LINE
  5
17EF0
330
18
100
AcDbEntity
  8
0
100
AcDbLine
 10
590.5113086849471
 20
-3256.501904147465
 30
0.0
 11
590.5113086849461
 21
-3409.120123687428
 31
0.0
  0
LINE
  5
17EF1
330
18
100
AcDbEntity
  8
0
100
AcDbLine
 10
592.5113086849471
 20
-3258.501904147466
 30
0.0
 11
592.5113086849461
 21
-3407.916208129962
 31
0.0
  0
LINE
  5
17EF2
330
18
100
AcDbEntity
  8
0
100
AcDbLine
 10
589.5113086849471
 20
-3409.868723722552
 30
0.0
 11
589.5113086849471
 21
-3257.001904147466
 31
0.0
  0
LINE
  5
17EF4
330
18
100
AcDbEntity
  8
0
100
AcDbLine
 10
642.5113086849471
 20
-3247.501904147465
 30
0.0
 11
642.5113086849471
 21
-3439.501904147465
 31
0.0
  0
LINE
  5
17EF5
330
18
100
AcDbEntity
  8
0
100
AcDbLine
 10
640.5113086849471
 20
-3428.501904147465
 30
0.0
 11
640.5113086849471
 21
-3258.501904147466
 31
0.0
  0
LINE
  5
17EF6
330
18
100
AcDbEntity
  8
0
100
AcDbLine
 10
642.5113086849471
 20
-3430.501904147465
 30
0.0
 11
642.5113086849471
 21
-3256.501904147465
 31
0.0
  0
LINE
  5
17EF8
330
18
100
AcDbEntity
  8
0
100
AcDbLine
 10
570.5113086849471
 20
-3247.947407606632
 30
0.0
 11
570.5113086849471
 21
-3439.056400688299
 31
0.0
  0
ARC
  5
17EF9
330
18
100
AcDbEntity
  8
0
100
AcDbCircle
 10
613.5113086849472
 20
-3435.501904147465
 30
0.0
 40
5.5
100
AcDbArc
 50
0.0
 51
65.3800226713519
  0
LINE
  5
17EFA
330
18
100
AcDbEntity
  8
0
100
AcDbLine
 10
615.6113086849471
 20
-3440.501904147466
 30
0.0
 11
619.0113086849461
 21
-3440.501904147466
 31
0.0
  0
LINE
  5
17EFB
330
18
100
AcDbEntity
  8
0
100
AcDbLine
 10
590.5113086849461
 20
-3430.501904147465
 30
0.0
 11
642.5113086849471
 21
-3430.501904147465
 31
0.0
  0
LINE
  5
17EFC
330
18
100
AcDbEntity
  8
0
100
AcDbLine
 10
640.5113086849471
 20
-3428.501904147465
 30
0.0
 11
595.5113086849421
 21
-3428.501904147465
 31
0.0
  0
LINE
  5
17EFE
330
18
100
AcDbEntity
  8
0
100
AcDbLine
 10
570.998220210793
 20
-3430.043307786246
 30
0.0
 11
588.5113086849471
 21
-3430.501904147465
 31
0.0
  0
LINE
  5
17EFF
330
18
100
AcDbEntity
  8
0
100
AcDbLine
 10
588.5113086849471
 20
-3440.501904147466
 30
0.0
 11
571.485131736639
 21
-3440.056058013274
 31
0.0
  0
ARC
  5
17F00
330
18
100
AcDbEntity
  8
0
100
AcDbCircle
 10
571.5113086849471
 20
-3439.056400688299
 30
0.0
 40
1.0
100
AcDbArc
 50
180.0
 51
268.4999999999972
  0
ARC
  5
17F01
330
18
100
AcDbEntity
  8
0
100
AcDbCircle
 10
571.0113086849471
 20
-3429.543479123759
 30
0.0
 40
0.5
100
AcDbArc
 50
180.0
 51
268.4999999999972
  0
LINE
  5
17F02
330
18
100
AcDbEntity
  8
0
100
AcDbLine
 10
611.4113086849471
 20
-3435.501904147465
 30
0.0
 11
611.4113086849471
 21
-3440.501904147466
 31
0.0
  0
LINE
  5
17F03
330
18
100
AcDbEntity
  8
0
100
AcDbLine
 10
615.6113086849471
 20
-3435.501904147465
 30
0.0
 11
615.6113086849471
 21
-3440.501904147466
 31
0.0
  0
LINE
  5
17F04
330
18
100
AcDbEntity
  8
0
100
AcDbLine
 10
608.0113086849471
 20
-3435.501904147465
 30
0.0
 11
608.0113086849471
 21
-3440.501904147466
 31
0.0
  0
LINE
  5
17F05
330
18
100
AcDbEntity
  8
0
100
AcDbLine
 10
588.5113086849471
 20
-3440.501904147466
 30
0.0
 11
611.4113086849471
 21
-3440.501904147466
 31
0.0
  0
LINE
  5
17F06
330
18
100
AcDbEntity
  8
0
100
AcDbLine
 10
588.5113086849471
 20
-3440.501904147466
 30
0.0
 11
611.2613086849471
 21
-3440.501904147466
 31
0.0
  0
LINE
  5
17F09
330
18
100
AcDbEntity
  8
0
100
AcDbLine
 10
592.511308684943
 20
-3413.501904147465
 30
0.0
 11
592.5113086849421
 21
-3430.397160461188
 31
0.0
  0
LINE
  5
17F0A
330
18
100
AcDbEntity
  8
0
100
AcDbLine
 10
593.5113086849431
 20
-3413.501904147465
 30
0.0
 11
593.5113086849421
 21
-3430.501904147465
 31
0.0
  0
LINE
  5
17F0B
330
18
100
AcDbEntity
  8
0
100
AcDbLine
 10
595.511308684943
 20
-3413.501904147465
 30
0.0
 11
595.5113086849421
 21
-3428.501904147465
 31
0.0
  0
LINE
  5
17F0C
330
18
100
AcDbEntity
  8
0
100
AcDbLine
 10
592.511308684943
 20
-3413.501904147465
 30
0.0
 11
592.5113086849421
 21
-3430.001904147465
 31
0.0
  0
LINE
  5
17F0E
330
18
100
AcDbEntity
  8
0
100
AcDbLine
 10
588.5113086849471
 20
-3430.501904147465
 30
0.0
 11
592.5113086849421
 21
-3430.397160461188
 31
0.0
  0
LINE
  5
17F0F
330
18
100
AcDbEntity
  8
0
100
AcDbLine
 10
588.5113086849471
 20
-3430.501904147465
 30
0.0
 11
592.511308684943
 21
-3430.397160461188
 31
0.0
  0
CIRCLE
  5
17F10
330
18
100
AcDbEntity
  8
0
100
AcDbCircle
 10
588.5113086849471
 20
-3425.501904147466
 30
0.0
 40
1.6
  0
CIRCLE
  5
17F11
330
18
100
AcDbEntity
  8
0
100
AcDbCircle
 10
588.5113086849471
 20
-3425.501904147466
 30
0.0
 40
2.0
  0
LINE
  5
17F12
330
18
100
AcDbEntity
  8
0
100
AcDbLine
 10
590.5113086849446
 20
-3430.449532304328
 30
0.0
 11
590.5113086849461
 21
-3430.501904147465
 31
0.0
  0
LINE
  5
17F13
330
18
100
AcDbEntity
  8
0
100
AcDbLine
 10
593.5113086849421
 20
-3430.001904147465
 30
0.0
 11
592.5113086849421
 21
-3430.001904147466
 31
0.0
  0
ARC
  5
17F14
330
18
100
AcDbEntity
  8
0
100
AcDbCircle
 10
588.8113086849471
 20
-3413.501904147465
 30
0.0
 40
3.699999999995999
100
AcDbArc
 50
0.0
 51
79.09453000325761
  0
ARC
  5
17F15
330
18
100
AcDbEntity
  8
0
100
AcDbCircle
 10
588.8113086849471
 20
-3413.501904147465
 30
0.0
 40
4.699999999995999
100
AcDbArc
 50
0.0
 51
68.79523363709402
  0
ARC
  5
17F16
330
18
100
AcDbEntity
  8
0
100
AcDbCircle
 10
588.8113086849471
 20
-3413.501904147465
 30
0.0
 40
3.699999999995999
100
AcDbArc
 50
0.0
 51
79.09453000325761
  0
LINE
  5
17F17
330
18
100
AcDbEntity
  8
0
100
AcDbLine
 10
586.861308684947
 20
-3407.501904147465
 30
0.0
 11
586.861308684947
 21
-3406.151904147466
 31
0.0
  0
LINE
  5
17F18
330
18
100
AcDbEntity
  8
0
100
AcDbLine
 10
587.161308684946
 20
-3407.501904147465
 30
0.0
 11
587.161308684946
 21
-3406.151904147466
 31
0.0
  0
ARC
  5
17F19
330
18
100
AcDbEntity
  8
0
100
AcDbCircle
 10
587.0113086849471
 20
-3406.151904147466
 30
0.0
 40
0.15
100
AcDbArc
 50
0.0
 51
180.0
  0
ARC
  5
17F1A
330
18
100
AcDbEntity
  8
0
100
AcDbCircle
 10
588.3613086849471
 20
-3407.651904147466
 30
0.0
 40
0.15
100
AcDbArc
 50
270.0
 51
90.0
  0
LINE
  5
17F1B
330
18
100
AcDbEntity
  8
0
100
AcDbLine
 10
587.161308684946
 20
-3407.501904147465
 30
0.0
 11
588.3613086849471
 21
-3407.501904147465
 31
0.0
  0
LINE
  5
17F1C
330
18
100
AcDbEntity
  8
0
100
AcDbLine
 10
586.0613086849471
 20
-3408.151904147465
 30
0.0
 11
587.9613086849461
 21
-3408.151904147465
 31
0.0
  0
LINE
  5
17F1D
330
18
100
AcDbEntity
  8
0
100
AcDbLine
 10
586.0613086849471
 20
-3408.451904147465
 30
0.0
 11
587.9613086849461
 21
-3408.451904147465
 31
0.0
  0
LINE
  5
17F1E
330
18
100
AcDbEntity
  8
0
100
AcDbLine
 10
586.4613086849471
 20
-3408.801904147466
 30
0.0
 11
587.5613086849462
 21
-3408.801904147466
 31
0.0
  0
LINE
  5
17F1F
330
18
100
AcDbEntity
  8
0
100
AcDbLine
 10
586.4613086849471
 20
-3409.101904147465
 30
0.0
 11
587.5613086849462
 21
-3409.101904147465
 31
0.0
  0
ARC
  5
17F20
330
18
100
AcDbEntity
  8
0
100
AcDbCircle
 10
586.4613086849471
 20
-3408.951904147466
 30
0.0
 40
0.15
100
AcDbArc
 50
90.0
 51
270.0
  0
ARC
  5
17F21
330
18
100
AcDbEntity
  8
0
100
AcDbCircle
 10
587.5613086849462
 20
-3408.951904147466
 30
0.0
 40
0.15
100
AcDbArc
 50
270.0
 51
90.0
  0
ARC
  5
17F22
330
18
100
AcDbEntity
  8
0
100
AcDbCircle
 10
586.0613086849471
 20
-3408.301904147466
 30
0.0
 40
0.15
100
AcDbArc
 50
90.0
 51
270.0
  0
ARC
  5
17F23
330
18
100
AcDbEntity
  8
0
100
AcDbCircle
 10
587.9613086849461
 20
-3408.301904147466
 30
0.0
 40
0.15
100
AcDbArc
 50
270.0
 51
90.0
  0
ARC
  5
17F24
330
18
100
AcDbEntity
  8
0
100
AcDbCircle
 10
585.6613086849471
 20
-3407.651904147466
 30
0.0
 40
0.15
100
AcDbArc
 50
90.0
 51
270.0
  0
CIRCLE
  5
17F25
330
18
100
AcDbEntity
  8
0
100
AcDbCircle
 10
587.0113086849471
 20
-3407.501904147465
 30
0.0
 40
2.149999999999999
  0
CIRCLE
  5
17F26
330
18
100
AcDbEntity
  8
0
100
AcDbCircle
 10
587.0113086849471
 20
-3407.501904147465
 30
0.0
 40
1.85
  0
LINE
  5
17F27
330
18
100
AcDbEntity
  8
0
100
AcDbLine
 10
585.6613086849471
 20
-3407.801904147466
 30
0.0
 11
588.3613086849471
 21
-3407.801904147466
 31
0.0
  0
LINE
  5
17F28
330
18
100
AcDbEntity
  8
0
100
AcDbLine
 10
585.6613086849471
 20
-3407.501904147465
 30
0.0
 11
586.861308684947
 21
-3407.501904147465
 31
0.0
  0
CIRCLE
  5
17F29
330
18
100
AcDbEntity
  8
0
100
AcDbCircle
 10
588.5113086849471
 20
-3415.501904147466
 30
0.0
 40
2.0
  0
CIRCLE
  5
17F2A
330
18
100
AcDbEntity
  8
0
100
AcDbCircle
 10
588.5113086849471
 20
-3415.501904147466
 30
0.0
 40
1.6
  0
ARC
  5
17F2B
330
18
100
AcDbEntity
  8
0
100
AcDbCircle
 10
588.8113086849471
 20
-3413.501904147465
 30
0.0
 40
6.699999999996
100
AcDbArc
 50
0.0
 51
56.47925960397123
  0
ARC
  5
17F2E
330
18
100
AcDbEntity
  8
0
100
AcDbCircle
 10
613.5113086849472
 20
-3435.501904147465
 30
0.0
 40
5.5
100
AcDbArc
 50
114.6199773286481
 51
180.0
  0
ARC
  5
17F31
330
18
100
AcDbEntity
  8
0
100
AcDbCircle
 10
613.5113086849472
 20
-3435.501904147465
 30
0.0
 40
2.1
100
AcDbArc
 50
0.0
 51
180.0
  0
LINE
  5
17F37
330
18
100
AcDbEntity
  8
0
100
AcDbLine
 10
638.0113086849461
 20
-3447.001904147465
 30
0.0
 11
638.0113086849461
 21
-3430.501904147465
 31
0.0
  0
LINE
  5
17F38
330
18
100
AcDbEntity
  8
0
100
AcDbLine
 10
619.0113086849471
 20
-3435.501904147465
 30
0.0
 11
619.0113086849471
 21
-3440.501904147466
 31
0.0
  0
LINE
  5
17F39
330
18
100
AcDbEntity
  8
0
100
AcDbLine
 10
619.0113086849461
 20
-3447.001904147465
 30
0.0
 11
619.0113086849461
 21
-3430.501904147465
 31
0.0
  0
ARC
  5
17F3A
330
18
100
AcDbEntity
  8
0
100
AcDbCircle
 10
628.5113086849461
 20
-3437.501904147465
 30
0.0
 40
7.5
100
AcDbArc
 50
180.0
 51
0.0
  0
LINE
  5
17F3B
330
18
100
AcDbEntity
  8
0
100
AcDbLine
 10
638.0113086849461
 20
-3447.001904147465
 30
0.0
 11
619.0113086849461
 21
-3447.001904147465
 31
0.0
  0
ARC
  5
17F3C
330
18
100
AcDbEntity
  8
0
100
AcDbCircle
 10
628.5113086849461
 20
-3437.501904147465
 30
0.0
 40
9.5
100
AcDbArc
 50
186.0423284190442
 51
353.9576715809557
  0
LINE
  5
17F3D
330
18
100
AcDbEntity
  8
0
100
AcDbLine
 10
621.078274311287
 20
-3438.501904147465
 30
0.0
 11
619.0640868711011
 21
-3438.501904147465
 31
0.0
  0
LINE
  5
17F3E
330
18
100
AcDbEntity
  8
0
100
AcDbLine
 10
638.011308684946
 20
-3440.501904147466
 30
0.0
 11
641.5113086849471
 21
-3440.501904147466
 31
0.0
  0
LINE
  5
17F3F
330
18
100
AcDbEntity
  8
0
100
AcDbLine
 10
637.9585304987921
 20
-3438.501904147465
 30
0.0
 11
635.9443430586061
 21
-3438.501904147465
 31
0.0
  0
ARC
  5
17F40
330
18
100
AcDbEntity
  8
0
100
AcDbCircle
 10
641.5113086849471
 20
-3439.501904147465
 30
0.0
 40
1.0
100
AcDbArc
 50
270.0
 51
0.0
  0
LINE
  5
17F46
330
18
100
AcDbEntity
  8
0
100
AcDbLine
 10
621.011308684946
 20
-3430.501904147465
 30
0.0
 11
621.0113086849461
 21
-3437.501904147465
 31
0.0
  0
LINE
  5
17F5C
330
18
100
AcDbEntity
  8
0
100
AcDbLine
 10
636.011308684946
 20
-3430.501904147465
 30
0.0
 11
636.0113086849461
 21
-3437.501904147465
 31
0.0
  0
ARC
  5
17F68
330
18
100
AcDbEntity
  8
0
100
AcDbCircle
 10
613.5113086849472
 20
-3251.501904147465
 30
0.0
 40
5.5
100
AcDbArc
 50
294.619977328648
 51
0.0
  0
LINE
  5
17F69
330
18
100
AcDbEntity
  8
0
100
AcDbLine
 10
588.5113086849471
 20
-3246.501904147465
 30
0.0
 11
641.5113086849471
 21
-3246.501904147465
 31
0.0
  0
LINE
  5
17F6A
330
18
100
AcDbEntity
  8
0
100
AcDbLine
 10
590.5113086849471
 20
-3256.501904147465
 30
0.0
 11
642.5113086849471
 21
-3256.501904147465
 31
0.0
  0
LINE
  5
17F6B
330
18
100
AcDbEntity
  8
0
100
AcDbLine
 10
640.5113086849471
 20
-3258.501904147466
 30
0.0
 11
592.5113086849471
 21
-3258.501904147466
 31
0.0
  0
LINE
  5
17F6D
330
18
100
AcDbEntity
  8
0
100
AcDbLine
 10
588.5113086849471
 20
-3246.501904147465
 30
0.0
 11
641.5113086849471
 21
-3246.501904147465
 31
0.0
  0
CIRCLE
  5
17F6E
330
18
100
AcDbEntity
  8
0
100
AcDbCircle
 10
613.5113086849472
 20
-3251.501904147465
 30
0.0
 40
2.1
  0
LINE
  5
17F6F
330
18
100
AcDbEntity
  8
0
100
AcDbLine
 10
608.0113086849471
 20
-3251.501904147465
 30
0.0
 11
608.0113086849471
 21
-3246.501904147465
 31
0.0
  0
LINE
  5
17FD2
330
18
100
AcDbEntity
  8
0
100
AcDbLine
 10
570.998220210793
 20
-3256.960500508683
 30
0.0
 11
588.5113086849471
 21
-3256.501904147465
 31
0.0
  0
ARC
  5
17FD3
330
18
100
AcDbEntity
  8
0
100
AcDbCircle
 10
571.0113086849471
 20
-3257.460329171172
 30
0.0
 40
0.5
100
AcDbArc
 50
91.50000000000281
 51
180.0
  0
LINE
  5
1800C
330
18
100
AcDbEntity
  8
0
100
AcDbLine
 10
588.5113086849471
 20
-3256.501904147465
 30
0.0
 11
589.5113086849471
 21
-3256.528090069035
 31
0.0
  0
LINE
  5
1800D
330
18
100
AcDbEntity
  8
0
100
AcDbLine
 10
589.5113086849471
 20
-3260.501904147465
 30
0.0
 11
589.5243971591001
 21
-3260.501561413708
 31
0.0
  0
LINE
  5
1800E
330
18
100
AcDbEntity
  8
0
100
AcDbLine
 10
590.5113086849471
 20
-3257.001904147466
 30
0.0
 11
589.5113086849471
 21
-3257.001904147466
 31
0.0
  0
ARC
  5
1801F
330
18
100
AcDbEntity
  8
0
100
AcDbCircle
 10
613.5113086849472
 20
-3251.501904147465
 30
0.0
 40
5.5
100
AcDbArc
 50
180.0
 51
245.3800226713519
  0
LINE
  5
18021
330
18
100
AcDbEntity
  8
0
100
AcDbLine
 10
588.5113086849471
 20
-3246.501904147465
 30
0.0
 11
571.485131736639
 21
-3246.947750281656
 31
0.0
  0
ARC
  5
18022
330
18
100
AcDbEntity
  8
0
100
AcDbCircle
 10
571.5113086849471
 20
-3247.947407606632
 30
0.0
 40
1.0
100
AcDbArc
 50
91.50000000000281
 51
180.0
  0
LINE
  5
18023
330
18
100
AcDbEntity
  8
0
100
AcDbLine
 10
619.0113086849471
 20
-3251.501904147465
 30
0.0
 11
619.0113086849471
 21
-3246.501904147465
 31
0.0
  0
ARC
  5
1806E
330
18
100
AcDbEntity
  8
0
100
AcDbCircle
 10
641.5113086849471
 20
-3247.501904147465
 30
0.0
 40
1.0
100
AcDbArc
 50
0.0
 51
90.0
  0
ARC
  5
1806F
330
18
100
AcDbEntity
  8
0
100
AcDbCircle
 10
641.5113086849471
 20
-3247.501904147465
 30
0.0
 40
1.0
100
AcDbArc
 50
0.0
 51
90.0
  0
LINE
  5
1A512
330
18
100
AcDbEntity
  8
0
100
AcDbLine
 10
609.7113088068643
 20
-3351.30190430681
 30
0.0
 11
609.7113088068643
 21
-3354.90190430681
 31
0.0
  0
LINE
  5
1A513
330
18
100
AcDbEntity
  8
0
100
AcDbLine
 10
608.1113088068641
 20
-3340.001904306809
 30
0.0
 11
608.1113088068641
 21
-3351.30190430681
 31
0.0
  0
LINE
  5
1A514
330
18
100
AcDbEntity
  8
0
100
AcDbLine
 10
608.1113088068641
 20
-3371.901904306809
 30
0.0
 11
609.7113088068643
 21
-3371.901904306809
 31
0.0
  0
LINE
  5
1A515
330
18
100
AcDbEntity
  8
0
100
AcDbLine
 10
608.1113088068641
 20
-3354.90190430681
 30
0.0
 11
609.7113088068643
 21
-3354.90190430681
 31
0.0
  0
LINE
  5
1A516
330
18
100
AcDbEntity
  8
0
100
AcDbLine
 10
608.1113088068641
 20
-3351.30190430681
 30
0.0
 11
609.7113088068643
 21
-3351.30190430681
 31
0.0
  0
LINE
  5
1A517
330
18
100
AcDbEntity
  8
0
100
AcDbLine
 10
608.1113088068641
 20
-3368.30190430681
 30
0.0
 11
609.7113088068643
 21
-3368.30190430681
 31
0.0
  0
LINE
  5
1A518
330
18
100
AcDbEntity
  8
0
100
AcDbLine
 10
609.7113088068643
 20
-3368.30190430681
 30
0.0
 11
609.7113088068643
 21
-3371.901904306809
 31
0.0
  0
LINE
  5
1A519
330
18
100
AcDbEntity
  8
0
100
AcDbLine
 10
608.1113088068641
 20
-3354.90190430681
 30
0.0
 11
608.1113088068641
 21
-3368.30190430681
 31
0.0
  0
LINE
  5
1A51A
330
18
100
AcDbEntity
  8
0
100
AcDbLine
 10
597.5113088068642
 20
-3340.001904306809
 30
0.0
 11
597.5113088068642
 21
-3426.301904306809
 31
0.0
  0
LINE
  5
1A51B
330
18
100
AcDbEntity
  8
0
100
AcDbLine
 10
607.411308806864
 20
-3272.401904306809
 30
0.0
 11
607.411308806864
 21
-3280.401904306809
 31
0.0
  0
LINE
  5
1A51C
330
18
100
AcDbEntity
  8
0
100
AcDbLine
 10
607.411308806864
 20
-3280.401904306809
 30
0.0
 11
610.4113088068641
 21
-3280.401904306809
 31
0.0
  0
LINE
  5
1A51D
330
18
100
AcDbEntity
  8
0
100
AcDbLine
 10
610.4113088068641
 20
-3280.401904306809
 30
0.0
 11
610.4113088068641
 21
-3288.60190430681
 31
0.0
  0
CIRCLE
  5
1A51E
330
18
100
AcDbEntity
  8
0
100
AcDbCircle
 10
602.7613086849462
 20
-3276.671904147466
 30
0.0
 40
1.290290050200999
  0
LINE
  5
1A51F
330
18
100
AcDbEntity
  8
0
100
AcDbLine
 10
606.5113086849462
 20
-3272.921904147465
 30
0.0
 11
598.6113086849464
 21
-3272.921904147465
 31
0.0
  0
LINE
  5
1A520
330
18
100
AcDbEntity
  8
0
100
AcDbLine
 10
606.5113086849462
 20
-3280.421904147464
 30
0.0
 11
598.6113086849464
 21
-3280.421904147464
 31
0.0
  0
LINE
  5
1A521
330
18
100
AcDbEntity
  8
0
100
AcDbLine
 10
606.5113086849462
 20
-3280.421904147464
 30
0.0
 11
606.5113086849462
 21
-3272.921904147465
 31
0.0
  0
LINE
  5
1A522
330
18
100
AcDbEntity
  8
0
100
AcDbLine
 10
599.0113086849462
 20
-3280.421904147464
 30
0.0
 11
599.0113086849462
 21
-3272.921904147465
 31
0.0
  0
LINE
  5
1A523
330
18
100
AcDbEntity
  8
0
100
AcDbLine
 10
598.6113086849464
 20
-3273.831904147465
 30
0.0
 11
598.6113086849464
 21
-3272.921904147465
 31
0.0
  0
LINE
  5
1A524
330
18
100
AcDbEntity
  8
0
100
AcDbLine
 10
598.6113086849472
 20
-3273.831904147464
 30
0.0
 11
599.0113086849462
 21
-3273.831904147464
 31
0.0
  0
LINE
  5
1A525
330
18
100
AcDbEntity
  8
0
100
AcDbLine
 10
598.6113086849472
 20
-3274.431904147465
 30
0.0
 11
599.0113086849462
 21
-3274.431904147465
 31
0.0
  0
LINE
  5
1A526
330
18
100
AcDbEntity
  8
0
100
AcDbLine
 10
598.6113086849472
 20
-3279.511904147465
 30
0.0
 11
599.0113086849462
 21
-3279.511904147465
 31
0.0
  0
LINE
  5
1A527
330
18
100
AcDbEntity
  8
0
100
AcDbLine
 10
598.6113086849472
 20
-3278.911904147465
 30
0.0
 11
599.0113086849462
 21
-3278.911904147465
 31
0.0
  0
LINE
  5
1A528
330
18
100
AcDbEntity
  8
0
100
AcDbLine
 10
598.6113086849472
 20
-3276.371904147464
 30
0.0
 11
599.0113086849462
 21
-3276.371904147464
 31
0.0
  0
LINE
  5
1A529
330
18
100
AcDbEntity
  8
0
100
AcDbLine
 10
598.6113086849472
 20
-3276.971904147465
 30
0.0
 11
599.0113086849462
 21
-3276.971904147465
 31
0.0
  0
LINE
  5
1A52A
330
18
100
AcDbEntity
  8
0
100
AcDbLine
 10
598.6113086849464
 20
-3280.421904147464
 30
0.0
 11
598.6113086849464
 21
-3279.511904147465
 31
0.0
  0
LINE
  5
1A52B
330
18
100
AcDbEntity
  8
0
100
AcDbLine
 10
598.6113086849464
 20
-3304.461904147466
 30
0.0
 11
605.8613086849472
 21
-3304.461904147466
 31
0.0
  0
CIRCLE
  5
1A52C
330
18
100
AcDbEntity
  8
0
100
AcDbCircle
 10
602.1113086849464
 20
-3291.511904147466
 30
0.0
 40
1.0
  0
CIRCLE
  5
1A52D
330
18
100
AcDbEntity
  8
0
100
AcDbCircle
 10
602.1113086849464
 20
-3295.011904147465
 30
0.0
 40
1.0
  0
CIRCLE
  5
1A52E
330
18
100
AcDbEntity
  8
0
100
AcDbCircle
 10
602.1113086849464
 20
-3298.511904147466
 30
0.0
 40
1.0
  0
CIRCLE
  5
1A52F
330
18
100
AcDbEntity
  8
0
100
AcDbCircle
 10
602.1113086849464
 20
-3302.011904147466
 30
0.0
 40
1.0
  0
LINE
  5
1A530
330
18
100
AcDbEntity
  8
0
100
AcDbLine
 10
605.8613086849472
 20
-3304.461904147466
 30
0.0
 11
605.8613086849472
 21
-3289.061904147466
 31
0.0
  0
LINE
  5
1A531
330
18
100
AcDbEntity
  8
0
100
AcDbLine
 10
605.8613086849472
 20
-3289.061904147466
 30
0.0
 11
598.6113086849464
 21
-3289.061904147466
 31
0.0
  0
LINE
  5
1A532
330
18
100
AcDbEntity
  8
0
100
AcDbLine
 10
598.6113086849464
 20
-3289.061904147466
 30
0.0
 11
598.6113086849464
 21
-3304.461904147466
 31
0.0
  0
LINE
  5
1A533
330
18
100
AcDbEntity
  8
0
100
AcDbLine
 10
608.8113086849473
 20
-3286.611904147466
 30
0.0
 11
604.0358137559553
 21
-3286.611904147466
 31
0.0
  0
LINE
  5
1A534
330
18
100
AcDbEntity
  8
0
100
AcDbLine
 10
608.8113086849473
 20
-3282.871904147465
 30
0.0
 11
604.0358137559553
 21
-3282.871904147465
 31
0.0
  0
LINE
  5
1A535
330
18
100
AcDbEntity
  8
0
100
AcDbLine
 10
608.8113086849473
 20
-3288.061904147466
 30
0.0
 11
598.6113086849472
 21
-3288.061904147466
 31
0.0
  0
LINE
  5
1A536
330
18
100
AcDbEntity
  8
0
100
AcDbLine
 10
608.8113086849473
 20
-3281.421904147466
 30
0.0
 11
598.6113086849472
 21
-3281.421904147466
 31
0.0
  0
LINE
  5
1A537
330
18
100
AcDbEntity
  8
0
100
AcDbLine
 10
608.8113086849473
 20
-3284.071904147465
 30
0.0
 11
605.8113086849473
 21
-3284.071904147465
 31
0.0
  0
LINE
  5
1A538
330
18
100
AcDbEntity
  8
0
100
AcDbLine
 10
608.8113086849473
 20
-3285.411904147466
 30
0.0
 11
605.8113086849473
 21
-3285.411904147466
 31
0.0
  0
LINE
  5
1A539
330
18
100
AcDbEntity
  8
0
100
AcDbLine
 10
608.8113086849473
 20
-3286.611904147466
 30
0.0
 11
605.8113086849473
 21
-3286.611904147466
 31
0.0
  0
LINE
  5
1A53A
330
18
100
AcDbEntity
  8
0
100
AcDbLine
 10
605.8113086849473
 20
-3284.071904147465
 30
0.0
 11
605.8113086849473
 21
-3282.871904147465
 31
0.0
  0
LINE
  5
1A53B
330
18
100
AcDbEntity
  8
0
100
AcDbLine
 10
605.8113086849473
 20
-3286.611904147466
 30
0.0
 11
605.8113086849473
 21
-3285.411904147466
 31
0.0
  0
LINE
  5
1A53C
330
18
100
AcDbEntity
  8
0
100
AcDbLine
 10
607.3113086849473
 20
-3285.411904147466
 30
0.0
 11
607.3113086849473
 21
-3284.071904147465
 31
0.0
  0
LINE
  5
1A53D
330
18
100
AcDbEntity
  8
0
100
AcDbLine
 10
607.8113086849473
 20
-3284.071904147465
 30
0.0
 11
607.8113086849473
 21
-3282.871904147465
 31
0.0
  0
LINE
  5
1A53E
330
18
100
AcDbEntity
  8
0
100
AcDbLine
 10
607.8113086849473
 20
-3286.611904147466
 30
0.0
 11
607.8113086849473
 21
-3285.411904147466
 31
0.0
  0
LINE
  5
1A53F
330
18
100
AcDbEntity
  8
0
100
AcDbLine
 10
608.8113086849473
 20
-3288.061904147466
 30
0.0
 11
608.8113086849473
 21
-3281.421904147466
 31
0.0
  0
LINE
  5
1A540
330
18
100
AcDbEntity
  8
0
100
AcDbLine
 10
604.0358137559553
 20
-3282.871904147465
 30
0.0
 11
604.0358137559553
 21
-3286.611904147466
 31
0.0
  0
LINE
  5
1A541
330
18
100
AcDbEntity
  8
0
100
AcDbLine
 10
598.6113086849472
 20
-3288.061904147466
 30
0.0
 11
598.6113086849472
 21
-3281.421904147466
 31
0.0
  0
LINE
  5
1A542
330
18
100
AcDbEntity
  8
0
100
AcDbLine
 10
598.6113086849472
 20
-3317.841904147466
 30
0.0
 11
600.1113086849463
 21
-3317.841904147466
 31
0.0
  0
LINE
  5
1A543
330
18
100
AcDbEntity
  8
0
100
AcDbLine
 10
598.6113086849472
 20
-3322.921904147465
 30
0.0
 11
600.1113086849463
 21
-3322.921904147465
 31
0.0
  0
LINE
  5
1A544
330
18
100
AcDbEntity
  8
0
100
AcDbLine
 10
598.6113086849472
 20
-3328.001904147466
 30
0.0
 11
600.1113086849463
 21
-3328.001904147466
 31
0.0
  0
LINE
  5
1A545
330
18
100
AcDbEntity
  8
0
100
AcDbLine
 10
598.6113086849464
 20
-3313.341904147466
 30
0.0
 11
600.1113086849463
 21
-3313.341904147466
 31
0.0
  0
LINE
  5
1A546
330
18
100
AcDbEntity
  8
0
100
AcDbLine
 10
598.6113086849464
 20
-3334.501904147465
 30
0.0
 11
600.1113086849463
 21
-3334.501904147465
 31
0.0
  0
LINE
  5
1A547
330
18
100
AcDbEntity
  8
0
100
AcDbLine
 10
604.1113086849462
 20
-3318.341904147465
 30
0.0
 11
605.1113086849461
 21
-3318.341904147465
 31
0.0
  0
LINE
  5
1A548
330
18
100
AcDbEntity
  8
0
100
AcDbLine
 10
604.1113086849462
 20
-3323.421904147465
 30
0.0
 11
605.1113086849461
 21
-3323.421904147465
 31
0.0
  0
LINE
  5
1A549
330
18
100
AcDbEntity
  8
0
100
AcDbLine
 10
604.1113086849462
 20
-3328.501904147465
 30
0.0
 11
605.1113086849461
 21
-3328.501904147465
 31
0.0
  0
LINE
  5
1A54A
330
18
100
AcDbEntity
  8
0
100
AcDbLine
 10
600.1113086849463
 20
-3310.341904147465
 30
0.0
 11
601.1113086849463
 21
-3310.341904147465
 31
0.0
  0
LINE
  5
1A54B
330
18
100
AcDbEntity
  8
0
100
AcDbLine
 10
601.1113086849463
 20
-3310.341904147465
 30
0.0
 11
601.1113086849463
 21
-3334.501904147465
 31
0.0
  0
LINE
  5
1A54C
330
18
100
AcDbEntity
  8
0
100
AcDbLine
 10
608.5963086849463
 20
-3310.341904147465
 30
0.0
 11
608.0963086849463
 21
-3310.341904147465
 31
0.0
  0
LINE
  5
1A54D
330
18
100
AcDbEntity
  8
0
100
AcDbLine
 10
608.0963086849463
 20
-3310.341904147465
 30
0.0
 11
608.0963086849463
 21
-3334.501904147465
 31
0.0
  0
LINE
  5
1A54E
330
18
100
AcDbEntity
  8
0
100
AcDbLine
 10
609.4563086849464
 20
-3310.341904147465
 30
0.0
 11
609.4563086849464
 21
-3334.501904147465
 31
0.0
  0
LINE
  5
1A54F
330
18
100
AcDbEntity
  8
0
100
AcDbLine
 10
600.1113086849463
 20
-3310.341904147465
 30
0.0
 11
600.1113086849463
 21
-3311.341904147465
 31
0.0
  0
LINE
  5
1A550
330
18
100
AcDbEntity
  8
0
100
AcDbLine
 10
601.1113086849463
 20
-3311.341904147465
 30
0.0
 11
608.0963086849463
 21
-3311.341904147465
 31
0.0
  0
LINE
  5
1A551
330
18
100
AcDbEntity
  8
0
100
AcDbLine
 10
600.1113086849463
 20
-3334.501904147465
 30
0.0
 11
600.1113086849463
 21
-3333.501904147466
 31
0.0
  0
LINE
  5
1A552
330
18
100
AcDbEntity
  8
0
100
AcDbLine
 10
601.1113086849463
 20
-3333.501904147466
 30
0.0
 11
608.0963086849463
 21
-3333.501904147466
 31
0.0
  0
LINE
  5
1A553
330
18
100
AcDbEntity
  8
0
100
AcDbLine
 10
600.1113086849463
 20
-3334.501904147465
 30
0.0
 11
609.4563086849464
 21
-3334.501904147465
 31
0.0
  0
LINE
  5
1A554
330
18
100
AcDbEntity
  8
0
100
AcDbLine
 10
609.4563086849464
 20
-3310.341904147465
 30
0.0
 11
600.1113086849463
 21
-3310.341904147465
 31
0.0
  0
LINE
  5
1A555
330
18
100
AcDbEntity
  8
0
100
AcDbLine
 10
600.1113086849463
 20
-3310.341904147465
 30
0.0
 11
600.1113086849463
 21
-3334.501904147465
 31
0.0
  0
LINE
  5
1A556
330
18
100
AcDbEntity
  8
0
100
AcDbLine
 10
605.1113086849461
 20
-3318.341904147465
 30
0.0
 11
605.1113086849461
 21
-3316.341904147466
 31
0.0
  0
LINE
  5
1A557
330
18
100
AcDbEntity
  8
0
100
AcDbLine
 10
605.1113086849461
 20
-3316.341904147466
 30
0.0
 11
604.1113086849462
 21
-3316.341904147466
 31
0.0
  0
LINE
  5
1A558
330
18
100
AcDbEntity
  8
0
100
AcDbLine
 10
604.1113086849462
 20
-3316.341904147466
 30
0.0
 11
604.1113086849462
 21
-3318.341904147465
 31
0.0
  0
LINE
  5
1A559
330
18
100
AcDbEntity
  8
0
100
AcDbLine
 10
605.1113086849461
 20
-3323.421904147465
 30
0.0
 11
605.1113086849461
 21
-3321.421904147465
 31
0.0
  0
LINE
  5
1A55A
330
18
100
AcDbEntity
  8
0
100
AcDbLine
 10
605.1113086849461
 20
-3321.421904147465
 30
0.0
 11
604.1113086849462
 21
-3321.421904147465
 31
0.0
  0
LINE
  5
1A55B
330
18
100
AcDbEntity
  8
0
100
AcDbLine
 10
604.1113086849462
 20
-3321.421904147465
 30
0.0
 11
604.1113086849462
 21
-3323.421904147465
 31
0.0
  0
LINE
  5
1A55C
330
18
100
AcDbEntity
  8
0
100
AcDbLine
 10
605.1113086849461
 20
-3328.501904147465
 30
0.0
 11
605.1113086849461
 21
-3326.501904147466
 31
0.0
  0
LINE
  5
1A55D
330
18
100
AcDbEntity
  8
0
100
AcDbLine
 10
605.1113086849461
 20
-3326.501904147466
 30
0.0
 11
604.1113086849462
 21
-3326.501904147466
 31
0.0
  0
LINE
  5
1A55E
330
18
100
AcDbEntity
  8
0
100
AcDbLine
 10
604.1113086849462
 20
-3326.501904147466
 30
0.0
 11
604.1113086849462
 21
-3328.501904147465
 31
0.0
  0
LINE
  5
1A55F
330
18
100
AcDbEntity
  8
0
100
AcDbLine
 10
600.1113086849463
 20
-3334.501904147465
 30
0.0
 11
600.1113086849463
 21
-3331.501904147465
 31
0.0
  0
LINE
  5
1A560
330
18
100
AcDbEntity
  8
0
100
AcDbLine
 10
600.1113086849463
 20
-3331.501904147465
 30
0.0
 11
598.6113086849464
 21
-3331.501904147465
 31
0.0
  0
LINE
  5
1A561
330
18
100
AcDbEntity
  8
0
100
AcDbLine
 10
598.6113086849464
 20
-3331.501904147465
 30
0.0
 11
598.6113086849464
 21
-3334.501904147465
 31
0.0
  0
LINE
  5
1A562
330
18
100
AcDbEntity
  8
0
100
AcDbLine
 10
600.1113086849463
 20
-3328.001904147466
 30
0.0
 11
600.1113086849463
 21
-3327.001904147465
 31
0.0
  0
LINE
  5
1A563
330
18
100
AcDbEntity
  8
0
100
AcDbLine
 10
600.1113086849463
 20
-3327.001904147465
 30
0.0
 11
598.6113086849472
 21
-3327.001904147465
 31
0.0
  0
LINE
  5
1A564
330
18
100
AcDbEntity
  8
0
100
AcDbLine
 10
600.1113086849463
 20
-3322.921904147465
 30
0.0
 11
600.1113086849463
 21
-3321.921904147465
 31
0.0
  0
LINE
  5
1A565
330
18
100
AcDbEntity
  8
0
100
AcDbLine
 10
600.1113086849463
 20
-3321.921904147465
 30
0.0
 11
598.6113086849472
 21
-3321.921904147465
 31
0.0
  0
LINE
  5
1A566
330
18
100
AcDbEntity
  8
0
100
AcDbLine
 10
600.1113086849463
 20
-3317.841904147466
 30
0.0
 11
600.1113086849463
 21
-3316.841904147465
 31
0.0
  0
LINE
  5
1A567
330
18
100
AcDbEntity
  8
0
100
AcDbLine
 10
600.1113086849463
 20
-3316.841904147465
 30
0.0
 11
598.6113086849472
 21
-3316.841904147465
 31
0.0
  0
LINE
  5
1A568
330
18
100
AcDbEntity
  8
0
100
AcDbLine
 10
600.1113086849463
 20
-3313.341904147466
 30
0.0
 11
600.1113086849463
 21
-3310.341904147465
 31
0.0
  0
LINE
  5
1A569
330
18
100
AcDbEntity
  8
0
100
AcDbLine
 10
600.1113086849463
 20
-3310.341904147465
 30
0.0
 11
598.6113086849464
 21
-3310.341904147465
 31
0.0
  0
LINE
  5
1A56A
330
18
100
AcDbEntity
  8
0
100
AcDbLine
 10
598.6113086849464
 20
-3310.341904147465
 30
0.0
 11
598.6113086849464
 21
-3313.341904147466
 31
0.0
  0
LINE
  5
1A56B
330
18
100
AcDbEntity
  8
0
100
AcDbLine
 10
598.6113086849464
 20
-3425.501904147466
 30
0.0
 11
607.2113086849462
 21
-3425.501904147466
 31
0.0
  0
CIRCLE
  5
1A56C
330
18
100
AcDbEntity
  8
0
100
AcDbCircle
 10
602.6113086849461
 20
-3417.881904147466
 30
0.0
 40
2.0
  0
CIRCLE
  5
1A56D
330
18
100
AcDbEntity
  8
0
100
AcDbCircle
 10
602.6113086849461
 20
-3412.801904147466
 30
0.0
 40
2.0
  0
CIRCLE
  5
1A56E
330
18
100
AcDbEntity
  8
0
100
AcDbCircle
 10
602.6113086849461
 20
-3412.801904147466
 30
0.0
 40
2.0
  0
CIRCLE
  5
1A56F
330
18
100
AcDbEntity
  8
0
100
AcDbCircle
 10
602.6113086849461
 20
-3407.721904147464
 30
0.0
 40
2.0
  0
CIRCLE
  5
1A570
330
18
100
AcDbEntity
  8
0
100
AcDbCircle
 10
602.6113086849461
 20
-3407.721904147464
 30
0.0
 40
2.0
  0
CIRCLE
  5
1A571
330
18
100
AcDbEntity
  8
0
100
AcDbCircle
 10
602.6113086849461
 20
-3397.561904147465
 30
0.0
 40
2.0
  0
CIRCLE
  5
1A572
330
18
100
AcDbEntity
  8
0
100
AcDbCircle
 10
602.6113086849461
 20
-3397.561904147465
 30
0.0
 40
2.0
  0
CIRCLE
  5
1A573
330
18
100
AcDbEntity
  8
0
100
AcDbCircle
 10
602.6113086849461
 20
-3392.481904147464
 30
0.0
 40
2.0
  0
CIRCLE
  5
1A574
330
18
100
AcDbEntity
  8
0
100
AcDbCircle
 10
602.6113086849461
 20
-3422.631904147466
 30
0.0
 40
1.0
  0
CIRCLE
  5
1A575
330
18
100
AcDbEntity
  8
0
100
AcDbCircle
 10
602.6113086849461
 20
-3422.631904147466
 30
0.0
 40
1.5
  0
CIRCLE
  5
1A576
330
18
100
AcDbEntity
  8
0
100
AcDbCircle
 10
602.6113086849461
 20
-3387.731904147464
 30
0.0
 40
1.0
  0
CIRCLE
  5
1A577
330
18
100
AcDbEntity
  8
0
100
AcDbCircle
 10
602.6113086849461
 20
-3387.731904147464
 30
0.0
 40
1.5
  0
CIRCLE
  5
1A578
330
18
100
AcDbEntity
  8
0
100
AcDbCircle
 10
602.6113086849461
 20
-3402.641904147466
 30
0.0
 40
2.0
  0
LINE
  5
1A579
330
18
100
AcDbEntity
  8
0
100
AcDbLine
 10
607.2113086849462
 20
-3425.501904147466
 30
0.0
 11
607.2113086849462
 21
-3384.861904147465
 31
0.0
  0
LINE
  5
1A57A
330
18
100
AcDbEntity
  8
0
100
AcDbLine
 10
607.2113086849462
 20
-3384.861904147465
 30
0.0
 11
598.6113086849464
 21
-3384.861904147465
 31
0.0
  0
LINE
  5
1A57B
330
18
100
AcDbEntity
  8
0
100
AcDbLine
 10
598.6113086849464
 20
-3384.861904147465
 30
0.0
 11
598.6113086849464
 21
-3425.501904147466
 31
0.0
  0
LINE
  5
1A57C
330
18
100
AcDbEntity
  8
0
100
AcDbLine
 10
631.9613086849471
 20
-3407.385621004873
 30
0.0
 11
631.9613086849471
 21
-3392.418187290056
 31
0.0
  0
LINE
  5
1A57D
330
18
100
AcDbEntity
  8
0
100
AcDbLine
 10
625.6613086849472
 20
-3391.801904147465
 30
0.0
 11
625.6613086849472
 21
-3408.001904147465
 31
0.0
  0
LINE
  5
1A57E
330
18
100
AcDbEntity
  8
0
100
AcDbLine
 10
627.2113086849472
 20
-3391.301904147466
 30
0.0
 11
627.2113086849472
 21
-3408.501904147466
 31
0.0
  0
LINE
  5
1A57F
330
18
100
AcDbEntity
  8
0
100
AcDbLine
 10
630.4113086849472
 20
-3408.501904147466
 30
0.0
 11
630.4113086849472
 21
-3391.301904147466
 31
0.0
  0
LINE
  5
1A580
330
18
100
AcDbEntity
  8
0
100
AcDbLine
 10
624.2113086849472
 20
-3382.301904147466
 30
0.0
 11
624.2113086849472
 21
-3417.501904147465
 31
0.0
  0
LINE
  5
1A581
330
18
100
AcDbEntity
  8
0
100
AcDbLine
 10
633.3113086849473
 20
-3418.501904147466
 30
0.0
 11
633.3113086849473
 21
-3381.301904147466
 31
0.0
  0
LINE
  5
1A582
330
18
100
AcDbEntity
  8
0
100
AcDbLine
 10
633.6113086849472
 20
-3411.101904147466
 30
0.0
 11
633.6113086849472
 21
-3418.201904147466
 31
0.0
  0
CIRCLE
  5
1A583
330
18
100
AcDbEntity
  8
0
100
AcDbCircle
 10
628.8113086849473
 20
-3415.531904147466
 30
0.0
 40
1.399999999999999
  0
ARC
  5
1A584
330
18
100
AcDbEntity
  8
0
100
AcDbCircle
 10
633.3113086849473
 20
-3418.201904147466
 30
0.0
 40
0.3
100
AcDbArc
 50
270.0
 51
0.0
  0
LINE
  5
1A585
330
18
100
AcDbEntity
  8
0
100
AcDbLine
 10
625.0113086849471
 20
-3418.501904147466
 30
0.0
 11
633.3113086849473
 21
-3418.501904147466
 31
0.0
  0
ARC
  5
1A586
330
18
100
AcDbEntity
  8
0
100
AcDbCircle
 10
625.0113086849471
 20
-3418.001904147466
 30
0.0
 40
0.5
100
AcDbArc
 50
180.0
 51
270.0
  0
LINE
  5
1A587
330
18
100
AcDbEntity
  8
0
100
AcDbLine
 10
624.5113086849471
 20
-3417.501904147465
 30
0.0
 11
624.5113086849471
 21
-3418.001904147466
 31
0.0
  0
LINE
  5
1A588
330
18
100
AcDbEntity
  8
0
100
AcDbLine
 10
624.2113086849472
 20
-3417.501904147465
 30
0.0
 11
633.3113086849473
 21
-3417.501904147465
 31
0.0
  0
ARC
  5
1A589
330
18
100
AcDbEntity
  8
0
100
AcDbCircle
 10
629.9613086849472
 20
-3407.385621004873
 30
0.0
 40
2.0
100
AcDbArc
 50
284.9999999999944
 51
0.0
  0
LINE
  5
1A58A
330
18
100
AcDbEntity
  8
0
100
AcDbLine
 10
628.1789467751523
 20
-3409.933755800044
 30
0.0
 11
630.4789467751523
 21
-3409.317472657453
 31
0.0
  0
ARC
  5
1A58B
330
18
100
AcDbEntity
  8
0
100
AcDbCircle
 10
627.6613086849472
 20
-3408.001904147465
 30
0.0
 40
2.0
100
AcDbArc
 50
180.0
 51
284.9999999999944
  0
LINE
  5
1A58C
330
18
100
AcDbEntity
  8
0
100
AcDbLine
 10
627.2113086849472
 20
-3408.501904147466
 30
0.0
 11
630.4113086849472
 21
-3408.501904147466
 31
0.0
  0
LINE
  5
1A58D
330
18
100
AcDbEntity
  8
0
100
AcDbLine
 10
633.3113086849473
 20
-3411.101904147466
 30
0.0
 11
633.6113086849472
 21
-3411.101904147466
 31
0.0
  0
LINE
  5
1A58E
330
18
100
AcDbEntity
  8
0
100
AcDbLine
 10
631.9613086849471
 20
-3413.501904147465
 30
0.0
 11
631.9613086849471
 21
-3411.101904147466
 31
0.0
  0
LINE
  5
1A58F
330
18
100
AcDbEntity
  8
0
100
AcDbLine
 10
625.6613086849472
 20
-3411.101904147466
 30
0.0
 11
625.6613086849472
 21
-3413.501904147465
 31
0.0
  0
LINE
  5
1A590
330
18
100
AcDbEntity
  8
0
100
AcDbLine
 10
625.6613086849472
 20
-3411.101904147466
 30
0.0
 11
631.9613086849471
 21
-3411.101904147466
 31
0.0
  0
LINE
  5
1A591
330
18
100
AcDbEntity
  8
0
100
AcDbLine
 10
625.6613086849472
 20
-3413.001904147465
 30
0.0
 11
631.9613086849471
 21
-3413.001904147465
 31
0.0
  0
LINE
  5
1A592
330
18
100
AcDbEntity
  8
0
100
AcDbLine
 10
625.6613086849472
 20
-3413.501904147465
 30
0.0
 11
631.9613086849471
 21
-3413.501904147465
 31
0.0
  0
ARC
  5
1A593
330
18
100
AcDbEntity
  8
0
100
AcDbCircle
 10
633.3113086849473
 20
-3381.601904147464
 30
0.0
 40
0.3
100
AcDbArc
 50
0.0
 51
90.0
  0
LINE
  5
1A594
330
18
100
AcDbEntity
  8
0
100
AcDbLine
 10
633.6113086849472
 20
-3381.601904147464
 30
0.0
 11
633.6113086849472
 21
-3388.701904147465
 31
0.0
  0
LINE
  5
1A595
330
18
100
AcDbEntity
  8
0
100
AcDbLine
 10
625.0113086849471
 20
-3381.301904147466
 30
0.0
 11
633.3113086849473
 21
-3381.301904147465
 31
0.0
  0
ARC
  5
1A596
330
18
100
AcDbEntity
  8
0
100
AcDbCircle
 10
629.9613086849472
 20
-3392.418187290056
 30
0.0
 40
2.0
100
AcDbArc
 50
0.0
 51
75.00000000000554
  0
LINE
  5
1A597
330
18
100
AcDbEntity
  8
0
100
AcDbLine
 10
628.1789467751523
 20
-3389.870052494888
 30
0.0
 11
630.4789467751523
 21
-3390.486335637478
 31
0.0
  0
ARC
  5
1A598
330
18
100
AcDbEntity
  8
0
100
AcDbCircle
 10
627.6613086849472
 20
-3391.801904147465
 30
0.0
 40
2.0
100
AcDbArc
 50
75.00000000000554
 51
180.0
  0
LINE
  5
1A599
330
18
100
AcDbEntity
  8
0
100
AcDbLine
 10
630.4113086849472
 20
-3391.301904147466
 30
0.0
 11
627.2113086849472
 21
-3391.301904147464
 31
0.0
  0
ARC
  5
1A59A
330
18
100
AcDbEntity
  8
0
100
AcDbCircle
 10
625.0113086849471
 20
-3381.801904147465
 30
0.0
 40
0.5
100
AcDbArc
 50
90.0
 51
180.0
  0
LINE
  5
1A59B
330
18
100
AcDbEntity
  8
0
100
AcDbLine
 10
624.5113086849471
 20
-3381.801904147465
 30
0.0
 11
624.5113086849471
 21
-3382.301904147466
 31
0.0
  0
LINE
  5
1A59C
330
18
100
AcDbEntity
  8
0
100
AcDbLine
 10
624.2113086849472
 20
-3382.301904147466
 30
0.0
 11
633.3113086849473
 21
-3382.301904147466
 31
0.0
  0
LINE
  5
1A59D
330
18
100
AcDbEntity
  8
0
100
AcDbLine
 10
633.3113086849473
 20
-3388.701904147465
 30
0.0
 11
633.6113086849472
 21
-3388.701904147465
 31
0.0
  0
LINE
  5
1A59E
330
18
100
AcDbEntity
  8
0
100
AcDbLine
 10
631.9613086849471
 20
-3388.701904147465
 30
0.0
 11
631.9613086849471
 21
-3386.301904147465
 31
0.0
  0
LINE
  5
1A59F
330
18
100
AcDbEntity
  8
0
100
AcDbLine
 10
625.6613086849472
 20
-3386.301904147465
 30
0.0
 11
625.6613086849472
 21
-3388.701904147465
 31
0.0
  0
LINE
  5
1A5A0
330
18
100
AcDbEntity
  8
0
100
AcDbLine
 10
625.6613086849472
 20
-3388.701904147465
 30
0.0
 11
631.9613086849471
 21
-3388.701904147465
 31
0.0
  0
LINE
  5
1A5A1
330
18
100
AcDbEntity
  8
0
100
AcDbLine
 10
625.6613086849472
 20
-3386.801904147466
 30
0.0
 11
631.9613086849471
 21
-3386.801904147466
 31
0.0
  0
LINE
  5
1A5A2
330
18
100
AcDbEntity
  8
0
100
AcDbLine
 10
625.6613086849472
 20
-3386.301904147465
 30
0.0
 11
631.9613086849471
 21
-3386.301904147465
 31
0.0
  0
CIRCLE
  5
1A5A3
330
18
100
AcDbEntity
  8
0
100
AcDbCircle
 10
628.8113086849473
 20
-3384.271904147466
 30
0.0
 40
1.399999999999999
  0
LINE
  5
1A5A4
330
18
100
AcDbEntity
  8
0
100
AcDbLine
 10
633.3113086849473
 20
-3396.091904147464
 30
0.0
 11
633.6113086849472
 21
-3396.091904147464
 31
0.0
  0
LINE
  5
1A5A5
330
18
100
AcDbEntity
  8
0
100
AcDbLine
 10
633.3113086849473
 20
-3397.361904147464
 30
0.0
 11
633.6113086849472
 21
-3397.361904147464
 31
0.0
  0
LINE
  5
1A5A6
330
18
100
AcDbEntity
  8
0
100
AcDbLine
 10
633.3113086849473
 20
-3398.631904147465
 30
0.0
 11
633.6113086849472
 21
-3398.631904147465
 31
0.0
  0
LINE
  5
1A5A7
330
18
100
AcDbEntity
  8
0
100
AcDbLine
 10
633.3113086849473
 20
-3399.901904147464
 30
0.0
 11
633.6113086849472
 21
-3399.901904147464
 31
0.0
  0
LINE
  5
1A5A8
330
18
100
AcDbEntity
  8
0
100
AcDbLine
 10
633.3113086849473
 20
-3401.171904147465
 30
0.0
 11
633.6113086849472
 21
-3401.171904147465
 31
0.0
  0
LINE
  5
1A5A9
330
18
100
AcDbEntity
  8
0
100
AcDbLine
 10
633.3113086849473
 20
-3402.441904147465
 30
0.0
 11
633.6113086849472
 21
-3402.441904147465
 31
0.0
  0
LINE
  5
1A5AA
330
18
100
AcDbEntity
  8
0
100
AcDbLine
 10
633.3113086849473
 20
-3403.711904147464
 30
0.0
 11
633.6113086849472
 21
-3403.711904147464
 31
0.0
  0
LINE
  5
1A5AB
330
18
100
AcDbEntity
  8
0
100
AcDbLine
 10
633.3113086849473
 20
-3393.551904147464
 30
0.0
 11
633.6113086849472
 21
-3393.551904147464
 31
0.0
  0
LINE
  5
1A5AC
330
18
100
AcDbEntity
  8
0
100
AcDbLine
 10
633.3113086849473
 20
-3394.821904147465
 30
0.0
 11
633.6113086849472
 21
-3394.821904147465
 31
0.0
  0
LINE
  5
1A5AD
330
18
100
AcDbEntity
  8
0
100
AcDbLine
 10
633.3113086849473
 20
-3396.091904147464
 30
0.0
 11
633.6113086849472
 21
-3396.091904147464
 31
0.0
  0
LINE
  5
1A5AE
330
18
100
AcDbEntity
  8
0
100
AcDbLine
 10
633.3113086849473
 20
-3392.281904147466
 30
0.0
 11
633.6113086849472
 21
-3392.281904147466
 31
0.0
  0
LINE
  5
1A5AF
330
18
100
AcDbEntity
  8
0
100
AcDbLine
 10
633.3113086849473
 20
-3393.551904147464
 30
0.0
 11
633.6113086849472
 21
-3393.551904147464
 31
0.0
  0
LINE
  5
1A5B0
330
18
100
AcDbEntity
  8
0
100
AcDbLine
 10
633.3113086849473
 20
-3403.711904147464
 30
0.0
 11
633.6113086849472
 21
-3403.711904147464
 31
0.0
  0
LINE
  5
1A5B1
330
18
100
AcDbEntity
  8
0
100
AcDbLine
 10
633.3113086849473
 20
-3404.981904147465
 30
0.0
 11
633.6113086849472
 21
-3404.981904147465
 31
0.0
  0
LINE
  5
1A5B2
330
18
100
AcDbEntity
  8
0
100
AcDbLine
 10
633.3113086849473
 20
-3406.251904147465
 30
0.0
 11
633.6113086849472
 21
-3406.251904147465
 31
0.0
  0
LINE
  5
1A5B3
330
18
100
AcDbEntity
  8
0
100
AcDbLine
 10
633.3113086849473
 20
-3407.521904147464
 30
0.0
 11
633.6113086849472
 21
-3407.521904147464
 31
0.0
  0
LINE
  5
1A5B4
330
18
100
AcDbEntity
  8
0
100
AcDbLine
 10
598.6113086849472
 20
-3426.301904306809
 30
0.0
 11
598.6113086849472
 21
-3340.001904306809
 31
0.0
  0
LINE
  5
1A5B5
330
18
100
AcDbEntity
  8
0
100
AcDbLine
 10
633.6113086849461
 20
-3425.501904147466
 30
0.0
 11
633.6113086849461
 21
-3420.001904147465
 31
0.0
  0
CIRCLE
  5
1A5B6
330
18
100
AcDbEntity
  8
0
100
AcDbCircle
 10
630.1813086849463
 20
-3424.001904147466
 30
0.0
 40
0.32
  0
CIRCLE
  5
1A5B7
330
18
100
AcDbEntity
  8
0
100
AcDbCircle
 10
630.1813086849463
 20
-3421.501904147465
 30
0.0
 40
0.32
  0
LINE
  5
1A5B8
330
18
100
AcDbEntity
  8
0
100
AcDbLine
 10
627.1113086849461
 20
-3425.501904147466
 30
0.0
 11
628.1113086849461
 21
-3425.501904147466
 31
0.0
  0
LINE
  5
1A5B9
330
18
100
AcDbEntity
  8
0
100
AcDbLine
 10
628.1113086849461
 20
-3425.501904147466
 30
0.0
 11
628.1113086849461
 21
-3420.001904147465
 31
0.0
  0
LINE
  5
1A5BA
330
18
100
AcDbEntity
  8
0
100
AcDbLine
 10
628.1113086849461
 20
-3423.501904147466
 30
0.0
 11
628.1113086849461
 21
-3422.001904147466
 31
0.0
  0
LINE
  5
1A5BB
330
18
100
AcDbEntity
  8
0
100
AcDbLine
 10
628.1113086849461
 20
-3422.001904147466
 30
0.0
 11
627.1113086849461
 21
-3422.001904147466
 31
0.0
  0
LINE
  5
1A5BC
330
18
100
AcDbEntity
  8
0
100
AcDbLine
 10
627.1113086849461
 20
-3422.001904147466
 30
0.0
 11
627.1113086849461
 21
-3423.501904147466
 31
0.0
  0
LINE
  5
1A5BD
330
18
100
AcDbEntity
  8
0
100
AcDbLine
 10
627.1113086849461
 20
-3423.501904147466
 30
0.0
 11
628.1113086849461
 21
-3423.501904147466
 31
0.0
  0
LINE
  5
1A5BE
330
18
100
AcDbEntity
  8
0
100
AcDbLine
 10
633.6113086849461
 20
-3420.001904147465
 30
0.0
 11
627.1113086849461
 21
-3420.001904147465
 31
0.0
  0
LINE
  5
1A5BF
330
18
100
AcDbEntity
  8
0
100
AcDbLine
 10
627.1113086849461
 20
-3420.001904147465
 30
0.0
 11
627.1113086849461
 21
-3425.501904147466
 31
0.0
  0
LINE
  5
1A5C0
330
18
100
AcDbEntity
  8
0
100
AcDbLine
 10
627.1113086849461
 20
-3425.501904147466
 30
0.0
 11
633.6113086849461
 21
-3425.501904147466
 31
0.0
  0
CIRCLE
  5
1A5C1
330
18
100
AcDbEntity
  8
0
100
AcDbCircle
 10
602.6113086849461
 20
-3372.861904147466
 30
0.0
 40
0.75
  0
LINE
  5
1A5C2
330
18
100
AcDbEntity
  8
0
100
AcDbLine
 10
607.1113086849461
 20
-3376.861904147466
 30
0.0
 11
607.1113086849461
 21
-3346.361904147466
 31
0.0
  0
LINE
  5
1A5C3
330
18
100
AcDbEntity
  8
0
100
AcDbLine
 10
598.6113086849464
 20
-3341.001904147465
 30
0.0
 11
598.6113086849464
 21
-3381.861904147466
 31
0.0
  0
LINE
  5
1A5C4
330
18
100
AcDbEntity
  8
0
100
AcDbLine
 10
604.8113086849461
 20
-3371.551904147465
 30
0.0
 11
604.8113086849461
 21
-3374.171904147466
 31
0.0
  0
ARC
  5
1A5C5
330
18
100
AcDbEntity
  8
0
100
AcDbCircle
 10
602.6113086849461
 20
-3372.861904147466
 30
0.0
 40
2.9
100
AcDbArc
 50
133.6028189727078
 51
226.3971810272921
  0
CIRCLE
  5
1A5C6
330
18
100
AcDbEntity
  8
0
100
AcDbCircle
 10
602.6113086849461
 20
-3372.861904147466
 30
0.0
 40
1.5
  0
CIRCLE
  5
1A5C7
330
18
100
AcDbEntity
  8
0
100
AcDbCircle
 10
602.5749226245432
 20
-3378.961904147466
 30
0.0
 40
2.0
  0
LINE
  5
1A5C8
330
18
100
AcDbEntity
  8
0
100
AcDbLine
 10
598.6113086849464
 20
-3381.861904147466
 30
0.0
 11
605.6113086849461
 21
-3381.861904147466
 31
0.0
  0
LINE
  5
1A5C9
330
18
100
AcDbEntity
  8
0
100
AcDbLine
 10
600.6113086849463
 20
-3375.861904147466
 30
0.0
 11
605.6113086849461
 21
-3375.861904147466
 31
0.0
  0
LINE
  5
1A5CA
330
18
100
AcDbEntity
  8
0
100
AcDbLine
 10
600.6113086849463
 20
-3374.961904147466
 30
0.0
 11
600.6113086849463
 21
-3375.861904147466
 31
0.0
  0
LINE
  5
1A5CB
330
18
100
AcDbEntity
  8
0
100
AcDbLine
 10
605.6113086849461
 20
-3381.861904147466
 30
0.0
 11
605.6113086849461
 21
-3376.861904147466
 31
0.0
  0
CIRCLE
  5
1A5CC
330
18
100
AcDbEntity
  8
0
100
AcDbCircle
 10
602.5749226245432
 20
-3378.961904147466
 30
0.0
 40
0.9
  0
LINE
  5
1A5CD
330
18
100
AcDbEntity
  8
0
100
AcDbLine
 10
605.6113086849461
 20
-3376.861904147466
 30
0.0
 11
607.1113086849461
 21
-3376.861904147466
 31
0.0
  0
LINE
  5
1A5CE
330
18
100
AcDbEntity
  8
0
100
AcDbLine
 10
604.8113086849461
 20
-3374.171904147466
 30
0.0
 11
605.6113086849461
 21
-3374.171904147466
 31
0.0
  0
LINE
  5
1A5CF
330
18
100
AcDbEntity
  8
0
100
AcDbLine
 10
605.6113086849461
 20
-3374.171904147466
 30
0.0
 11
605.6113086849461
 21
-3375.861904147466
 31
0.0
  0
ARC
  5
1A5D0
330
18
100
AcDbEntity
  8
0
100
AcDbCircle
 10
602.6113086849461
 20
-3350.001904147466
 30
0.0
 40
2.9
100
AcDbArc
 50
133.6028189727078
 51
226.3971810272921
  0
LINE
  5
1A5D1
330
18
100
AcDbEntity
  8
0
100
AcDbLine
 10
605.6113086849461
 20
-3351.311904147466
 30
0.0
 11
605.6113086849461
 21
-3356.311904147466
 31
0.0
  0
LINE
  5
1A5D2
330
18
100
AcDbEntity
  8
0
100
AcDbLine
 10
605.6113086849461
 20
-3358.931904147466
 30
0.0
 11
605.6113086849461
 21
-3363.931904147465
 31
0.0
  0
LINE
  5
1A5D3
330
18
100
AcDbEntity
  8
0
100
AcDbLine
 10
600.6113086849463
 20
-3359.721904147466
 30
0.0
 11
600.6113086849463
 21
-3363.141904147465
 31
0.0
  0
ARC
  5
1A5D4
330
18
100
AcDbEntity
  8
0
100
AcDbCircle
 10
602.6113086849461
 20
-3365.241904147465
 30
0.0
 40
2.9
100
AcDbArc
 50
133.6028189727078
 51
226.3971810272921
  0
LINE
  5
1A5D5
330
18
100
AcDbEntity
  8
0
100
AcDbLine
 10
600.6113086849463
 20
-3367.341904147465
 30
0.0
 11
600.6113086849463
 21
-3370.761904147466
 31
0.0
  0
CIRCLE
  5
1A5D6
330
18
100
AcDbEntity
  8
0
100
AcDbCircle
 10
602.6113086849461
 20
-3365.241904147465
 30
0.0
 40
1.5
  0
LINE
  5
1A5D7
330
18
100
AcDbEntity
  8
0
100
AcDbLine
 10
605.6113086849461
 20
-3366.551904147466
 30
0.0
 11
605.6113086849461
 21
-3371.551904147465
 31
0.0
  0
LINE
  5
1A5D8
330
18
100
AcDbEntity
  8
0
100
AcDbLine
 10
604.8113086849461
 20
-3371.551904147465
 30
0.0
 11
605.6113086849461
 21
-3371.551904147465
 31
0.0
  0
LINE
  5
1A5D9
330
18
100
AcDbEntity
  8
0
100
AcDbLine
 10
607.1113086849461
 20
-3369.311904147465
 30
0.0
 11
608.8113086849461
 21
-3369.311904147465
 31
0.0
  0
LINE
  5
1A5DA
330
18
100
AcDbEntity
  8
0
100
AcDbLine
 10
608.8113086849461
 20
-3370.911904147465
 30
0.0
 11
607.1113086849461
 21
-3370.911904147465
 31
0.0
  0
LINE
  5
1A5DB
330
18
100
AcDbEntity
  8
0
100
AcDbLine
 10
608.8113086849461
 20
-3369.311904147465
 30
0.0
 11
608.8113086849461
 21
-3370.911904147465
 31
0.0
  0
CIRCLE
  5
1A5DC
330
18
100
AcDbEntity
  8
0
100
AcDbCircle
 10
602.6113086849461
 20
-3365.241904147465
 30
0.0
 40
0.75
  0
LINE
  5
1A5DD
330
18
100
AcDbEntity
  8
0
100
AcDbLine
 10
604.8113086849461
 20
-3366.551904147466
 30
0.0
 11
605.6113086849461
 21
-3366.551904147466
 31
0.0
  0
LINE
  5
1A5DE
330
18
100
AcDbEntity
  8
0
100
AcDbLine
 10
604.8113086849461
 20
-3363.931904147465
 30
0.0
 11
605.6113086849461
 21
-3363.931904147465
 31
0.0
  0
LINE
  5
1A5DF
330
18
100
AcDbEntity
  8
0
100
AcDbLine
 10
604.8113086849461
 20
-3363.931904147465
 30
0.0
 11
604.8113086849461
 21
-3366.551904147466
 31
0.0
  0
ARC
  5
1A5E0
330
18
100
AcDbEntity
  8
0
100
AcDbCircle
 10
602.6113086849461
 20
-3357.621904147466
 30
0.0
 40
2.9
100
AcDbArc
 50
133.6028189727078
 51
226.3971810272921
  0
LINE
  5
1A5E1
330
18
100
AcDbEntity
  8
0
100
AcDbLine
 10
600.6113086849463
 20
-3352.101904147466
 30
0.0
 11
600.6113086849463
 21
-3355.521904147465
 31
0.0
  0
LINE
  5
1A5E2
330
18
100
AcDbEntity
  8
0
100
AcDbLine
 10
608.8113086849461
 20
-3353.911904147465
 30
0.0
 11
607.1113086849461
 21
-3353.911904147465
 31
0.0
  0
LINE
  5
1A5E3
330
18
100
AcDbEntity
  8
0
100
AcDbLine
 10
608.8113086849461
 20
-3352.311904147466
 30
0.0
 11
607.1113086849461
 21
-3352.311904147466
 31
0.0
  0
LINE
  5
1A5E4
330
18
100
AcDbEntity
  8
0
100
AcDbLine
 10
608.8113086849461
 20
-3352.311904147466
 30
0.0
 11
608.8113086849461
 21
-3353.911904147465
 31
0.0
  0
LINE
  5
1A5E5
330
18
100
AcDbEntity
  8
0
100
AcDbLine
 10
604.8113086849461
 20
-3356.311904147466
 30
0.0
 11
605.6113086849461
 21
-3356.311904147466
 31
0.0
  0
CIRCLE
  5
1A5E6
330
18
100
AcDbEntity
  8
0
100
AcDbCircle
 10
602.6113086849461
 20
-3357.621904147466
 30
0.0
 40
0.75
  0
LINE
  5
1A5E7
330
18
100
AcDbEntity
  8
0
100
AcDbLine
 10
604.8113086849461
 20
-3358.931904147466
 30
0.0
 11
605.6113086849461
 21
-3358.931904147466
 31
0.0
  0
CIRCLE
  5
1A5E8
330
18
100
AcDbEntity
  8
0
100
AcDbCircle
 10
602.6113086849461
 20
-3357.621904147466
 30
0.0
 40
1.5
  0
LINE
  5
1A5E9
330
18
100
AcDbEntity
  8
0
100
AcDbLine
 10
604.8113086849461
 20
-3356.311904147466
 30
0.0
 11
604.8113086849461
 21
-3358.931904147466
 31
0.0
  0
LINE
  5
1A5EA
330
18
100
AcDbEntity
  8
0
100
AcDbLine
 10
605.6113086849461
 20
-3346.001904147466
 30
0.0
 11
605.6113086849461
 21
-3341.001904147465
 31
0.0
  0
CIRCLE
  5
1A5EB
330
18
100
AcDbEntity
  8
0
100
AcDbCircle
 10
602.6113086849461
 20
-3343.901904147466
 30
0.0
 40
2.0
  0
LINE
  5
1A5EC
330
18
100
AcDbEntity
  8
0
100
AcDbLine
 10
605.6113086849461
 20
-3347.361904147465
 30
0.0
 11
600.6113086849463
 21
-3347.361904147465
 31
0.0
  0
LINE
  5
1A5ED
330
18
100
AcDbEntity
  8
0
100
AcDbLine
 10
600.6113086849463
 20
-3347.361904147465
 30
0.0
 11
600.6113086849463
 21
-3347.901904147466
 31
0.0
  0
LINE
  5
1A5EE
330
18
100
AcDbEntity
  8
0
100
AcDbLine
 10
605.6113086849461
 20
-3346.001904147466
 30
0.0
 11
607.1113086849461
 21
-3346.001904147466
 31
0.0
  0
CIRCLE
  5
1A5EF
330
18
100
AcDbEntity
  8
0
100
AcDbCircle
 10
602.6113086849461
 20
-3343.901904147466
 30
0.0
 40
0.9
  0
LINE
  5
1A5F0
330
18
100
AcDbEntity
  8
0
100
AcDbLine
 10
604.8113086849461
 20
-3348.691904147465
 30
0.0
 11
605.6113086849461
 21
-3348.691904147465
 31
0.0
  0
LINE
  5
1A5F1
330
18
100
AcDbEntity
  8
0
100
AcDbLine
 10
605.6113086849461
 20
-3347.361904147465
 30
0.0
 11
605.6113086849461
 21
-3348.691904147465
 31
0.0
  0
LINE
  5
1A5F2
330
18
100
AcDbEntity
  8
0
100
AcDbLine
 10
604.8113086849461
 20
-3351.311904147466
 30
0.0
 11
605.6113086849461
 21
-3351.311904147466
 31
0.0
  0
CIRCLE
  5
1A5F3
330
18
100
AcDbEntity
  8
0
100
AcDbCircle
 10
602.6113086849461
 20
-3350.001904147466
 30
0.0
 40
0.75
  0
LINE
  5
1A5F4
330
18
100
AcDbEntity
  8
0
100
AcDbLine
 10
604.8113086849461
 20
-3348.691904147465
 30
0.0
 11
604.8113086849461
 21
-3351.311904147466
 31
0.0
  0
CIRCLE
  5
1A5F5
330
18
100
AcDbEntity
  8
0
100
AcDbCircle
 10
602.6113086849461
 20
-3350.001904147466
 30
0.0
 40
1.5
  0
LINE
  5
1A5F6
330
18
100
AcDbEntity
  8
0
100
AcDbLine
 10
607.1113086849461
 20
-3346.001904147466
 30
0.0
 11
607.1113086849461
 21
-3346.361904147466
 31
0.0
  0
LINE
  5
1A5F7
330
18
100
AcDbEntity
  8
0
100
AcDbLine
 10
598.6113086849464
 20
-3341.001904147465
 30
0.0
 11
605.6113086849461
 21
-3341.001904147465
 31
0.0
  0
LINE
  5
1A5F8
330
18
100
AcDbEntity
  8
0
100
AcDbLine
 10
598.6113086849464
 20
-3346.241904147466
 30
0.0
 11
598.6113086849464
 21
-3341.001904147465
 31
0.0
  0
LINE
  5
1A5F9
330
18
100
AcDbEntity
  8
0
100
AcDbLine
 10
598.6113086849464
 20
-3341.001904147465
 30
0.0
 11
605.6113086849461
 21
-3341.001904147465
 31
0.0
  0
LINE
  5
1A5FA
330
18
100
AcDbEntity
  8
0
100
AcDbLine
 10
605.6113086849461
 20
-3341.001904147465
 30
0.0
 11
605.6113086849461
 21
-3346.241904147466
 31
0.0
  0
LINE
  5
1A5FB
330
18
100
AcDbEntity
  8
0
100
AcDbLine
 10
598.6113086849464
 20
-3376.621904147465
 30
0.0
 11
598.6113086849464
 21
-3381.861904147466
 31
0.0
  0
LINE
  5
1A5FC
330
18
100
AcDbEntity
  8
0
100
AcDbLine
 10
598.6113086849464
 20
-3381.861904147466
 30
0.0
 11
605.6113086849461
 21
-3381.861904147466
 31
0.0
  0
LINE
  5
1A5FD
330
18
100
AcDbEntity
  8
0
100
AcDbLine
 10
605.6113086849461
 20
-3381.861904147466
 30
0.0
 11
605.6113086849461
 21
-3376.621904147465
 31
0.0
  0
LINE
  5
1A5FE
330
18
100
AcDbEntity
  8
0
100
AcDbLine
 10
625.7113086849463
 20
-3369.401904147466
 30
0.0
 11
633.6113086849461
 21
-3369.401904147466
 31
0.0
  0
LINE
  5
1A5FF
330
18
100
AcDbEntity
  8
0
100
AcDbLine
 10
626.6613086849463
 20
-3368.401904147465
 30
0.0
 11
632.6613086849463
 21
-3368.401904147465
 31
0.0
  0
LINE
  5
1A600
330
18
100
AcDbEntity
  8
0
100
AcDbLine
 10
627.6613086849463
 20
-3368.401904147465
 30
0.0
 11
628.6613086849463
 21
-3368.401904147465
 31
0.0
  0
LINE
  5
1A601
330
18
100
AcDbEntity
  8
0
100
AcDbLine
 10
629.4613086849462
 20
-3368.401904147465
 30
0.0
 11
629.4613086849462
 21
-3365.401904147465
 31
0.0
  0
LINE
  5
1A602
330
18
100
AcDbEntity
  8
0
100
AcDbLine
 10
632.6613086849463
 20
-3368.401904147465
 30
0.0
 11
632.6613086849463
 21
-3365.401904147465
 31
0.0
  0
LINE
  5
1A603
330
18
100
AcDbEntity
  8
0
100
AcDbLine
 10
632.6613086849463
 20
-3365.401904147465
 30
0.0
 11
626.6613086849463
 21
-3365.401904147465
 31
0.0
  0
LINE
  5
1A604
330
18
100
AcDbEntity
  8
0
100
AcDbLine
 10
626.6613086849463
 20
-3365.401904147465
 30
0.0
 11
626.6613086849463
 21
-3368.401904147465
 31
0.0
  0
LINE
  5
1A605
330
18
100
AcDbEntity
  8
0
100
AcDbLine
 10
628.6613086849463
 20
-3368.401904147465
 30
0.0
 11
628.6613086849463
 21
-3365.401904147465
 31
0.0
  0
LINE
  5
1A606
330
18
100
AcDbEntity
  8
0
100
AcDbLine
 10
628.6613086849463
 20
-3365.401904147465
 30
0.0
 11
627.6613086849463
 21
-3365.401904147465
 31
0.0
  0
LINE
  5
1A607
330
18
100
AcDbEntity
  8
0
100
AcDbLine
 10
627.6613086849463
 20
-3365.401904147465
 30
0.0
 11
627.6613086849463
 21
-3368.401904147465
 31
0.0
  0
LINE
  5
1A608
330
18
100
AcDbEntity
  8
0
100
AcDbLine
 10
633.6113086849461
 20
-3369.401904147466
 30
0.0
 11
633.6113086849461
 21
-3364.401904147465
 31
0.0
  0
LINE
  5
1A609
330
18
100
AcDbEntity
  8
0
100
AcDbLine
 10
633.6113086849461
 20
-3364.401904147465
 30
0.0
 11
625.7113086849463
 21
-3364.401904147465
 31
0.0
  0
LINE
  5
1A60A
330
18
100
AcDbEntity
  8
0
100
AcDbLine
 10
625.7113086849463
 20
-3364.401904147465
 30
0.0
 11
625.7113086849463
 21
-3369.401904147466
 31
0.0
  0
LINE
  5
1A60B
330
18
100
AcDbEntity
  8
0
100
AcDbLine
 10
633.6113086849461
 20
-3369.901904147465
 30
0.0
 11
626.3613086849461
 21
-3369.901904147465
 31
0.0
  0
CIRCLE
  5
1A60C
330
18
100
AcDbEntity
  8
0
100
AcDbCircle
 10
630.1113086849461
 20
-3375.851904147466
 30
0.0
 40
1.0
  0
CIRCLE
  5
1A60D
330
18
100
AcDbEntity
  8
0
100
AcDbCircle
 10
630.1113086849461
 20
-3372.351904147466
 30
0.0
 40
1.0
  0
LINE
  5
1A60E
330
18
100
AcDbEntity
  8
0
100
AcDbLine
 10
626.3613086849461
 20
-3369.901904147465
 30
0.0
 11
626.3613086849461
 21
-3378.301904147466
 31
0.0
  0
LINE
  5
1A60F
330
18
100
AcDbEntity
  8
0
100
AcDbLine
 10
626.3613086849461
 20
-3378.301904147466
 30
0.0
 11
633.6113086849461
 21
-3378.301904147466
 31
0.0
  0
LINE
  5
1A610
330
18
100
AcDbEntity
  8
0
100
AcDbLine
 10
633.6113086849461
 20
-3378.301904147466
 30
0.0
 11
633.6113086849461
 21
-3369.901904147465
 31
0.0
  0
LINE
  5
1A611
330
18
100
AcDbEntity
  8
0
100
AcDbLine
 10
625.7113086849463
 20
-3349.401904147466
 30
0.0
 11
633.6113086849461
 21
-3349.401904147466
 31
0.0
  0
LINE
  5
1A612
330
18
100
AcDbEntity
  8
0
100
AcDbLine
 10
626.6613086849463
 20
-3348.401904147466
 30
0.0
 11
632.6613086849463
 21
-3348.401904147466
 31
0.0
  0
LINE
  5
1A613
330
18
100
AcDbEntity
  8
0
100
AcDbLine
 10
627.6613086849463
 20
-3348.401904147466
 30
0.0
 11
628.6613086849463
 21
-3348.401904147466
 31
0.0
  0
LINE
  5
1A614
330
18
100
AcDbEntity
  8
0
100
AcDbLine
 10
629.4613086849462
 20
-3348.401904147466
 30
0.0
 11
629.4613086849462
 21
-3345.401904147466
 31
0.0
  0
LINE
  5
1A615
330
18
100
AcDbEntity
  8
0
100
AcDbLine
 10
633.6113086849461
 20
-3349.401904147466
 30
0.0
 11
633.6113086849461
 21
-3344.401904147466
 31
0.0
  0
LINE
  5
1A616
330
18
100
AcDbEntity
  8
0
100
AcDbLine
 10
633.6113086849461
 20
-3344.401904147466
 30
0.0
 11
625.7113086849463
 21
-3344.401904147466
 31
0.0
  0
LINE
  5
1A617
330
18
100
AcDbEntity
  8
0
100
AcDbLine
 10
625.7113086849463
 20
-3344.401904147466
 30
0.0
 11
625.7113086849463
 21
-3349.401904147466
 31
0.0
  0
LINE
  5
1A618
330
18
100
AcDbEntity
  8
0
100
AcDbLine
 10
628.6613086849463
 20
-3348.401904147466
 30
0.0
 11
628.6613086849463
 21
-3345.401904147466
 31
0.0
  0
LINE
  5
1A619
330
18
100
AcDbEntity
  8
0
100
AcDbLine
 10
628.6613086849463
 20
-3345.401904147466
 30
0.0
 11
627.6613086849463
 21
-3345.401904147466
 31
0.0
  0
LINE
  5
1A61A
330
18
100
AcDbEntity
  8
0
100
AcDbLine
 10
627.6613086849463
 20
-3345.401904147466
 30
0.0
 11
627.6613086849463
 21
-3348.401904147466
 31
0.0
  0
LINE
  5
1A61B
330
18
100
AcDbEntity
  8
0
100
AcDbLine
 10
632.6613086849463
 20
-3348.401904147466
 30
0.0
 11
632.6613086849463
 21
-3345.401904147466
 31
0.0
  0
LINE
  5
1A61C
330
18
100
AcDbEntity
  8
0
100
AcDbLine
 10
632.6613086849463
 20
-3345.401904147466
 30
0.0
 11
626.6613086849463
 21
-3345.401904147466
 31
0.0
  0
LINE
  5
1A61D
330
18
100
AcDbEntity
  8
0
100
AcDbLine
 10
626.6613086849463
 20
-3345.401904147466
 30
0.0
 11
626.6613086849463
 21
-3348.401904147466
 31
0.0
  0
CIRCLE
  5
1A61E
330
18
100
AcDbEntity
  8
0
100
AcDbCircle
 10
627.1113086849473
 20
-3356.901904147466
 30
0.0
 40
5.5
  0
LINE
  5
1A61F
330
18
100
AcDbEntity
  8
0
100
AcDbLine
 10
620.8113086849461
 20
-3363.901904147466
 30
0.0
 11
620.8113086849461
 21
-3349.901904147466
 31
0.0
  0
LINE
  5
1A620
330
18
100
AcDbEntity
  8
0
100
AcDbLine
 10
633.6113086849472
 20
-3363.901904147466
 30
0.0
 11
633.6113086849472
 21
-3358.001904147466
 31
0.0
  0
LINE
  5
1A621
330
18
100
AcDbEntity
  8
0
100
AcDbLine
 10
633.6113086849472
 20
-3363.901904147466
 30
0.0
 11
620.8113086849461
 21
-3363.901904147466
 31
0.0
  0
LINE
  5
1A622
330
18
100
AcDbEntity
  8
0
100
AcDbLine
 10
633.6113086849472
 20
-3349.901904147466
 30
0.0
 11
620.8113086849461
 21
-3349.901904147466
 31
0.0
  0
LINE
  5
1A623
330
18
100
AcDbEntity
  8
0
100
AcDbLine
 10
633.6113086849472
 20
-3355.801904147465
 30
0.0
 11
633.6113086849472
 21
-3349.901904147466
 31
0.0
  0
LINE
  5
1A624
330
18
100
AcDbEntity
  8
0
100
AcDbLine
 10
598.6113086849472
 20
-3305.401904306809
 30
0.0
 11
598.6113086849472
 21
-3272.401904306809
 31
0.0
  0
LINE
  5
1A625
330
18
100
AcDbEntity
  8
0
100
AcDbLine
 10
598.6113086849472
 20
-3335.501904306809
 30
0.0
 11
598.6113086849472
 21
-3309.301904306809
 31
0.0
  0
LINE
  5
1A626
330
18
100
AcDbEntity
  8
0
100
AcDbLine
 10
633.611308684947
 20
-3343.90190430681
 30
0.0
 11
633.6113086849472
 21
-3378.701904306809
 31
0.0
  0
LINE
  5
1A627
330
18
100
AcDbEntity
  8
0
100
AcDbLine
 10
633.6113086849472
 20
-3380.901904306809
 30
0.0
 11
633.6113086849472
 21
-3426.301904306809
 31
0.0
  0
LINE
  5
1A628
330
18
100
AcDbEntity
  8
外形
 62
     0
100
AcDbLine
 10
629.4111603237779
 20
-3303.27690589342
 30
0.0
 11
630.1365718892054
 21
-3303.276905893421
 31
0.0
  0
LINE
  5
1A629
330
18
100
AcDbEntity
  8
0
100
AcDbLine
 10
629.4111603237779
 20
-3322.971905893421
 30
0.0
 11
629.4111603237779
 21
-3335.97190589342
 31
0.0
  0
LINE
  5
1A62A
330
18
100
AcDbEntity
  8
0
100
AcDbLine
 10
631.0111603237774
 20
-3325.186048736276
 30
0.0
 11
631.0111603237774
 21
-3332.757763050565
 31
0.0
  0
LINE
  5
1A62B
330
18
100
AcDbEntity
  8
0
100
AcDbLine
 10
629.4111603237779
 20
-3303.18190589342
 30
0.0
 11
629.4111603237779
 21
-3316.18190589342
 31
0.0
  0
LINE
  5
1A62C
330
18
100
AcDbEntity
  8
0
100
AcDbLine
 10
631.0111603237774
 20
-3306.396048736274
 30
0.0
 11
631.0111603237774
 21
-3313.967763050565
 31
0.0
  0
LINE
  5
1A62D
330
18
100
AcDbEntity
  8
0
100
AcDbLine
 10
631.5111603237774
 20
-3313.702109996306
 30
0.0
 11
631.5111603237774
 21
-3306.661701790533
 31
0.0
  0
LINE
  5
1A62E
330
18
100
AcDbEntity
  8
0
100
AcDbLine
 10
631.5111603237776
 20
-3332.492109996307
 30
0.0
 11
631.5111603237774
 21
-3325.451701790534
 31
0.0
  0
HATCH
  5
1A62F
330
18
100
AcDbEntity
  8
0
100
AcDbHatch
 10
0.0
 20
0.0
 30
0.0
210
0.0
220
0.0
230
1.0
  2
ANSI37
 70
     0
 71
     0
 91
        1
 92
        7
 72
     1
 73
     1
 93
        8
 10
633.1111603237777
 20
-3307.246015999067
 42
0.2874919409690145
 10
632.2111603237772
 20
-3306.68190589342
 42
0.0
 10
631.7111603237776
 20
-3306.68190589342
 42
-0.0503820444849587
 10
631.5111603237774
 20
-3306.661701790533
 42
0.0
 10
631.5111603237774
 20
-3313.702109996306
 42
-0.0503820444846053
 10
631.7111603237763
 20
-3313.68190589342
 42
0.0
 10
632.2111603237772
 20
-3313.68190589342
 42
0.2874919409690145
 10
633.1111603237777
 20
-3313.117795787773
 42
0.0
 97
        0
 75
     0
 76
     1
 52
0.0
 41
0.2
 77
     0
 78
     2
 53
45.0
 43
-756.0795418304174
 44
0.0000000000004547
 45
-0.4490128060534576
 46
0.4490128060534577
 79
     0
 53
135.0
 43
-756.0795418304174
 44
0.0000000000004547
 45
-0.4490128060534577
 46
-0.4490128060534576
 79
     0
 47
0.0643847009913141
 98
        2
 10
632.3265047594773
 20
-3309.1480913471
 10
632.5279144911815
 20
-3310.447132986917
  0
HATCH
  5
1A630
330
18
100
AcDbEntity
  8
0
100
AcDbHatch
 10
0.0
 20
0.0
 30
0.0
210
0.0
220
0.0
230
1.0
  2
ANSI37
 70
     0
 71
     0
 91
        1
 92
        7
 72
     1
 73
     1
 93
        8
 10
633.1111603237777
 20
-3326.036015999069
 42
0.2874919409695692
 10
632.2111603237763
 20
-3325.471905893421
 42
0.0
 10
631.7111603237758
 20
-3325.471905893421
 42
-0.0503820444844913
 10
631.5111603237774
 20
-3325.451701790534
 42
0.0
 10
631.5111603237774
 20
-3332.492109996307
 42
-0.0503820444846053
 10
631.7111603237763
 20
-3332.47190589342
 42
0.0
 10
632.2111603237763
 20
-3332.47190589342
 42
0.2874919409695692
 10
633.1111603237777
 20
-3331.907795787771
 42
0.0
 97
        0
 75
     0
 76
     1
 52
0.0
 41
0.2
 77
     0
 78
     2
 53
45.0
 43
-756.0795418304174
 44
0.0000000000004547
 45
-0.4490128060534576
 46
0.4490128060534577
 79
     0
 53
135.0
 43
-756.0795418304174
 44
0.0000000000004547
 45
-0.4490128060534577
 46
-0.4490128060534576
 79
     0
 47
0.0157775037873861
 98
        1
 10
632.4927207906926
 20
-3326.721468760513
  0
LINE
  5
1A633
330
18
100
AcDbEntity
  8
3_表示パネル
  6
Continuous
 62
    40
100
AcDbLine
 10
597.5113088068642
 20
-3340.001904306809
 30
0.0
 11
597.5113088068642
 21
-3426.301904306809
 31
0.0
  0
LINE
  5
1A634
330
18
100
AcDbEntity
  8
3_表示パネル
  6
Continuous
 62
    40
100
AcDbLine
 10
607.4113088068639
 20
-3272.401904306809
 30
0.0
 11
607.4113088068639
 21
-3280.401904306809
 31
0.0
  0
LINE
  5
1A635
330
18
100
AcDbEntity
  8
3_表示パネル
  6
Continuous
 62
    40
100
AcDbLine
 10
610.4113088068638
 20
-3280.401904306809
 30
0.0
 11
610.4113088068638
 21
-3288.601904306809
 31
0.0
  0
LINE
  5
1A636
330
18
100
AcDbEntity
  8
3_表示パネル
  6
Continuous
 62
    40
100
AcDbLine
 10
607.4113088068639
 20
-3280.401904306809
 30
0.0
 11
610.4113088068638
 21
-3280.401904306809
 31
0.0
  0
LINE
  5
1A637
330
18
100
AcDbEntity
  8
3_表示パネル
  6
Continuous
 62
    40
100
AcDbLine
 10
597.5113088068642
 20
-3340.001904306809
 30
0.0
 11
597.5113088068642
 21
-3426.301904306809
 31
0.0
  0
LINE
  5
1A638
330
18
100
AcDbEntity
  8
3_表示パネル
  6
Continuous
 62
    40
100
AcDbLine
 10
608.1113088068641
 20
-3354.90190430681
 30
0.0
 11
608.1113088068641
 21
-3368.301904306809
 31
0.0
  0
LINE
  5
1A639
330
18
100
AcDbEntity
  8
3_表示パネル
  6
Continuous
 62
    40
100
AcDbLine
 10
609.711308806864
 20
-3368.301904306809
 30
0.0
 11
609.711308806864
 21
-3371.901904306809
 31
0.0
  0
LINE
  5
1A63A
330
18
100
AcDbEntity
  8
3_表示パネル
  6
Continuous
 62
    40
100
AcDbLine
 10
608.1113088068641
 20
-3368.301904306809
 30
0.0
 11
609.711308806864
 21
-3368.301904306809
 31
0.0
  0
LINE
  5
1A63B
330
18
100
AcDbEntity
  8
3_表示パネル
  6
Continuous
 62
    40
100
AcDbLine
 10
608.1113088068641
 20
-3371.901904306809
 30
0.0
 11
609.711308806864
 21
-3371.901904306809
 31
0.0
  0
LINE
  5
1A63C
330
18
100
AcDbEntity
  8
3_表示パネル
  6
Continuous
 62
    40
100
AcDbLine
 10
608.1113088068641
 20
-3340.001904306809
 30
0.0
 11
608.1113088068641
 21
-3351.301904306809
 31
0.0
  0
LINE
  5
1A63D
330
18
100
AcDbEntity
  8
3_表示パネル
  6
Continuous
 62
    40
100
AcDbLine
 10
608.1113088068641
 20
-3351.301904306809
 30
0.0
 11
609.711308806864
 21
-3351.301904306809
 31
0.0
  0
LINE
  5
1A63E
330
18
100
AcDbEntity
  8
3_表示パネル
  6
Continuous
 62
    40
100
AcDbLine
 10
608.1113088068641
 20
-3354.90190430681
 30
0.0
 11
609.711308806864
 21
-3354.90190430681
 31
0.0
  0
LINE
  5
1A63F
330
18
100
AcDbEntity
  8
3_表示パネル
  6
Continuous
 62
    40
100
AcDbLine
 10
609.711308806864
 20
-3351.301904306809
 30
0.0
 11
609.711308806864
 21
-3354.90190430681
 31
0.0
  0
LINE
  5
1A64D
330
18
100
AcDbEntity
  8
0
100
AcDbLine
 10
633.1111603237777
 20
-3331.907795787771
 30
0.0
 11
633.1111603237777
 21
-3326.036015999069
 31
0.0
  0
INSERT
  5
1A64E
330
18
100
AcDbEntity
  8
0
100
AcDbBlockReference
  2
A$C60EC01A6
 10
592.6113086849459
 20
-3428.201905207696
 30
0.0
  0
INSERT
  5
1A64F
330
18
100
AcDbEntity
  8
0
100
AcDbBlockReference
  2
A$C582506EE
 10
621.6811589440927
 20
-3334.376902535062
 30
0.0
  0
LINE
  5
1A650
330
18
100
AcDbEntity
  8
0
100
AcDbLine
 10
633.1111603237777
 20
-3313.117795787773
 30
0.0
 11
633.1111603237777
 21
-3307.246015999071
 31
0.0
  0
MTEXT
  5
1A9E3
330
18
100
AcDbEntity
  8
0
100
AcDbMText
 10
571.0753658975882
 20
-3128.060147756405
 30
0.0
 40
10.0
 41
0.0
 71
     1
 72
     5
  1
SCON-CA-400A~750A-ML3-*-1/2\PSCON-CA-100SA~750SA-ML3-*-1/2
 73
     1
 44
1.0
  0
VIEWPORT
  5
1A4AA
330
1A4A9
100
AcDbEntity
 67
     1
  8
0
100
AcDbViewport
 10
283.6615861025954
 20
142.5657786364348
 30
0.0
 40
620.548073837105
 41
291.4287591881414
 68
     1
 69
     1
 12
283.6615861025954
 22
142.5657786364348
 13
0.0
 23
0.0
 14
10.0
 24
10.0
 15
10.0
 25
10.0
 16
0.0
 26
0.0
 36
1.0
 17
0.0
 27
0.0
 37
0.0
 42
50.0
 43
0.0
 44
0.0
 45
291.4287591881414
 50
0.0
 51
0.0
 72
   100
 90
    32864
  1

281
     0
 71
     1
 74
     0
110
0.0
120
0.0
130
0.0
111
1.0
121
0.0
131
0.0
112
0.0
122
1.0
132
0.0
 79
     0
146
0.0
  0
LWPOLYLINE
  5
1A4AB
330
1A4A9
100
AcDbEntity
 67
     1
  8
図面範囲
100
AcDbPolyline
 90
        4
 70
     1
 43
0.0
 10
0.0
 20
0.0
 10
420.0
 20
0.0
 10
420.0
 20
297.0
 10
0.0
 20
297.0
  0
LINE
  5
1A4AC
330
1A4A9
100
AcDbEntity
 67
     1
  8
外枠
100
AcDbLine
 10
19.798574
 20
6.680242999999999
 30
0.0
 11
19.798574
 21
278.680243
 31
0.0
  0
LINE
  5
1A4AD
330
1A4A9
100
AcDbEntity
 67
     1
  8
外枠
100
AcDbLine
 10
19.798574
 20
278.680243
 30
0.0
 11
403.798574
 21
278.680243
 31
0.0
  0
LINE
  5
1A4AE
330
1A4A9
100
AcDbEntity
 67
     1
  8
外枠
100
AcDbLine
 10
403.798574
 20
278.680243
 30
0.0
 11
403.798574
 21
6.680242999999999
 31
0.0
  0
LINE
  5
1A4AF
330
1A4A9
100
AcDbEntity
 67
     1
  8
外枠
100
AcDbLine
 10
403.798574
 20
6.680242999999999
 30
0.0
 11
19.798574
 21
6.680242999999999
 31
0.0
  0
LINE
  5
1A4B0
330
1A4A9
100
AcDbEntity
 67
     1
  8
外枠
100
AcDbLine
 10
19.798574
 20
30.680243
 30
0.0
 11
403.798574
 21
30.680243
 31
0.0
  0
LINE
  5
1A4B1
330
1A4A9
100
AcDbEntity
 67
     1
  8
外枠
100
AcDbLine
 10
28.798574
 20
30.680243
 30
0.0
 11
28.798574
 21
6.680242999999999
 31
0.0
  0
LINE
  5
1A4B2
330
1A4A9
100
AcDbEntity
 67
     1
  8
外枠
100
AcDbLine
 10
139.7985739999999
 20
30.680243
 30
0.0
 11
139.7985739999999
 21
6.680242999999999
 31
0.0
  0
LINE
  5
1A4B3
330
1A4A9
100
AcDbEntity
 67
     1
  8
外枠
100
AcDbLine
 10
158.798574
 20
30.680243
 30
0.0
 11
158.798574
 21
6.680242999999999
 31
0.0
  0
LINE
  5
1A4B4
330
1A4A9
100
AcDbEntity
 67
     1
  8
外枠
100
AcDbLine
 10
19.798574
 20
30.680243
 30
0.0
 11
167.798574
 21
30.680243
 31
0.0
  0
LINE
  5
1A4B5
330
1A4A9
100
AcDbEntity
 67
     1
  8
外枠
100
AcDbLine
 10
167.798574
 20
30.680243
 30
0.0
 11
167.798574
 21
6.680242999999999
 31
0.0
  0
LINE
  5
1A4B6
330
1A4A9
100
AcDbEntity
 67
     1
  8
外枠
100
AcDbLine
 10
176.798574
 20
30.680243
 30
0.0
 11
176.798574
 21
6.680242999999999
 31
0.0
  0
LINE
  5
1A4B7
330
1A4A9
100
AcDbEntity
 67
     1
  8
外枠
100
AcDbLine
 10
185.798574
 20
30.680243
 30
0.0
 11
185.798574
 21
6.680242999999999
 31
0.0
  0
LINE
  5
1A4B8
330
1A4A9
100
AcDbEntity
 67
     1
  8
外枠
100
AcDbLine
 10
208.798574
 20
30.680243
 30
0.0
 11
208.798574
 21
6.680242999999999
 31
0.0
  0
LINE
  5
1A4B9
330
1A4A9
100
AcDbEntity
 67
     1
  8
外枠
100
AcDbLine
 10
231.798574
 20
6.680242999999999
 30
0.0
 11
231.798574
 21
30.680243
 31
0.0
  0
LINE
  5
1A4BA
330
1A4A9
100
AcDbEntity
 67
     1
  8
外枠
100
AcDbLine
 10
316.798574
 20
18.680243
 30
0.0
 11
316.798574
 21
6.680242999999999
 31
0.0
  0
LINE
  5
1A4BB
330
1A4A9
100
AcDbEntity
 67
     1
  8
外枠
100
AcDbLine
 10
19.798574
 20
30.680243
 30
0.0
 11
356.798574
 21
30.680243
 31
0.0
  0
LINE
  5
1A4BC
330
1A4A9
100
AcDbEntity
 67
     1
  8
外枠
100
AcDbLine
 10
374.798574
 20
30.680243
 30
0.0
 11
374.798574
 21
6.680242999999999
 31
0.0
  0
LINE
  5
1A4BD
330
1A4A9
100
AcDbEntity
 67
     1
  8
外枠
100
AcDbLine
 10
389.798574
 20
30.680243
 30
0.0
 11
389.798574
 21
18.680243
 31
0.0
  0
LINE
  5
1A4BE
330
1A4A9
100
AcDbEntity
 67
     1
  8
外枠
100
AcDbLine
 10
403.798574
 20
18.680243
 30
0.0
 11
231.798574
 21
18.680243
 31
0.0
  0
LINE
  5
1A4BF
330
1A4A9
100
AcDbEntity
 67
     1
  8
外枠
100
AcDbLine
 10
19.798574
 20
26.680243
 30
0.0
 11
185.798574
 21
26.680243
 31
0.0
  0
LINE
  5
1A4C0
330
1A4A9
100
AcDbEntity
 67
     1
  8
外枠
100
AcDbLine
 10
19.798574
 20
22.68024299999999
 30
0.0
 11
185.798574
 21
22.68024299999999
 31
0.0
  0
LINE
  5
1A4C1
330
1A4A9
100
AcDbEntity
 67
     1
  8
外枠
100
AcDbLine
 10
19.798574
 20
18.680243
 30
0.0
 11
185.798574
 21
18.680243
 31
0.0
  0
LINE
  5
1A4C2
330
1A4A9
100
AcDbEntity
 67
     1
  8
外枠
100
AcDbLine
 10
19.798574
 20
14.68024299999999
 30
0.0
 11
185.798574
 21
14.68024299999999
 31
0.0
  0
LINE
  5
1A4C3
330
1A4A9
100
AcDbEntity
 67
     1
  8
外枠
100
AcDbLine
 10
19.798574
 20
10.680243
 30
0.0
 11
185.798574
 21
10.680243
 31
0.0
  0
LINE
  5
1A4C4
330
1A4A9
100
AcDbEntity
 67
     1
  8
外枠
100
AcDbLine
 10
231.798574
 20
22.68024299999999
 30
0.0
 11
185.798574
 21
22.68024299999999
 31
0.0
  0
LINE
  5
1A4C5
330
1A4A9
100
AcDbEntity
 67
     1
  8
外枠
100
AcDbLine
 10
185.798574
 20
14.68024299999999
 30
0.0
 11
231.798574
 21
14.68024299999999
 31
0.0
  0
LINE
  5
1A4C6
330
1A4A9
100
AcDbEntity
 67
     1
  8
外枠
100
AcDbLine
 10
19.798574
 20
30.680243
 30
0.0
 11
13.79857399999999
 21
30.680243
 31
0.0
  0
LINE
  5
1A4C7
330
1A4A9
100
AcDbEntity
 67
     1
  8
外枠
100
AcDbLine
 10
409.798574
 20
30.680243
 30
0.0
 11
403.798574
 21
30.680243
 31
0.0
  0
LINE
  5
1A4C8
330
1A4A9
100
AcDbEntity
 67
     1
  8
外枠
100
AcDbLine
 10
83.798574
 20
278.680243
 30
0.0
 11
83.798574
 21
284.680243
 31
0.0
  0
MTEXT
  5
1A4C9
330
1A4A9
100
AcDbEntity
 67
     1
  8
外枠
100
AcDbMText
 10
24.29857399999999
 20
8.680242999999999
 30
0.0
 40
2.0
 41
23.0
 71
     5
 72
     5
  1
REV.
 73
     1
 44
1.0
  0
MTEXT
  5
1A4CA
330
1A4A9
100
AcDbEntity
 67
     1
  8
外枠
100
AcDbMText
 10
88.798574
 20
8.680242999999999
 30
0.0
 40
2.0
 41
23.0
 71
     5
 72
     5
  1
CONTENT
 73
     1
 44
1.0
  0
MTEXT
  5
1A4CB
330
1A4A9
100
AcDbEntity
 67
     1
  8
外枠
100
AcDbMText
 10
149.2985739999999
 20
8.680242999999999
 30
0.0
 40
2.0
 41
11.0
 71
     5
 72
     5
  1
DATE
 73
     1
 44
1.0
  0
MTEXT
  5
1A4CC
330
1A4A9
100
AcDbEntity
 67
     1
  8
外枠
100
AcDbMText
 10
163.298574
 20
8.680242999999999
 30
0.0
 40
2.0
 41
10.0
 71
     5
 72
     5
  1
DRW
 73
     1
 44
1.0
  0
MTEXT
  5
1A4CD
330
1A4A9
100
AcDbEntity
 67
     1
  8
外枠
100
AcDbMText
 10
172.298574
 20
8.680242999999999
 30
0.0
 40
2.0
 41
10.0
 71
     5
 72
     5
  1
CHK
 73
     1
 44
1.0
  0
MTEXT
  5
1A4CE
330
1A4A9
100
AcDbEntity
 67
     1
  8
外枠
100
AcDbMText
 10
181.298574
 20
8.680242999999999
 30
0.0
 40
2.0
 41
10.0
 71
     5
 72
     5
  1
APR
 73
     1
 44
1.0
  0
MTEXT
  5
1A4CF
330
1A4A9
100
AcDbEntity
 67
     1
  8
外枠
100
AcDbMText
 10
186.7985739999999
 20
28.680243
 30
0.0
 40
1.5
 41
10.38739999999999
 71
     4
 72
     5
  1
DRAWN
 73
     1
 44
1.0
  0
MTEXT
  5
1A4D0
330
1A4A9
100
AcDbEntity
 67
     1
  8
外枠
100
AcDbMText
 10
209.798574
 20
28.680243
 30
0.0
 40
1.5
 41
10.38739999999999
 71
     4
 72
     5
  1
DATE
 73
     1
 44
1.0
  0
MTEXT
  5
1A4D1
330
1A4A9
100
AcDbEntity
 67
     1
  8
外枠
100
AcDbMText
 10
186.7985739999999
 20
20.680243
 30
0.0
 40
1.5
 41
10.38739999999999
 71
     4
 72
     5
  1
CHECKED
 73
     1
 44
1.0
  0
MTEXT
  5
1A4D2
330
1A4A9
100
AcDbEntity
 67
     1
  8
外枠
100
AcDbMText
 10
209.798574
 20
20.680243
 30
0.0
 40
1.5
 41
10.38739999999999
 71
     4
 72
     5
  1
DATE
 73
     1
 44
1.0
  0
MTEXT
  5
1A4D3
330
1A4A9
100
AcDbEntity
 67
     1
  8
外枠
100
AcDbMText
 10
186.7985739999999
 20
12.68024299999999
 30
0.0
 40
1.5
 41
10.38739999999999
 71
     4
 72
     5
  1
APPROVED
 73
     1
 44
1.0
  0
MTEXT
  5
1A4D4
330
1A4A9
100
AcDbEntity
 67
     1
  8
外枠
100
AcDbMText
 10
209.798574
 20
12.68024299999999
 30
0.0
 40
1.5
 41
10.38739999999999
 71
     4
 72
     5
  1
DATE
 73
     1
 44
1.0
  0
MTEXT
  5
1A4D5
330
1A4A9
100
AcDbEntity
 67
     1
  8
外枠
100
AcDbMText
 10
236.514215
 20
28.680243
 30
0.0
 40
2.0
 41
13.5309
 71
     4
 72
     5
  1
TITLE
 73
     1
 44
1.0
  0
MTEXT
  5
1A4D6
330
1A4A9
100
AcDbEntity
 67
     1
  8
外枠
100
AcDbMText
 10
318.298574
 20
16.680243
 30
0.0
 40
2.0
 41
30.5046
 71
     4
 72
     5
  1
DRAWNIG No.
 73
     1
 44
1.0
  0
MTEXT
  5
1A4D7
330
1A4A9
100
AcDbEntity
 67
     1
  8
外枠
100
AcDbMText
 10
375.798574
 20
28.680243
 30
0.0
 40
2.0
 41
12.0
 71
     4
 72
     5
  1
SCALE
 73
     1
 44
1.0
  0
MTEXT
  5
1A4D8
330
1A4A9
100
AcDbEntity
 67
     1
  8
外枠
100
AcDbMText
 10
390.798574
 20
28.680243
 30
0.0
 40
2.0
 41
10.0
 71
     4
 72
     5
  1
SIZE
 73
     1
 44
1.0
  0
MTEXT
  5
1A4D9
330
1A4A9
100
AcDbEntity
 67
     1
  8
外枠
100
AcDbMText
 10
375.798574
 20
16.680243
 30
0.0
 40
2.0
 41
20.0
 71
     4
 72
     5
  1
SHEET
 73
     1
 44
1.0
  0
MTEXT
  5
1A4DA
330
1A4A9
100
AcDbEntity
 67
     1
  8
外枠
100
AcDbMText
 10
51.798574
 20
281.680243
 30
0.0
 40
3.0
 41
24.4503
 71
     5
 72
     5
  1
1
 73
     1
 44
1.0
  0
MTEXT
  5
1A4DB
330
1A4A9
100
AcDbEntity
 67
     1
  8
外枠
100
AcDbMText
 10
17.298574
 20
62.180243
 30
0.0
 40
3.0
 41
5.0
 71
     5
 72
     5
  1
A
 73
     1
 44
1.0
  0
MTEXT
  5
1A4DC
330
1A4A9
100
AcDbEntity
 67
     1
  8
外枠
100
AcDbMText
 10
406.298574
 20
62.180243
 30
0.0
 40
3.0
 41
5.0
 71
     5
 72
     5
  1
A
 73
     1
 44
1.0
  0
MTEXT
  5
1A4DD
330
1A4A9
100
AcDbEntity
 67
     1
  8
外枠
100
AcDbMText
 10
389.798574
 20
11.18024299999999
 30
0.0
 40
5.5
 41
25.0
 71
     5
 72
     5
  1
1/1
 73
     1
 44
1.0
  0
MTEXT
  5
1A4DE
330
1A4A9
100
AcDbEntity
 67
     1
  8
外枠
100
AcDbMText
 10
397.798574
 20
23.180243
 30
0.0
 40
5.0
 41
12.0
 71
     5
 72
     5
  1
A3
 73
     1
 44
1.0
  0
MTEXT
  5
1A4DF
330
1A4A9
100
AcDbEntity
 67
     1
  8
外枠
100
AcDbMText
 10
346.798574
 20
11.18024299999999
 30
0.0
 40
3.5
 41
50.0
 71
     5
 72
     5
  1
ED-056-0-004-H-**A-0
 73
     1
 44
1.0
  0
MTEXT
  5
1A4E0
330
1A4A9
100
AcDbEntity
 67
     1
  8
外枠
100
AcDbMText
 10
6.798574
 20
122.6802429999999
 30
0.0
 40
1.5
 41
90.0
 71
     4
 72
     5
  3
This material and the information herein is the property of IAI Corp..\PThey shall be neither reproduced, copied, lent, or disclosed in any way\Pwhatever for the use of any third party, nor used for the manufacturing\Ppurposes without the express wri
  1
tten consent of IAI Corp..
 11
0.0
 21
1.0
 31
0.0
 73
     1
 44
1.0
  0
LINE
  5
1A4E1
330
1A4A9
100
AcDbEntity
 67
     1
  8
外枠
100
AcDbLine
 10
19.798574
 20
92.680243
 30
0.0
 11
13.79857399999999
 21
92.680243
 31
0.0
  0
LINE
  5
1A4E2
330
1A4A9
100
AcDbEntity
 67
     1
  8
外枠
100
AcDbLine
 10
19.798574
 20
154.6802429999999
 30
0.0
 11
13.79857399999999
 21
154.6802429999999
 31
0.0
  0
LINE
  5
1A4E3
330
1A4A9
100
AcDbEntity
 67
     1
  8
外枠
100
AcDbLine
 10
19.798574
 20
216.680243
 30
0.0
 11
13.79857399999999
 21
216.680243
 31
0.0
  0
MTEXT
  5
1A4E4
330
1A4A9
100
AcDbEntity
 67
     1
  8
外枠
100
AcDbMText
 10
17.298574
 20
124.1802429999999
 30
0.0
 40
3.0
 41
5.0
 71
     5
 72
     5
  1
B
 73
     1
 44
1.0
  0
MTEXT
  5
1A4E5
330
1A4A9
100
AcDbEntity
 67
     1
  8
外枠
100
AcDbMText
 10
17.298574
 20
186.180243
 30
0.0
 40
3.0
 41
5.0
 71
     5
 72
     5
  1
C
 73
     1
 44
1.0
  0
MTEXT
  5
1A4E6
330
1A4A9
100
AcDbEntity
 67
     1
  8
外枠
100
AcDbMText
 10
17.298574
 20
248.180243
 30
0.0
 40
3.0
 41
5.0
 71
     5
 72
     5
  1
D
 73
     1
 44
1.0
  0
LINE
  5
1A4E7
330
1A4A9
100
AcDbEntity
 67
     1
  8
外枠
100
AcDbLine
 10
409.798574
 20
92.680243
 30
0.0
 11
403.798574
 21
92.680243
 31
0.0
  0
LINE
  5
1A4E8
330
1A4A9
100
AcDbEntity
 67
     1
  8
外枠
100
AcDbLine
 10
409.798574
 20
154.6802429999999
 30
0.0
 11
403.798574
 21
154.6802429999999
 31
0.0
  0
LINE
  5
1A4E9
330
1A4A9
100
AcDbEntity
 67
     1
  8
外枠
100
AcDbLine
 10
409.798574
 20
216.680243
 30
0.0
 11
403.798574
 21
216.680243
 31
0.0
  0
MTEXT
  5
1A4EA
330
1A4A9
100
AcDbEntity
 67
     1
  8
外枠
100
AcDbMText
 10
406.298574
 20
124.1802429999999
 30
0.0
 40
3.0
 41
5.0
 71
     5
 72
     5
  1
B
 73
     1
 44
1.0
  0
MTEXT
  5
1A4EB
330
1A4A9
100
AcDbEntity
 67
     1
  8
外枠
100
AcDbMText
 10
406.298574
 20
186.180243
 30
0.0
 40
3.0
 41
5.0
 71
     5
 72
     5
  1
C
 73
     1
 44
1.0
  0
MTEXT
  5
1A4EC
330
1A4A9
100
AcDbEntity
 67
     1
  8
外枠
100
AcDbMText
 10
406.298574
 20
248.180243
 30
0.0
 40
3.0
 41
5.0
 71
     5
 72
     5
  1
D
 73
     1
 44
1.0
  0
LINE
  5
1A4ED
330
1A4A9
100
AcDbEntity
 67
     1
  8
外枠
100
AcDbLine
 10
147.798574
 20
278.680243
 30
0.0
 11
147.798574
 21
284.680243
 31
0.0
  0
LINE
  5
1A4EE
330
1A4A9
100
AcDbEntity
 67
     1
  8
外枠
100
AcDbLine
 10
211.798574
 20
278.680243
 30
0.0
 11
211.798574
 21
284.680243
 31
0.0
  0
LINE
  5
1A4EF
330
1A4A9
100
AcDbEntity
 67
     1
  8
外枠
100
AcDbLine
 10
275.798574
 20
278.680243
 30
0.0
 11
275.798574
 21
284.680243
 31
0.0
  0
LINE
  5
1A4F0
330
1A4A9
100
AcDbEntity
 67
     1
  8
外枠
100
AcDbLine
 10
339.798574
 20
278.680243
 30
0.0
 11
339.798574
 21
284.680243
 31
0.0
  0
MTEXT
  5
1A4F1
330
1A4A9
100
AcDbEntity
 67
     1
  8
外枠
100
AcDbMText
 10
115.7985739999999
 20
281.680243
 30
0.0
 40
3.0
 41
24.4503
 71
     5
 72
     5
  1
2
 73
     1
 44
1.0
  0
MTEXT
  5
1A4F2
330
1A4A9
100
AcDbEntity
 67
     1
  8
外枠
100
AcDbMText
 10
179.798574
 20
281.680243
 30
0.0
 40
3.0
 41
24.4503
 71
     5
 72
     5
  1
3
 73
     1
 44
1.0
  0
MTEXT
  5
1A4F3
330
1A4A9
100
AcDbEntity
 67
     1
  8
外枠
100
AcDbMText
 10
243.798574
 20
281.680243
 30
0.0
 40
3.0
 41
24.4503
 71
     5
 72
     5
  1
4
 73
     1
 44
1.0
  0
MTEXT
  5
1A4F4
330
1A4A9
100
AcDbEntity
 67
     1
  8
外枠
100
AcDbMText
 10
307.798574
 20
281.680243
 30
0.0
 40
3.0
 41
24.4503
 71
     5
 72
     5
  1
5
 73
     1
 44
1.0
  0
MTEXT
  5
1A4F5
330
1A4A9
100
AcDbEntity
 67
     1
  8
外枠
100
AcDbMText
 10
371.798574
 20
281.680243
 30
0.0
 40
3.0
 41
24.4503
 71
     5
 72
     5
  1
6
 73
     1
 44
1.0
  0
VIEWPORT
  5
1A4F6
330
1A4A9
100
AcDbEntity
 67
     1
  8
外枠
100
AcDbViewport
 10
211.798574
 20
154.6802429999999
 30
0.0
 40
384.0
 41
248.0
 68
     0
 69
     2
 12
-634.996612
 22
-60.852076
 13
0.0
 23
0.0
 14
10.0
 24
10.0
 15
10.0
 25
10.0
 16
0.0
 26
0.0
 36
1.0
 17
0.0
 27
0.0
 37
0.0
 42
50.0
 43
0.0
 44
0.0
 45
268.5818659999999
 50
0.0
 51
0.0
 72
   100
 90
   163872
  1

281
     0
 71
     1
 74
     0
110
0.0
120
0.0
130
0.0
111
1.0
121
0.0
131
0.0
112
0.0
122
1.0
132
0.0
 79
     0
146
0.0
  0
MTEXT
  5
1A4F7
330
1A4A9
100
AcDbEntity
 67
     1
  8
外枠
100
AcDbMText
 10
244.7189378805147
 20
23.980581
 30
0.0
 40
3.5
 41
131.0347708727171
 71
     4
 72
     5
  1
nSCON　400W以上製品外形図（MECHATROLINK III仕様）
  7
BIGFONT
 73
     1
 44
1.0
  0
MTEXT
  5
1A4F8
330
1A4A9
100
AcDbEntity
 67
     1
  8
外枠
100
AcDbMText
 10
197.163861
 20
24.81272399999999
 30
0.0
 40
2.299999999999999
 41
23.6281
 71
     5
 72
     5
  1
H.Suzukake
  7
BIGFONT
 73
     1
 44
1.0
  0
MTEXT
  5
1A4F9
330
1A4A9
100
AcDbEntity
 67
     1
  8
外枠
100
AcDbMText
 10
211.6997779999999
 20
24.92512
 30
0.0
 40
2.5
 41
23.178
 71
     4
 72
     5
  1
13.03.25
  7
BIGFONT
 73
     1
 44
1.0
  0
INSERT
  5
1A4FA
330
1A4A9
100
AcDbEntity
 67
     1
  8
外枠
100
AcDbBlockReference
  2
A$C338010C9
 10
237.527872
 20
8.609218999999999
 30
0.0
 41
0.45
 42
0.45
 43
0.45
  0
MTEXT
  5
1A4FB
330
1A4A9
100
AcDbEntity
 67
     1
  8
外枠
100
AcDbMText
 10
382.662601
 20
23.012086
 30
0.0
 40
4.0
 41
25.0
 71
     5
 72
     5
  1
1/2
 73
     1
 44
1.0
  0
VIEWPORT
  5
1A4FC
330
1A4A9
100
AcDbEntity
 67
     1
  8
VIEWPORT枠
100
AcDbViewport
 10
211.798574
 20
154.6802429999999
 30
0.0
 40
384.0
 41
248.0
 68
     2
 69
     3
 12
692.2455801950818
 22
-3414.031092387519
 13
0.0
 23
0.0
 14
10.0
 24
10.0
 15
10.0
 25
10.0
 16
0.0
 26
0.0
 36
1.0
 17
0.0
 27
0.0
 37
0.0
 42
50.0
 43
0.0
 44
0.0
 45
496.000028161151
 50
0.0
 51
0.0
 72
   100
 90
    32800
  1

281
     0
 71
     1
 74
     0
110
0.0
120
0.0
130
0.0
111
1.0
121
0.0
131
0.0
112
0.0
122
1.0
132
0.0
 79
     0
146
0.0
  0
ENDSEC
  0
SECTION
  2
OBJECTS
  0
DICTIONARY
  5
C
330
0
100
AcDbDictionary
281
     1
  3
ACAD_GROUP
350
D
  3
ACAD_IMAGE_VARS
350
1A9BF
  3
ACAD_LAYOUT
350
1B73
  3
ACAD_MLINESTYLE
350
1B
  3
ACAD_PLOTSETTINGS
350
1B74
  3
ACAD_PLOTSTYLENAME
350
1B71
  3
ACAD_SCALELIST
350
1A995
  3
ACDBHEADERROUNDTRIPXREC
350
1AEFF
  3
AcDbVariableDictionary
350
1B7B
  3
APPDATA
350
1A9BD
  3
CONTENTDICTIONARY
350
30A
  3
DWGPROPS
350
1A9D0
  0
DICTIONARY
  5
10A43
330
2
100
AcDbDictionary
280
     1
281
     1
  3
ACAD_LAYERSTATES
360
10A44
  0
DICTIONARY
  5
87B9
330
18
100
AcDbDictionary
280
     1
281
     1
  3
ACAD_SORTENTS
360
CCB0
  0
DICTIONARY
  5
D
102
{ACAD_REACTORS
330
C
102
}
330
C
100
AcDbDictionary
281
     1
  3
*A1
350
7261
  3
*A10
350
BDEF
  3
*A11
350
870A
  3
*A12
350
871A
  3
*A13
350
872B
  3
*A14
350
8730
  3
*A15
350
8739
  3
*A2
350
8744
  3
*A3
350
8766
  3
*A4
350
8891
  3
*A5
350
BDEB
  3
*A6
350
BDEC
  3
*A7
350
170FA
  3
*A8
350
BDED
  3
*A9
350
BDEE
  0
RASTERVARIABLES
  5
1A9BF
102
{ACAD_REACTORS
330
C
102
}
330
C
100
AcDbRasterVariables
 90
        0
 70
     1
 71
     1
 72
     0
  0
DICTIONARY
  5
1B73
102
{ACAD_REACTORS
330
C
102
}
330
C
100
AcDbDictionary
281
     1
  3
MECHATROLINK3
350
1A501
  3
Model
350
1B75
  0
DICTIONARY
  5
1B
102
{ACAD_REACTORS
330
C
102
}
330
C
100
AcDbDictionary
281
     1
  3
STANDARD
350
1C
  0
DICTIONARY
  5
1B74
102
{ACAD_REACTORS
330
C
102
}
330
C
100
AcDbDictionary
281
     1
  0
ACDBDICTIONARYWDFLT
  5
1B71
102
{ACAD_REACTORS
330
C
102
}
330
C
100
AcDbDictionary
281
     1
  3
Normal
350
1B72
100
AcDbDictionaryWithDefault
340
1B72
  0
DICTIONARY
  5
1A995
102
{ACAD_REACTORS
330
C
102
}
330
C
100
AcDbDictionary
281
     1
  3
A0
350
1A996
  3
A1
350
1A997
  3
A2
350
1A998
  3
A3
350
1A999
  3
A4
350
1A99A
  3
A5
350
1A99B
  3
A6
350
1A99C
  3
A7
350
1A99D
  3
A8
350
1A99E
  3
A9
350
1A99F
  3
B0
350
1A9A0
  3
B1
350
1A9A1
  3
B2
350
1A9A2
  3
B3
350
1A9A3
  3
B4
350
1A9A4
  3
B5
350
1A9A5
  3
B6
350
1A9A6
  3
B7
350
1A9A7
  3
B8
350
1A9A8
  3
B9
350
1A9A9
  3
C0
350
1A9AA
  3
C1
350
1A9AB
  3
C2
350
1A9AC
  3
C3
350
1A9AD
  3
C4
350
1A9AE
  3
C5
350
1A9AF
  3
C6
350
1A9B0
  3
C7
350
1A9B1
  3
C8
350
1A9B2
  3
C9
350
1A9B3
  3
D0
350
1A9B4
  3
D1
350
1A9B5
  3
D2
350
1A9B6
  0
DICTIONARY
  5
1AEFF
102
{ACAD_REACTORS
330
C
102
}
330
C
100
AcDbDictionary
281
     1
  3
CEPSNTYPE
350
1AF09
  3
DIMSTYLEDATA
350
1AF0D
  3
FINGERPRINTGUID
350
1AF0A
  3
HYPERLINKBASE
350
1AF02
  3
INSUNITS
350
1AF08
  3
LAYOUTDICT
350
1AF04
  3
LWETCUNION
350
1AF07
  3
PLOTSETDICT
350
1AF05
  3
PLOTSTYLNAMDICT
350
1AF06
  3
PSVPSCALE
350
1AF0C
  3
PUCSBASE
350
1AF10
  3
PUCSORGBACK
350
1AF16
  3
PUCSORGBOTTOM
350
1AF12
  3
PUCSORGFRONT
350
1AF15
  3
PUCSORGLEFT
350
1AF13
  3
PUCSORGRIGHT
350
1AF14
  3
PUCSORGTOP
350
1AF11
  3
PUCSORTHOREF
350
1AF0E
  3
PUCSORTHOVIEW
350
1AF0F
  3
STYLESHEET
350
1AF03
  3
TSTACKALIGN
350
1AF00
  3
TSTACKSIZE
350
1AF01
  3
UCSBASE
350
1AF19
  3
UCSORGBACK
350
1AF1F
  3
UCSORGBOTTOM
350
1AF1B
  3
UCSORGFRONT
350
1AF1E
  3
UCSORGLEFT
350
1AF1C
  3
UCSORGRIGHT
350
1AF1D
  3
UCSORGTOP
350
1AF1A
  3
UCSORTHOREF
350
1AF17
  3
UCSORTHOVIEW
350
1AF18
  3
VERSIONGUID
350
1AF0B
  0
DICTIONARY
  5
1B7B
102
{ACAD_REACTORS
330
C
102
}
330
C
100
AcDbDictionary
281
     1
  3
DIMASSOC
350
1B7C
  3
SORTENTS
350
A7B4
  0
DICTIONARY
  5
1A9BD
102
{ACAD_REACTORS
330
C
102
}
330
C
100
AcDbDictionary
281
     1
  0
DICTIONARY
  5
30A
102
{ACAD_REACTORS
330
C
102
}
330
C
100
AcDbDictionary
281
     1
  0
XRECORD
  5
1A9D0
102
{ACAD_REACTORS
330
C
102
}
330
C
100
AcDbXrecord
280
     1
  1
DWGPROPS COOKIE
  2

  3

  4

  6

  7

  8
848
  9

300
=
301
=
302
=
303
=
304
=
305
=
306
=
307
=
308
=
309
=
 40
0.0
 41
2452240.268004375
 42
2456868.161064595
  1

 90
        0
  0
DICTIONARY
  5
10A44
102
{ACAD_REACTORS
330
10A43
102
}
330
10A43
100
AcDbDictionary
281
     1
  0
SORTENTSTABLE
  5
CCB0
102
{ACAD_REACTORS
330
87B9
102
}
330
87B9
100
AcDbSortentsTable
330
18
  0
GROUP
  5
7261
102
{ACAD_REACTORS
330
D
102
}
330
D
100
AcDbGroup
300

 70
     1
 71
     1
  0
GROUP
  5
BDEF
102
{ACAD_REACTORS
330
D
102
}
330
D
100
AcDbGroup
300

 70
     1
 71
     1
  0
GROUP
  5
870A
102
{ACAD_REACTORS
330
D
102
}
330
D
100
AcDbGroup
300

 70
     1
 71
     1
  0
GROUP
  5
871A
102
{ACAD_REACTORS
330
D
102
}
330
D
100
AcDbGroup
300

 70
     1
 71
     1
  0
GROUP
  5
872B
102
{ACAD_REACTORS
330
D
102
}
330
D
100
AcDbGroup
300

 70
     1
 71
     1
  0
GROUP
  5
8730
102
{ACAD_REACTORS
330
D
102
}
330
D
100
AcDbGroup
300

 70
     1
 71
     1
  0
GROUP
  5
8739
102
{ACAD_REACTORS
330
D
102
}
330
D
100
AcDbGroup
300

 70
     1
 71
     1
  0
GROUP
  5
8744
102
{ACAD_REACTORS
330
D
102
}
330
D
100
AcDbGroup
300

 70
     1
 71
     1
  0
GROUP
  5
8766
102
{ACAD_REACTORS
330
D
102
}
330
D
100
AcDbGroup
300

 70
     1
 71
     1
  0
GROUP
  5
8891
102
{ACAD_REACTORS
330
D
102
}
330
D
100
AcDbGroup
300

 70
     1
 71
     1
  0
GROUP
  5
BDEB
102
{ACAD_REACTORS
330
D
102
}
330
D
100
AcDbGroup
300

 70
     1
 71
     1
  0
GROUP
  5
BDEC
102
{ACAD_REACTORS
330
D
102
}
330
D
100
AcDbGroup
300

 70
     1
 71
     1
  0
GROUP
  5
170FA
102
{ACAD_REACTORS
330
D
102
}
330
D
100
AcDbGroup
300

 70
     1
 71
     1
  0
GROUP
  5
BDED
102
{ACAD_REACTORS
330
D
102
}
330
D
100
AcDbGroup
300

 70
     1
 71
     1
  0
GROUP
  5
BDEE
102
{ACAD_REACTORS
330
D
102
}
330
D
100
AcDbGroup
300

 70
     1
 71
     1
  0
LAYOUT
  5
1A501
102
{ACAD_REACTORS
330
1B73
102
}
330
1B73
100
AcDbPlotSettings
  1

  2
7F大型複合機_AP7080
  4
A3
  6

 40
4.900083065032958
 41
4.857729434967041
 42
4.900054931640625
 43
4.90008544921875
 44
297.0106506347656
 45
419.9889831542968
 46
0.0
 47
0.0
 48
0.0
 49
0.0
140
0.0
141
0.0
142
1.0
143
1.0
 70
   688
 72
     1
 73
     1
 74
     1
  7

 75
    16
147
1.0
148
0.0109582953936069
149
0.0210675970057537
100
AcDbLayout
  1
MECHATROLINK3
 70
     1
 71
     1
 10
-4.911043744612356
 20
-4.921150662038712
 11
415.0779394096844
 21
292.0894999727268
 12
0.0
 22
0.0
 32
0.0
 14
0.0
 24
0.0
 34
0.0
 15
420.0
 25
297.0
 35
0.0
146
0.0
 13
0.0
 23
0.0
 33
0.0
 16
1.0
 26
0.0
 36
0.0
 17
0.0
 27
1.0
 37
0.0
 76
     0
330
1A4A9
331
1A4AA
  0
LAYOUT
  5
1B75
102
{ACAD_REACTORS
330
1B73
102
}
330
1B73
100
AcDbPlotSettings
  1

  2
Acrobat PDFWriter
  4
A3
  6

 40
7.143749713897705
 41
7.143756389617919
 42
7.143768310546875
 43
7.14373779296875
 44
297.1270751953125
 45
420.1583251953125
 46
50.91
 47
66.15000000000001
 48
0.0
 49
0.0
140
0.0
141
0.0
142
1.0
143
1.0
 70
 11956
 72
     1
 73
     1
 74
     0
  7

 75
    16
147
1.0
148
123.9234986176679
149
8.627310359533112
100
AcDbLayout
  1
Model
 70
     1
 71
     0
 10
0.0
 20
0.0
 11
12.0
 21
9.0
 12
0.0
 22
0.0
 32
0.0
 14
0.0
 24
0.0
 34
0.0
 15
0.0
 25
0.0
 35
0.0
146
0.0
 13
0.0
 23
0.0
 33
0.0
 16
1.0
 26
0.0
 36
0.0
 17
0.0
 27
1.0
 37
0.0
 76
     0
330
18
  0
MLINESTYLE
  5
1C
102
{ACAD_REACTORS
330
1B
102
}
330
1B
100
AcDbMlineStyle
  2
STANDARD
 70
     0
  3

 62
   256
 51
90.0
 52
90.0
 71
     2
 49
0.5
 62
   256
  6
BYLAYER
 49
-0.5
 62
   256
  6
BYLAYER
  0
ACDBPLACEHOLDER
  5
1B72
102
{ACAD_REACTORS
330
1B71
102
}
330
1B71
  0
SCALE
  5
1A996
102
{ACAD_REACTORS
330
1A995
102
}
330
1A995
100
AcDbScale
 70
     0
300
1:1
140
1.0
141
1.0
290
     1
  0
SCALE
  5
1A997
102
{ACAD_REACTORS
330
1A995
102
}
330
1A995
100
AcDbScale
 70
     0
300
1:2
140
1.0
141
2.0
290
     0
  0
SCALE
  5
1A998
102
{ACAD_REACTORS
330
1A995
102
}
330
1A995
100
AcDbScale
 70
     0
300
1:4
140
1.0
141
4.0
290
     0
  0
SCALE
  5
1A999
102
{ACAD_REACTORS
330
1A995
102
}
330
1A995
100
AcDbScale
 70
     0
300
1:5
140
1.0
141
5.0
290
     0
  0
SCALE
  5
1A99A
102
{ACAD_REACTORS
330
1A995
102
}
330
1A995
100
AcDbScale
 70
     0
300
1:8
140
1.0
141
8.0
290
     0
  0
SCALE
  5
1A99B
102
{ACAD_REACTORS
330
1A995
102
}
330
1A995
100
AcDbScale
 70
     0
300
1:10
140
1.0
141
10.0
290
     0
  0
SCALE
  5
1A99C
102
{ACAD_REACTORS
330
1A995
102
}
330
1A995
100
AcDbScale
 70
     0
300
1:16
140
1.0
141
16.0
290
     0
  0
SCALE
  5
1A99D
102
{ACAD_REACTORS
330
1A995
102
}
330
1A995
100
AcDbScale
 70
     0
300
1:20
140
1.0
141
20.0
290
     0
  0
SCALE
  5
1A99E
102
{ACAD_REACTORS
330
1A995
102
}
330
1A995
100
AcDbScale
 70
     0
300
1:30
140
1.0
141
30.0
290
     0
  0
SCALE
  5
1A99F
102
{ACAD_REACTORS
330
1A995
102
}
330
1A995
100
AcDbScale
 70
     0
300
1:40
140
1.0
141
40.0
290
     0
  0
SCALE
  5
1A9A0
102
{ACAD_REACTORS
330
1A995
102
}
330
1A995
100
AcDbScale
 70
     0
300
1:50
140
1.0
141
50.0
290
     0
  0
SCALE
  5
1A9A1
102
{ACAD_REACTORS
330
1A995
102
}
330
1A995
100
AcDbScale
 70
     0
300
1:100
140
1.0
141
100.0
290
     0
  0
SCALE
  5
1A9A2
102
{ACAD_REACTORS
330
1A995
102
}
330
1A995
100
AcDbScale
 70
     0
300
2:1
140
2.0
141
1.0
290
     0
  0
SCALE
  5
1A9A3
102
{ACAD_REACTORS
330
1A995
102
}
330
1A995
100
AcDbScale
 70
     0
300
4:1
140
4.0
141
1.0
290
     0
  0
SCALE
  5
1A9A4
102
{ACAD_REACTORS
330
1A995
102
}
330
1A995
100
AcDbScale
 70
     0
300
8:1
140
8.0
141
1.0
290
     0
  0
SCALE
  5
1A9A5
102
{ACAD_REACTORS
330
1A995
102
}
330
1A995
100
AcDbScale
 70
     0
300
10:1
140
10.0
141
1.0
290
     0
  0
SCALE
  5
1A9A6
102
{ACAD_REACTORS
330
1A995
102
}
330
1A995
100
AcDbScale
 70
     0
300
100:1
140
100.0
141
1.0
290
     0
  0
SCALE
  5
1A9A7
102
{ACAD_REACTORS
330
1A995
102
}
330
1A995
100
AcDbScale
 70
     0
300
1/128" = 1'-0"
140
0.0078125
141
12.0
290
     0
  0
SCALE
  5
1A9A8
102
{ACAD_REACTORS
330
1A995
102
}
330
1A995
100
AcDbScale
 70
     0
300
1/64" = 1'-0"
140
0.015625
141
12.0
290
     0
  0
SCALE
  5
1A9A9
102
{ACAD_REACTORS
330
1A995
102
}
330
1A995
100
AcDbScale
 70
     0
300
1/32" = 1'-0"
140
0.03125
141
12.0
290
     0
  0
SCALE
  5
1A9AA
102
{ACAD_REACTORS
330
1A995
102
}
330
1A995
100
AcDbScale
 70
     0
300
1/16" = 1'-0"
140
0.0625
141
12.0
290
     0
  0
SCALE
  5
1A9AB
102
{ACAD_REACTORS
330
1A995
102
}
330
1A995
100
AcDbScale
 70
     0
300
3/32" = 1'-0"
140
0.09375
141
12.0
290
     0
  0
SCALE
  5
1A9AC
102
{ACAD_REACTORS
330
1A995
102
}
330
1A995
100
AcDbScale
 70
     0
300
1/8" = 1'-0"
140
0.125
141
12.0
290
     0
  0
SCALE
  5
1A9AD
102
{ACAD_REACTORS
330
1A995
102
}
330
1A995
100
AcDbScale
 70
     0
300
3/16" = 1'-0"
140
0.1875
141
12.0
290
     0
  0
SCALE
  5
1A9AE
102
{ACAD_REACTORS
330
1A995
102
}
330
1A995
100
AcDbScale
 70
     0
300
1/4" = 1'-0"
140
0.25
141
12.0
290
     0
  0
SCALE
  5
1A9AF
102
{ACAD_REACTORS
330
1A995
102
}
330
1A995
100
AcDbScale
 70
     0
300
3/8" = 1'-0"
140
0.375
141
12.0
290
     0
  0
SCALE
  5
1A9B0
102
{ACAD_REACTORS
330
1A995
102
}
330
1A995
100
AcDbScale
 70
     0
300
1/2" = 1'-0"
140
0.5
141
12.0
290
     0
  0
SCALE
  5
1A9B1
102
{ACAD_REACTORS
330
1A995
102
}
330
1A995
100
AcDbScale
 70
     0
300
3/4" = 1'-0"
140
0.75
141
12.0
290
     0
  0
SCALE
  5
1A9B2
102
{ACAD_REACTORS
330
1A995
102
}
330
1A995
100
AcDbScale
 70
     0
300
1" = 1'-0"
140
1.0
141
12.0
290
     0
  0
SCALE
  5
1A9B3
102
{ACAD_REACTORS
330
1A995
102
}
330
1A995
100
AcDbScale
 70
     0
300
1-1/2" = 1'-0"
140
1.5
141
12.0
290
     0
  0
SCALE
  5
1A9B4
102
{ACAD_REACTORS
330
1A995
102
}
330
1A995
100
AcDbScale
 70
     0
300
3" = 1'-0"
140
3.0
141
12.0
290
     0
  0
SCALE
  5
1A9B5
102
{ACAD_REACTORS
330
1A995
102
}
330
1A995
100
AcDbScale
 70
     0
300
6" = 1'-0"
140
6.0
141
12.0
290
     0
  0
SCALE
  5
1A9B6
102
{ACAD_REACTORS
330
1A995
102
}
330
1A995
100
AcDbScale
 70
     0
300
1'-0" = 1'-0"
140
12.0
141
12.0
290
     0
  0
XRECORD
  5
1AF09
102
{ACAD_REACTORS
330
1AEFF
102
}
330
1AEFF
100
AcDbXrecord
280
     1
 90
        0
  0
XRECORD
  5
1AF0D
102
{ACAD_REACTORS
330
1AEFF
102
}
330
1AEFF
100
AcDbXrecord
280
     1
1000
DSTYLE
1002
{
1070
    79
 70
     2
1070
   179
 70
     5
1070
   276
 70
     2
1070
   341
340
1AA06
1070
   342
340
1AA06
1070
   371
 70
    -1
1070
   372
 70
    -1
1002
}
  0
XRECORD
  5
1AF0A
102
{ACAD_REACTORS
330
1AEFF
102
}
330
1AEFF
100
AcDbXrecord
280
     1
  1
{6FDF5DD9-E1C4-4B83-93D0-8D8DAA8CABC8}
  0
XRECORD
  5
1AF02
102
{ACAD_REACTORS
330
1AEFF
102
}
330
1AEFF
100
AcDbXrecord
280
     1
  1

  0
XRECORD
  5
1AF08
102
{ACAD_REACTORS
330
1AEFF
102
}
330
1AEFF
100
AcDbXrecord
280
     1
 90
        0
  0
XRECORD
  5
1AF04
102
{ACAD_REACTORS
330
1AEFF
102
}
330
1AEFF
100
AcDbXrecord
280
     1
340
1B73
  0
XRECORD
  5
1AF07
102
{ACAD_REACTORS
330
1AEFF
102
}
330
1AEFF
100
AcDbXrecord
280
     1
 90
    10781
  0
XRECORD
  5
1AF05
102
{ACAD_REACTORS
330
1AEFF
102
}
330
1AEFF
100
AcDbXrecord
280
     1
340
1B74
  0
XRECORD
  5
1AF06
102
{ACAD_REACTORS
330
1AEFF
102
}
330
1AEFF
100
AcDbXrecord
280
     1
340
1B71
  0
XRECORD
  5
1AF0C
102
{ACAD_REACTORS
330
1AEFF
102
}
330
1AEFF
100
AcDbXrecord
280
     1
 40
0.0
  0
XRECORD
  5
1AF10
102
{ACAD_REACTORS
330
1AEFF
102
}
330
1AEFF
100
AcDbXrecord
280
     1
340
0
  0
XRECORD
  5
1AF16
102
{ACAD_REACTORS
330
1AEFF
102
}
330
1AEFF
100
AcDbXrecord
280
     1
 10
0.0
 20
0.0
 30
0.0
  0
XRECORD
  5
1AF12
102
{ACAD_REACTORS
330
1AEFF
102
}
330
1AEFF
100
AcDbXrecord
280
     1
 10
0.0
 20
0.0
 30
0.0
  0
XRECORD
  5
1AF15
102
{ACAD_REACTORS
330
1AEFF
102
}
330
1AEFF
100
AcDbXrecord
280
     1
 10
0.0
 20
0.0
 30
0.0
  0
XRECORD
  5
1AF13
102
{ACAD_REACTORS
330
1AEFF
102
}
330
1AEFF
100
AcDbXrecord
280
     1
 10
0.0
 20
0.0
 30
0.0
  0
XRECORD
  5
1AF14
102
{ACAD_REACTORS
330
1AEFF
102
}
330
1AEFF
100
AcDbXrecord
280
     1
 10
0.0
 20
0.0
 30
0.0
  0
XRECORD
  5
1AF11
102
{ACAD_REACTORS
330
1AEFF
102
}
330
1AEFF
100
AcDbXrecord
280
     1
 10
0.0
 20
0.0
 30
0.0
  0
XRECORD
  5
1AF0E
102
{ACAD_REACTORS
330
1AEFF
102
}
330
1AEFF
100
AcDbXrecord
280
     1
340
0
  0
XRECORD
  5
1AF0F
102
{ACAD_REACTORS
330
1AEFF
102
}
330
1AEFF
100
AcDbXrecord
280
     1
 70
     0
  0
XRECORD
  5
1AF03
102
{ACAD_REACTORS
330
1AEFF
102
}
330
1AEFF
100
AcDbXrecord
280
     1
  1

  0
XRECORD
  5
1AF00
102
{ACAD_REACTORS
330
1AEFF
102
}
330
1AEFF
100
AcDbXrecord
280
     1
 90
        1
  0
XRECORD
  5
1AF01
102
{ACAD_REACTORS
330
1AEFF
102
}
330
1AEFF
100
AcDbXrecord
280
     1
 90
       70
  0
XRECORD
  5
1AF19
102
{ACAD_REACTORS
330
1AEFF
102
}
330
1AEFF
100
AcDbXrecord
280
     1
340
0
  0
XRECORD
  5
1AF1F
102
{ACAD_REACTORS
330
1AEFF
102
}
330
1AEFF
100
AcDbXrecord
280
     1
 10
0.0
 20
0.0
 30
0.0
  0
XRECORD
  5
1AF1B
102
{ACAD_REACTORS
330
1AEFF
102
}
330
1AEFF
100
AcDbXrecord
280
     1
 10
0.0
 20
0.0
 30
0.0
  0
XRECORD
  5
1AF1E
102
{ACAD_REACTORS
330
1AEFF
102
}
330
1AEFF
100
AcDbXrecord
280
     1
 10
0.0
 20
0.0
 30
0.0
  0
XRECORD
  5
1AF1C
102
{ACAD_REACTORS
330
1AEFF
102
}
330
1AEFF
100
AcDbXrecord
280
     1
 10
0.0
 20
0.0
 30
0.0
  0
XRECORD
  5
1AF1D
102
{ACAD_REACTORS
330
1AEFF
102
}
330
1AEFF
100
AcDbXrecord
280
     1
 10
0.0
 20
0.0
 30
0.0
  0
XRECORD
  5
1AF1A
102
{ACAD_REACTORS
330
1AEFF
102
}
330
1AEFF
100
AcDbXrecord
280
     1
 10
0.0
 20
0.0
 30
0.0
  0
XRECORD
  5
1AF17
102
{ACAD_REACTORS
330
1AEFF
102
}
330
1AEFF
100
AcDbXrecord
280
     1
340
0
  0
XRECORD
  5
1AF18
102
{ACAD_REACTORS
330
1AEFF
102
}
330
1AEFF
100
AcDbXrecord
280
     1
 70
     0
  0
XRECORD
  5
1AF0B
102
{ACAD_REACTORS
330
1AEFF
102
}
330
1AEFF
100
AcDbXrecord
280
     1
  1
{9B08EC99-FDFE-49A3-8462-E174351C506D}
  0
DICTIONARYVAR
  5
1B7C
102
{ACAD_REACTORS
330
1B7B
102
}
330
1B7B
100
DictionaryVariables
280
     0
  1
1
  0
DICTIONARYVAR
  5
A7B4
102
{ACAD_REACTORS
330
1B7B
102
}
330
1B7B
100
DictionaryVariables
280
     0
  1
127
  0
ENDSEC
  0
EOF
