  0
SECTION
  2
HEADER
  9
$ACADVER
  1
AC1014
  9
$ACADMAINTVER
 70
     9
  9
$DWGCODEPAGE
  3
ANSI_932
  9
$INSBASE
 10
0.0
 20
0.0
 30
0.0
  9
$EXTMIN
 10
36.4634921854431
 20
-0.0000003347045095
 30
0.0
  9
$EXTMAX
 10
331.4634921854429
 20
404.1166386890085
 30
0.0
  9
$LIMMIN
 10
0.0
 20
0.0
  9
$LIMMAX
 10
420.0
 20
297.0
  9
$ORTHOMODE
 70
     0
  9
$REGENMODE
 70
     1
  9
$FILLMODE
 70
     1
  9
$QTEXTMODE
 70
     0
  9
$MIRRTEXT
 70
     1
  9
$DRAGMODE
 70
     2
  9
$LTSCALE
 40
1.0
  9
$OSMODE
 70
    55
  9
$ATTMODE
 70
     1
  9
$TEXTSIZE
 40
2.5
  9
$TRACEWID
 40
1.0
  9
$TEXTSTYLE
  7
STANDARD
  9
$CLAYER
  8
0
  9
$CELTYPE
  6
BYLAYER
  9
$CECOLOR
 62
   256
  9
$CELTSCALE
 40
1.0
  9
$DELOBJ
 70
     1
  9
$DISPSILH
 70
     0
  9
$DIMSCALE
 40
1.0
  9
$DIMASZ
 40
2.5
  9
$DIMEXO
 40
0.625
  9
$DIMDLI
 40
3.75
  9
$DIMRND
 40
0.0
  9
$DIMDLE
 40
0.0
  9
$DIMEXE
 40
1.25
  9
$DIMTP
 40
0.0
  9
$DIMTM
 40
0.0
  9
$DIMTXT
 40
2.5
  9
$DIMCEN
 40
2.5
  9
$DIMTSZ
 40
0.0
  9
$DIMTOL
 70
     0
  9
$DIMLIM
 70
     0
  9
$DIMTIH
 70
     0
  9
$DIMTOH
 70
     0
  9
$DIMSE1
 70
     0
  9
$DIMSE2
 70
     0
  9
$DIMTAD
 70
     1
  9
$DIMZIN
 70
     8
  9
$DIMBLK
  1

  9
$DIMASO
 70
     1
  9
$DIMSHO
 70
     1
  9
$DIMPOST
  1

  9
$DIMAPOST
  1

  9
$DIMALT
 70
     0
  9
$DIMALTD
 70
     3
  9
$DIMALTF
 40
0.03937007874016
  9
$DIMLFAC
 40
1.0
  9
$DIMTOFL
 70
     1
  9
$DIMTVP
 40
0.0
  9
$DIMTIX
 70
     0
  9
$DIMSOXD
 70
     0
  9
$DIMSAH
 70
     0
  9
$DIMBLK1
  1

  9
$DIMBLK2
  1

  9
$DIMSTYLE
  2
ISO-25
  9
$DIMCLRD
 70
     0
  9
$DIMCLRE
 70
     0
  9
$DIMCLRT
 70
     0
  9
$DIMTFAC
 40
1.0
  9
$DIMGAP
 40
0.625
  9
$DIMJUST
 70
     0
  9
$DIMSD1
 70
     0
  9
$DIMSD2
 70
     0
  9
$DIMTOLJ
 70
     0
  9
$DIMTZIN
 70
     8
  9
$DIMALTZ
 70
     0
  9
$DIMALTTZ
 70
     0
  9
$DIMFIT
 70
     3
  9
$DIMUPT
 70
     0
  9
$DIMUNIT
 70
     2
  9
$DIMDEC
 70
     2
  9
$DIMTDEC
 70
     2
  9
$DIMALTU
 70
     2
  9
$DIMALTTD
 70
     3
  9
$DIMTXSTY
  7
STANDARD
  9
$DIMAUNIT
 70
     0
  9
$LUNITS
 70
     2
  9
$LUPREC
 70
     4
  9
$SKETCHINC
 40
1.0
  9
$FILLETRAD
 40
10.0
  9
$AUNITS
 70
     0
  9
$AUPREC
 70
     0
  9
$MENU
  1
.
  9
$ELEVATION
 40
0.0
  9
$PELEVATION
 40
0.0
  9
$THICKNESS
 40
0.0
  9
$LIMCHECK
 70
     0
  9
$BLIPMODE
 70
     0
  9
$CHAMFERA
 40
10.0
  9
$CHAMFERB
 40
10.0
  9
$CHAMFERC
 40
20.0
  9
$CHAMFERD
 40
0.0
  9
$SKPOLY
 70
     0
  9
$TDCREATE
 40
2455874.700371516
  9
$TDUPDATE
 40
2456013.789781887
  9
$TDINDWG
 40
0.0047487037
  9
$TDUSRTIMER
 40
0.0047478241
  9
$USRTIMER
 70
     1
  9
$ANGBASE
 50
0.0
  9
$ANGDIR
 70
     0
  9
$PDMODE
 70
     0
  9
$PDSIZE
 40
0.0
  9
$PLINEWID
 40
0.0
  9
$COORDS
 70
     1
  9
$SPLFRAME
 70
     0
  9
$SPLINETYPE
 70
     6
  9
$SPLINESEGS
 70
     8
  9
$ATTDIA
 70
     0
  9
$ATTREQ
 70
     1
  9
$HANDLING
 70
 22529
  9
$HANDSEED
  5
745
  9
$SURFTAB1
 70
     6
  9
$SURFTAB2
 70
     6
  9
$SURFTYPE
 70
     6
  9
$SURFU
 70
     6
  9
$SURFV
 70
     6
  9
$UCSNAME
  2

  9
$UCSORG
 10
0.0
 20
0.0
 30
0.0
  9
$UCSXDIR
 10
1.0
 20
0.0
 30
0.0
  9
$UCSYDIR
 10
0.0
 20
1.0
 30
0.0
  9
$PUCSNAME
  2

  9
$PUCSORG
 10
0.0
 20
0.0
 30
0.0
  9
$PUCSXDIR
 10
1.0
 20
0.0
 30
0.0
  9
$PUCSYDIR
 10
0.0
 20
1.0
 30
0.0
  9
$USERI1
 70
     0
  9
$USERI2
 70
     0
  9
$USERI3
 70
     0
  9
$USERI4
 70
     0
  9
$USERI5
 70
     0
  9
$USERR1
 40
0.0
  9
$USERR2
 40
0.0
  9
$USERR3
 40
0.0
  9
$USERR4
 40
0.0
  9
$USERR5
 40
0.0
  9
$WORLDVIEW
 70
     1
  9
$SHADEDGE
 70
     3
  9
$SHADEDIF
 70
    70
  9
$TILEMODE
 70
     1
  9
$MAXACTVP
 70
    64
  9
$PINSBASE
 10
0.0
 20
0.0
 30
0.0
  9
$PLIMCHECK
 70
     0
  9
$PEXTMIN
 10
1.000000000000000E+20
 20
1.000000000000000E+20
 30
1.000000000000000E+20
  9
$PEXTMAX
 10
-1.000000000000000E+20
 20
-1.000000000000000E+20
 30
-1.000000000000000E+20
  9
$PLIMMIN
 10
0.0
 20
0.0
  9
$PLIMMAX
 10
420.0
 20
297.0
  9
$UNITMODE
 70
     0
  9
$VISRETAIN
 70
     1
  9
$PLINEGEN
 70
     0
  9
$PSLTSCALE
 70
     1
  9
$TREEDEPTH
 70
  3020
  9
$PICKSTYLE
 70
     1
  9
$CMLSTYLE
  2
STANDARD
  9
$CMLJUST
 70
     0
  9
$CMLSCALE
 40
20.0
  9
$PROXYGRAPHICS
 70
     1
  9
$MEASUREMENT
 70
     1
  0
ENDSEC
  0
SECTION
  2
CLASSES
  0
CLASS
  1
ACDBDICTIONARYWDFLT
  2
AcDbDictionaryWithDefault
  3
AutoCAD 2000
 90
        0
280
     0
281
     0
  0
CLASS
  1
ACDBPLACEHOLDER
  2
AcDbPlaceHolder
  3
AutoCAD 2000
 90
        0
280
     0
281
     0
  0
CLASS
  1
LAYOUT
  2
AcDbLayout
  3
AutoCAD 2000
 90
        0
280
     0
281
     0
  0
CLASS
  1
DICTIONARYVAR
  2
AcDbDictionaryVar
  3
AutoCAD 2000
 90
        0
280
     0
281
     0
  0
CLASS
  1
LONG_TRANSACTION
  2
AcDbLongTransaction
  3
AutoCAD 2000
 90
        0
280
     0
281
     0
  0
CLASS
  1
LWPOLYLINE
  2
AcDbPolyline
  3
AutoCAD 2000
 90
        0
280
     0
281
     1
  0
CLASS
  1
HATCH
  2
AcDbHatch
  3
AutoCAD 2000
 90
        0
280
     0
281
     1
  0
CLASS
  1
XRECORD
  2
AcDbXrecord
  3
AutoCAD 2000
 90
        0
280
     0
281
     0
  0
CLASS
  1
LONG_TRANSACTION
  2
AcDbLongTransaction
  3
AutoCAD 2000
 90
        0
280
     0
281
     0
  0
CLASS
  1
LWPOLYLINE
  2
AcDbPolyline
  3
AutoCAD 2000
 90
        0
280
     0
281
     1
  0
CLASS
  1
HATCH
  2
AcDbHatch
  3
AutoCAD 2000
 90
        0
280
     0
281
     1
  0
CLASS
  1
XRECORD
  2
AcDbXrecord
  3
AutoCAD 2000
 90
        0
280
     0
281
     0
  0
CLASS
  1
LONG_TRANSACTION
  2
AcDbLongTransaction
  3
AutoCAD 2000
 90
        0
280
     0
281
     0
  0
CLASS
  1
LWPOLYLINE
  2
AcDbPolyline
  3
AutoCAD 2000
 90
        0
280
     0
281
     1
  0
CLASS
  1
HATCH
  2
AcDbHatch
  3
AutoCAD 2000
 90
        0
280
     0
281
     1
  0
CLASS
  1
XRECORD
  2
AcDbXrecord
  3
AutoCAD 2000
 90
        0
280
     0
281
     0
  0
CLASS
  1
LONG_TRANSACTION
  2
AcDbLongTransaction
  3
AutoCAD 2000
 90
        0
280
     0
281
     0
  0
CLASS
  1
LWPOLYLINE
  2
AcDbPolyline
  3
AutoCAD 2000
 90
        0
280
     0
281
     1
  0
CLASS
  1
HATCH
  2
AcDbHatch
  3
AutoCAD 2000
 90
        0
280
     0
281
     1
  0
CLASS
  1
XRECORD
  2
AcDbXrecord
  3
AutoCAD 2000
 90
        0
280
     0
281
     0
  0
CLASS
  1
LONG_TRANSACTION
  2
AcDbLongTransaction
  3
AutoCAD 2000
 90
        0
280
     0
281
     0
  0
CLASS
  1
LWPOLYLINE
  2
AcDbPolyline
  3
AutoCAD 2000
 90
        0
280
     0
281
     1
  0
CLASS
  1
HATCH
  2
AcDbHatch
  3
AutoCAD 2000
 90
        0
280
     0
281
     1
  0
CLASS
  1
XRECORD
  2
AcDbXrecord
  3
AutoCAD 2000
 90
        0
280
     0
281
     0
  0
CLASS
  1
LONG_TRANSACTION
  2
AcDbLongTransaction
  3
AutoCAD 2000
 90
        0
280
     0
281
     0
  0
CLASS
  1
LWPOLYLINE
  2
AcDbPolyline
  3
AutoCAD 2000
 90
        0
280
     0
281
     1
  0
CLASS
  1
HATCH
  2
AcDbHatch
  3
AutoCAD 2000
 90
        0
280
     0
281
     1
  0
CLASS
  1
XRECORD
  2
AcDbXrecord
  3
AutoCAD 2000
 90
        0
280
     0
281
     0
  0
CLASS
  1
LONG_TRANSACTION
  2
AcDbLongTransaction
  3
AutoCAD 2000
 90
        0
280
     0
281
     0
  0
CLASS
  1
LWPOLYLINE
  2
AcDbPolyline
  3
AutoCAD 2000
 90
        0
280
     0
281
     1
  0
CLASS
  1
HATCH
  2
AcDbHatch
  3
AutoCAD 2000
 90
        0
280
     0
281
     1
  0
CLASS
  1
XRECORD
  2
AcDbXrecord
  3
AutoCAD 2000
 90
        0
280
     0
281
     0
  0
ENDSEC
  0
SECTION
  2
TABLES
  0
TABLE
  2
VPORT
  5
8
330
0
100
AcDbSymbolTable
 70
     2
  0
VPORT
  5
722
330
8
100
AcDbSymbolTableRecord
100
AcDbViewportTableRecord
  2
*ACTIVE
 70
     0
 10
0.0
 20
0.0
 11
1.0
 21
1.0
 12
181.7697153004936
 22
207.3575370759439
 13
0.0
 23
0.0
 14
10.0
 24
10.0
 15
10.0
 25
10.0
 16
0.0
 26
0.0
 36
1.0
 17
0.0
 27
0.0
 37
0.0
 40
417.7531021535806
 41
1.46415552855407
 42
50.0
 43
0.0
 44
0.0
 50
0.0
 51
0.0
 71
     0
 72
   100
 73
     1
 74
     3
 75
     0
 76
     0
 77
     0
 78
     0
  0
ENDTAB
  0
TABLE
  2
LTYPE
  5
5
330
0
100
AcDbSymbolTable
 70
     1
  0
LTYPE
  5
14
330
5
100
AcDbSymbolTableRecord
100
AcDbLinetypeTableRecord
  2
BYBLOCK
 70
     0
  3

 72
    65
 73
     0
 40
0.0
  0
LTYPE
  5
15
330
5
100
AcDbSymbolTableRecord
100
AcDbLinetypeTableRecord
  2
BYLAYER
 70
     0
  3

 72
    65
 73
     0
 40
0.0
  0
LTYPE
  5
16
330
5
100
AcDbSymbolTableRecord
100
AcDbLinetypeTableRecord
  2
CONTINUOUS
 70
     0
  3
Solid line
 72
    65
 73
     0
 40
0.0
  0
ENDTAB
  0
TABLE
  2
LAYER
  5
2
102
{ACAD_XDICTIONARY
360
527
102
}
330
0
100
AcDbSymbolTable
 70
     3
  0
LAYER
  5
10
330
2
100
AcDbSymbolTableRecord
100
AcDbLayerTableRecord
  2
0
 70
     0
 62
     7
  6
CONTINUOUS
  0
LAYER
  5
523
330
2
100
AcDbSymbolTableRecord
100
AcDbLayerTableRecord
  2
DEFPOINTS
 70
     0
 62
    -7
  6
CONTINUOUS
  0
LAYER
  5
524
330
2
100
AcDbSymbolTableRecord
100
AcDbLayerTableRecord
  2
1
 70
     0
 62
     3
  6
CONTINUOUS
  0
ENDTAB
  0
TABLE
  2
STYLE
  5
3
330
0
100
AcDbSymbolTable
 70
     1
  0
STYLE
  5
11
330
3
100
AcDbSymbolTableRecord
100
AcDbTextStyleTableRecord
  2
STANDARD
 70
     0
 40
0.0
 41
1.0
 50
0.0
 71
     0
 42
2.5
  3
txt
  4

  0
ENDTAB
  0
TABLE
  2
VIEW
  5
6
330
0
100
AcDbSymbolTable
 70
     0
  0
ENDTAB
  0
TABLE
  2
UCS
  5
7
330
0
100
AcDbSymbolTable
 70
     0
  0
ENDTAB
  0
TABLE
  2
APPID
  5
9
330
0
100
AcDbSymbolTable
 70
     1
  0
APPID
  5
12
330
9
100
AcDbSymbolTableRecord
100
AcDbRegAppTableRecord
  2
ACAD
 70
     0
  0
ENDTAB
  0
TABLE
  2
DIMSTYLE
  5
A
330
0
100
AcDbSymbolTable
 70
     2
  0
DIMSTYLE
105
27
330
A
100
AcDbSymbolTableRecord
100
AcDbDimStyleTableRecord
  2
ISO-25
 70
     0
  3

  4

  5

  6

  7

 40
1.0
 41
2.5
 42
0.625
 43
3.75
 44
1.25
 45
0.0
 46
0.0
 47
0.0
 48
0.0
140
2.5
141
2.5
142
0.0
143
0.03937007874016
144
1.0
145
0.0
146
1.0
147
0.625
 71
     0
 72
     0
 73
     0
 74
     0
 75
     0
 76
     0
 77
     1
 78
     8
170
     0
171
     3
172
     1
173
     0
174
     0
175
     0
176
     0
177
     0
178
     0
270
     2
271
     2
272
     2
273
     2
274
     3
340
11
275
     0
280
     0
281
     0
282
     0
283
     0
284
     8
285
     0
286
     0
287
     3
288
     0
  0
DIMSTYLE
105
526
330
A
100
AcDbSymbolTableRecord
100
AcDbDimStyleTableRecord
  2
STANDARD
 70
     0
  3

  4

  5

  6

  7

 40
1.0
 41
2.5
 42
0.625
 43
3.75
 44
1.25
 45
0.0
 46
0.0
 47
0.0
 48
0.0
140
2.5
141
2.5
142
0.0
143
0.0394
144
1.0
145
0.0
146
1.0
147
0.625
 71
     0
 72
     0
 73
     0
 74
     0
 75
     0
 76
     0
 77
     1
 78
     8
170
     0
171
     4
172
     1
173
     0
174
     0
175
     0
176
     0
177
     0
178
     0
270
     2
271
     4
272
     4
273
     8
274
     4
340
11
275
     0
280
     0
281
     0
282
     0
283
     1
284
     0
285
     0
286
     0
287
     3
288
     0
  0
ENDTAB
  0
TABLE
  2
BLOCK_RECORD
  5
1
330
0
100
AcDbSymbolTable
 70
     3
  0
BLOCK_RECORD
  5
1F
102
{ACAD_XDICTIONARY
360
645
102
}
330
1
100
AcDbSymbolTableRecord
100
AcDbBlockTableRecord
  2
*MODEL_SPACE
  0
BLOCK_RECORD
  5
1B
102
{ACAD_XDICTIONARY
360
643
102
}
330
1
100
AcDbSymbolTableRecord
100
AcDbBlockTableRecord
  2
*PAPER_SPACE
  0
BLOCK_RECORD
  5
8E
330
1
100
AcDbSymbolTableRecord
100
AcDbBlockTableRecord
  2
A$C0FFD32B7
  0
BLOCK_RECORD
  5
2B8
330
1
100
AcDbSymbolTableRecord
100
AcDbBlockTableRecord
  2
A$C58867D70
  0
BLOCK_RECORD
  5
423
330
1
100
AcDbSymbolTableRecord
100
AcDbBlockTableRecord
  2
A$C2F474FB8
  0
ENDTAB
  0
ENDSEC
  0
SECTION
  2
BLOCKS
  0
BLOCK
  5
20
330
1F
100
AcDbEntity
  8
0
100
AcDbBlockBegin
  2
*MODEL_SPACE
 70
     0
 10
0.0
 20
0.0
 30
0.0
  3
*MODEL_SPACE
  1

  0
ENDBLK
  5
21
330
1F
100
AcDbEntity
  8
0
100
AcDbBlockEnd
  0
BLOCK
  5
1C
330
1B
100
AcDbEntity
 67
     1
  8
0
100
AcDbBlockBegin
  2
*PAPER_SPACE
 70
     0
 10
0.0
 20
0.0
 30
0.0
  3
*PAPER_SPACE
  1

  0
ENDBLK
  5
1D
330
1B
100
AcDbEntity
 67
     1
  8
0
100
AcDbBlockEnd
  0
BLOCK
  5
2B6
330
8E
100
AcDbEntity
  8
0
100
AcDbBlockBegin
  2
A$C0FFD32B7
 70
     0
 10
0.0
 20
0.0
 30
0.0
  3
A$C0FFD32B7
  1

  0
LINE
  5
8F
330
8E
100
AcDbEntity
  8
0
100
AcDbLine
 10
61.44999864127078
 20
39.61628415434933
 30
0.0
 11
61.44999864127078
 21
54.58371786916631
 31
0.0
  0
LINE
  5
90
330
8E
100
AcDbEntity
  8
0
100
AcDbLine
 10
55.14999864127071
 20
55.20000101175732
 30
0.0
 11
55.14999864127071
 21
39.00000101175732
 31
0.0
  0
LINE
  5
91
330
8E
100
AcDbEntity
  8
0
100
AcDbLine
 10
56.69999864127078
 20
55.70000101175732
 30
0.0
 11
56.69999864127078
 21
38.50000101175732
 31
0.0
  0
LINE
  5
92
330
8E
100
AcDbEntity
  8
0
100
AcDbLine
 10
59.89999864127071
 20
38.50000101175732
 30
0.0
 11
59.89999864127071
 21
55.70000101175732
 31
0.0
  0
LINE
  5
93
330
8E
100
AcDbEntity
  8
0
100
AcDbLine
 10
53.69999864127078
 20
64.70000101175732
 30
0.0
 11
53.69999864127078
 21
29.5000010117573
 31
0.0
  0
LINE
  5
94
330
8E
100
AcDbEntity
  8
0
100
AcDbLine
 10
62.79999864127067
 20
28.50000101175732
 30
0.0
 11
62.79999864127067
 21
65.70000101175732
 31
0.0
  0
LINE
  5
95
330
8E
100
AcDbEntity
  8
0
100
AcDbLine
 10
63.99999876318871
 20
66.20000085241333
 30
0.0
 11
63.99999876318871
 21
20.70000085241332
 31
0.0
  0
LINE
  5
96
330
8E
100
AcDbEntity
  8
0
100
AcDbLine
 10
52.59999876318772
 20
66.20000085241333
 30
0.0
 11
52.59999876318772
 21
20.70000085241332
 31
0.0
  0
LINE
  5
97
330
8E
100
AcDbEntity
  8
0
100
AcDbLine
 10
63.09999864127064
 20
66.20000085241326
 30
0.0
 11
63.09999864127064
 21
20.70000085241332
 31
0.0
  0
LINE
  5
98
330
8E
100
AcDbEntity
  8
0
100
AcDbLine
 10
37.59999876318772
 20
75.10000085241336
 30
0.0
 11
37.59999876318772
 21
20.70000085241332
 31
0.0
  0
LINE
  5
99
330
8E
100
AcDbEntity
  8
0
100
AcDbLine
 10
36.69999864126975
 20
21.50000101175732
 30
0.0
 11
36.69999864126975
 21
62.14000101175731
 31
0.0
  0
LINE
  5
9A
330
8E
100
AcDbEntity
  8
0
100
AcDbLine
 10
28.09999864126973
 20
62.14000101175731
 30
0.0
 11
28.09999864126973
 21
21.50000101175732
 31
0.0
  0
LINE
  5
9B
330
8E
100
AcDbEntity
  8
0
100
AcDbLine
 10
26.9999987631877
 20
107.0000008524133
 30
0.0
 11
26.9999987631877
 21
20.70000085241332
 31
0.0
  0
LINE
  5
9C
330
8E
100
AcDbEntity
  8
0
100
AcDbLine
 10
28.09999864127064
 20
20.70000085241332
 30
0.0
 11
28.09999864127064
 21
107.0000008524133
 31
0.0
  0
LINE
  5
9D
330
8E
100
AcDbEntity
  8
0
100
AcDbLine
 10
18.99999864127073
 20
37.13318143667033
 30
0.0
 11
18.99999864127073
 21
190.4738150901881
 31
0.0
  0
LINE
  5
9E
330
8E
100
AcDbEntity
  8
0
100
AcDbLine
 10
19.99999864127073
 20
190.5000010117573
 30
0.0
 11
19.99999864126969
 21
37.88178147179531
 31
0.0
  0
LINE
  5
9F
330
8E
100
AcDbEntity
  8
0
100
AcDbLine
 10
21.99999864127073
 20
188.5000010117573
 30
0.0
 11
21.99999864126971
 21
39.08569702926132
 31
0.0
  0
LINE
  5
A0
330
8E
100
AcDbEntity
  8
0
100
AcDbLine
 10
18.99999864127073
 20
37.13318143667129
 30
0.0
 11
18.99999864127073
 21
190.0000010117573
 31
0.0
  0
LINE
  5
A1
330
8E
100
AcDbEntity
  8
0
100
AcDbLine
 10
22.09999864126973
 20
188.3000010117573
 30
0.0
 11
22.09999864126973
 21
39.19210080005631
 31
0.0
  0
LINE
  5
A2
330
8E
100
AcDbEntity
  8
0
100
AcDbLine
 10
71.99999864127073
 20
199.500001011757
 30
0.0
 11
71.99999864127073
 21
7.500001011757317
 31
0.0
  0
LINE
  5
A3
330
8E
100
AcDbEntity
  8
0
100
AcDbLine
 10
69.99999864127072
 20
18.50000101175732
 30
0.0
 11
69.99999864127072
 21
188.5000010117573
 31
0.0
  0
LINE
  5
A4
330
8E
100
AcDbEntity
  8
0
100
AcDbLine
 10
71.99999864127073
 20
16.50000101175732
 30
0.0
 11
71.99999864127073
 21
190.5000010117573
 31
0.0
  0
LINE
  5
A5
330
8E
100
AcDbEntity
  8
0
100
AcDbLine
 10
69.69999864126974
 20
188.3000010117573
 30
0.0
 11
69.69999864126974
 21
18.70000101175731
 31
0.0
  0
LINE
  5
A6
330
8E
100
AcDbEntity
  8
0
100
AcDbLine
 10
-0.0000013587292642
 20
199.0544975525903
 30
0.0
 11
-0.0000013587292642
 21
7.945504470924332
 31
0.0
  0
ARC
  5
A7
330
8E
100
AcDbEntity
  8
0
100
AcDbCircle
 10
42.99999864127072
 20
11.50000101175731
 30
0.0
 40
5.5
100
AcDbArc
 50
0.0
 51
65.38002267134462
  0
LINE
  5
A8
330
8E
100
AcDbEntity
  8
0
100
AcDbLine
 10
45.09999864127063
 20
6.500001011757317
 30
0.0
 11
48.49999864126971
 21
6.500001011757317
 31
0.0
  0
LINE
  5
A9
330
8E
100
AcDbEntity
  8
0
100
AcDbLine
 10
19.99999864126969
 20
16.50000101175732
 30
0.0
 11
71.99999864127073
 21
16.50000101175732
 31
0.0
  0
LINE
  5
AA
330
8E
100
AcDbEntity
  8
0
100
AcDbLine
 10
69.99999864127072
 20
18.50000101175732
 30
0.0
 11
24.99999864126573
 21
18.50000101175732
 31
0.0
  0
LINE
  5
AB
330
8E
100
AcDbEntity
  8
0
100
AcDbLine
 10
25.09999864126564
 20
18.70000101175731
 30
0.0
 11
69.69999864126974
 21
18.70000101175731
 31
0.0
  0
LINE
  5
AC
330
8E
100
AcDbEntity
  8
0
100
AcDbLine
 10
0.4869101671166618
 20
16.95859737297632
 30
0.0
 11
17.99999864127073
 21
16.50000101175732
 31
0.0
  0
LINE
  5
AD
330
8E
100
AcDbEntity
  8
0
100
AcDbLine
 10
17.99999864127073
 20
6.500001011757317
 30
0.0
 11
0.9738216929625878
 21
6.945847145949299
 31
0.0
  0
ARC
  5
AE
330
8E
100
AcDbEntity
  8
0
100
AcDbCircle
 10
0.9999986412707356
 20
7.945504470924332
 30
0.0
 40
1.0
100
AcDbArc
 50
180.0
 51
268.5000000000036
  0
ARC
  5
AF
330
8E
100
AcDbEntity
  8
0
100
AcDbCircle
 10
0.4999986412707358
 20
17.4584260354643
 30
0.0
 40
0.5
100
AcDbArc
 50
180.0
 51
268.5000000000036
  0
LINE
  5
B0
330
8E
100
AcDbEntity
  8
0
100
AcDbLine
 10
40.8999986412707
 20
11.50000101175731
 30
0.0
 11
40.8999986412707
 21
6.500001011757317
 31
0.0
  0
LINE
  5
B1
330
8E
100
AcDbEntity
  8
0
100
AcDbLine
 10
45.09999864127063
 20
11.50000101175731
 30
0.0
 11
45.09999864127063
 21
6.500001011757317
 31
0.0
  0
LINE
  5
B2
330
8E
100
AcDbEntity
  8
0
100
AcDbLine
 10
37.49999864127072
 20
11.50000101175731
 30
0.0
 11
37.49999864127072
 21
6.500001011757317
 31
0.0
  0
LINE
  5
B3
330
8E
100
AcDbEntity
  8
0
100
AcDbLine
 10
17.99999864127073
 20
6.500001011757317
 30
0.0
 11
40.8999986412707
 21
6.500001011757317
 31
0.0
  0
LINE
  5
B4
330
8E
100
AcDbEntity
  8
0
100
AcDbLine
 10
17.99999864127073
 20
6.500001011757317
 30
0.0
 11
40.74999864127073
 21
6.500001011757317
 31
0.0
  0
LINE
  5
B5
330
8E
100
AcDbEntity
  8
0
100
AcDbLine
 10
37.59999876318772
 20
20.70000085241332
 30
0.0
 11
26.9999987631877
 21
20.70000085241332
 31
0.0
  0
LINE
  5
B6
330
8E
100
AcDbEntity
  8
0
100
AcDbLine
 10
28.09999864126973
 20
21.50000101175732
 30
0.0
 11
36.69999864126975
 21
21.50000101175732
 31
0.0
  0
LINE
  5
B7
330
8E
100
AcDbEntity
  8
0
100
AcDbLine
 10
21.99999864126664
 20
33.50000101175732
 30
0.0
 11
21.99999864126573
 21
16.60474469803432
 31
0.0
  0
LINE
  5
B8
330
8E
100
AcDbEntity
  8
0
100
AcDbLine
 10
22.99999864126664
 20
33.50000101175732
 30
0.0
 11
22.99999864126573
 21
16.50000101175732
 31
0.0
  0
LINE
  5
B9
330
8E
100
AcDbEntity
  8
0
100
AcDbLine
 10
24.99999864126664
 20
33.50000101175732
 30
0.0
 11
24.99999864126573
 21
18.50000101175732
 31
0.0
  0
LINE
  5
BA
330
8E
100
AcDbEntity
  8
0
100
AcDbLine
 10
21.99999864126664
 20
33.50000101175732
 30
0.0
 11
21.99999864126573
 21
17.00000101175731
 31
0.0
  0
LINE
  5
BB
330
8E
100
AcDbEntity
  8
0
100
AcDbLine
 10
25.09999864126666
 20
33.50000101175732
 30
0.0
 11
25.09999864126564
 21
18.70000101175731
 31
0.0
  0
LINE
  5
BC
330
8E
100
AcDbEntity
  8
0
100
AcDbLine
 10
17.99999864127073
 20
16.50000101175732
 30
0.0
 11
21.99999864126573
 21
16.60474469803432
 31
0.0
  0
LINE
  5
BD
330
8E
100
AcDbEntity
  8
0
100
AcDbLine
 10
17.99999864127073
 20
16.50000101175732
 30
0.0
 11
21.99999864126664
 21
16.60474469803432
 31
0.0
  0
CIRCLE
  5
BE
330
8E
100
AcDbEntity
  8
0
100
AcDbCircle
 10
17.99999864127073
 20
21.50000101175732
 30
0.0
 40
1.6
  0
CIRCLE
  5
BF
330
8E
100
AcDbEntity
  8
0
100
AcDbCircle
 10
17.99999864127073
 20
21.50000101175732
 30
0.0
 40
2.0
  0
LINE
  5
C0
330
8E
100
AcDbEntity
  8
0
100
AcDbLine
 10
19.99999864126823
 20
16.55237285489579
 30
0.0
 11
19.99999864126969
 21
16.50000101175732
 31
0.0
  0
LINE
  5
C1
330
8E
100
AcDbEntity
  8
0
100
AcDbLine
 10
22.99999864126573
 20
17.00000101175731
 30
0.0
 11
21.99999864126573
 21
17.00000101175715
 31
0.0
  0
ARC
  5
C2
330
8E
100
AcDbEntity
  8
0
100
AcDbCircle
 10
18.29999864127069
 20
33.50000101175732
 30
0.0
 40
3.699999999995998
100
AcDbArc
 50
0.0
 51
79.09453000326083
  0
ARC
  5
C3
330
8E
100
AcDbEntity
  8
0
100
AcDbCircle
 10
18.29999864127069
 20
33.50000101175732
 30
0.0
 40
4.699999999995998
100
AcDbArc
 50
0.0
 51
68.79523363710432
  0
ARC
  5
C4
330
8E
100
AcDbEntity
  8
0
100
AcDbCircle
 10
18.29999864127069
 20
33.50000101175732
 30
0.0
 40
3.699999999995998
100
AcDbArc
 50
0.0
 51
79.09453000326083
  0
LINE
  5
C5
330
8E
100
AcDbEntity
  8
0
100
AcDbLine
 10
16.34999864127064
 20
39.50000101175731
 30
0.0
 11
16.34999864127064
 21
40.85000101175729
 31
0.0
  0
LINE
  5
C6
330
8E
100
AcDbEntity
  8
0
100
AcDbLine
 10
16.64999864126968
 20
39.50000101175731
 30
0.0
 11
16.64999864126968
 21
40.85000101175729
 31
0.0
  0
ARC
  5
C7
330
8E
100
AcDbEntity
  8
0
100
AcDbCircle
 10
16.49999864127073
 20
40.85000101175729
 30
0.0
 40
0.15
100
AcDbArc
 50
0.0
 51
180.0
  0
ARC
  5
C8
330
8E
100
AcDbEntity
  8
0
100
AcDbCircle
 10
17.84999864127064
 20
39.35000101175728
 30
0.0
 40
0.15
100
AcDbArc
 50
270.0
 51
90.0
  0
LINE
  5
C9
330
8E
100
AcDbEntity
  8
0
100
AcDbLine
 10
16.64999864126968
 20
39.50000101175731
 30
0.0
 11
17.84999864127064
 21
39.50000101175731
 31
0.0
  0
LINE
  5
CA
330
8E
100
AcDbEntity
  8
0
100
AcDbLine
 10
15.54999864127069
 20
38.85000101175728
 30
0.0
 11
17.44999864126975
 21
38.85000101175728
 31
0.0
  0
LINE
  5
CB
330
8E
100
AcDbEntity
  8
0
100
AcDbLine
 10
15.54999864127069
 20
38.55000101175732
 30
0.0
 11
17.44999864126975
 21
38.55000101175732
 31
0.0
  0
LINE
  5
CC
330
8E
100
AcDbEntity
  8
0
100
AcDbLine
 10
15.94999864127077
 20
38.20000101175731
 30
0.0
 11
17.04999864126978
 21
38.20000101175731
 31
0.0
  0
LINE
  5
CD
330
8E
100
AcDbEntity
  8
0
100
AcDbLine
 10
15.94999864127077
 20
37.9000010117573
 30
0.0
 11
17.04999864126978
 21
37.9000010117573
 31
0.0
  0
ARC
  5
CE
330
8E
100
AcDbEntity
  8
0
100
AcDbCircle
 10
15.94999864127077
 20
38.05000101175732
 30
0.0
 40
0.15
100
AcDbArc
 50
90.0
 51
270.0
  0
ARC
  5
CF
330
8E
100
AcDbEntity
  8
0
100
AcDbCircle
 10
17.04999864126978
 20
38.05000101175732
 30
0.0
 40
0.15
100
AcDbArc
 50
270.0
 51
90.0
  0
ARC
  5
D0
330
8E
100
AcDbEntity
  8
0
100
AcDbCircle
 10
15.54999864127069
 20
38.70000101175731
 30
0.0
 40
0.15
100
AcDbArc
 50
90.0
 51
270.0
  0
ARC
  5
D1
330
8E
100
AcDbEntity
  8
0
100
AcDbCircle
 10
17.44999864126975
 20
38.70000101175731
 30
0.0
 40
0.15
100
AcDbArc
 50
270.0
 51
90.0
  0
ARC
  5
D2
330
8E
100
AcDbEntity
  8
0
100
AcDbCircle
 10
15.14999864127071
 20
39.35000101175728
 30
0.0
 40
0.15
100
AcDbArc
 50
90.0
 51
270.0
  0
CIRCLE
  5
D3
330
8E
100
AcDbEntity
  8
0
100
AcDbCircle
 10
16.49999864127073
 20
39.50000101175731
 30
0.0
 40
2.149999999999999
  0
CIRCLE
  5
D4
330
8E
100
AcDbEntity
  8
0
100
AcDbCircle
 10
16.49999864127073
 20
39.50000101175731
 30
0.0
 40
1.85
  0
LINE
  5
D5
330
8E
100
AcDbEntity
  8
0
100
AcDbLine
 10
15.14999864127071
 20
39.20000101175729
 30
0.0
 11
17.84999864127064
 21
39.20000101175729
 31
0.0
  0
LINE
  5
D6
330
8E
100
AcDbEntity
  8
0
100
AcDbLine
 10
15.14999864127071
 20
39.50000101175731
 30
0.0
 11
16.34999864127064
 21
39.50000101175731
 31
0.0
  0
CIRCLE
  5
D7
330
8E
100
AcDbEntity
  8
0
100
AcDbCircle
 10
17.99999864127073
 20
31.50000101175732
 30
0.0
 40
2.0
  0
CIRCLE
  5
D8
330
8E
100
AcDbEntity
  8
0
100
AcDbCircle
 10
17.99999864127073
 20
31.50000101175732
 30
0.0
 40
1.6
  0
ARC
  5
D9
330
8E
100
AcDbEntity
  8
0
100
AcDbCircle
 10
18.29999864127069
 20
33.50000101175732
 30
0.0
 40
6.699999999996
100
AcDbArc
 50
0.0
 51
56.47925960398207
  0
ARC
  5
DA
330
8E
100
AcDbEntity
  8
0
100
AcDbCircle
 10
18.19999864126975
 20
33.50000101175732
 30
0.0
 40
6.899999999996
100
AcDbArc
 50
0.0
 51
55.58261128953784
  0
CIRCLE
  5
DB
330
8E
100
AcDbEntity
  8
0
100
AcDbCircle
 10
32.09999864126971
 20
29.12000101175726
 30
0.0
 40
2.0
  0
ARC
  5
DC
330
8E
100
AcDbEntity
  8
0
100
AcDbCircle
 10
42.99999864127072
 20
11.50000101175731
 30
0.0
 40
5.5
100
AcDbArc
 50
114.6199773286552
 51
179.9999999999966
  0
CIRCLE
  5
DD
330
8E
100
AcDbEntity
  8
0
100
AcDbCircle
 10
32.09999864126971
 20
24.37000101175726
 30
0.0
 40
1.0
  0
CIRCLE
  5
DE
330
8E
100
AcDbEntity
  8
0
100
AcDbCircle
 10
32.09999864126971
 20
24.37000101175726
 30
0.0
 40
1.5
  0
ARC
  5
DF
330
8E
100
AcDbEntity
  8
0
100
AcDbCircle
 10
42.99999864127072
 20
11.50000101175731
 30
0.0
 40
2.1
100
AcDbArc
 50
0.0
 51
180.0
  0
CIRCLE
  5
E0
330
8E
100
AcDbEntity
  8
0
100
AcDbCircle
 10
32.09999864126971
 20
39.28000101175831
 30
0.0
 40
2.0
  0
CIRCLE
  5
E1
330
8E
100
AcDbEntity
  8
0
100
AcDbCircle
 10
32.09999864126971
 20
39.28000101175831
 30
0.0
 40
2.0
  0
CIRCLE
  5
E2
330
8E
100
AcDbEntity
  8
0
100
AcDbCircle
 10
32.09999864126971
 20
34.2000010117573
 30
0.0
 40
2.0
  0
CIRCLE
  5
E3
330
8E
100
AcDbEntity
  8
0
100
AcDbCircle
 10
32.09999864126971
 20
34.2000010117573
 30
0.0
 40
2.0
  0
CIRCLE
  5
E4
330
8E
100
AcDbEntity
  8
0
100
AcDbCircle
 10
32.09999864126971
 20
44.36000101175728
 30
0.0
 40
2.0
  0
LINE
  5
E5
330
8E
100
AcDbEntity
  8
0
100
AcDbLine
 10
67.49999864126971
 20
0.0000010117573197
 30
0.0
 11
67.49999864126971
 21
16.50000101175732
 31
0.0
  0
LINE
  5
E6
330
8E
100
AcDbEntity
  8
0
100
AcDbLine
 10
48.49999864127074
 20
11.50000101175731
 30
0.0
 11
48.49999864127074
 21
6.500001011757317
 31
0.0
  0
LINE
  5
E7
330
8E
100
AcDbEntity
  8
0
100
AcDbLine
 10
48.49999864126971
 20
0.0000010117573197
 30
0.0
 11
48.49999864126971
 21
16.50000101175732
 31
0.0
  0
ARC
  5
E8
330
8E
100
AcDbEntity
  8
0
100
AcDbCircle
 10
57.99999864126971
 20
9.500001011757319
 30
0.0
 40
7.5
100
AcDbArc
 50
180.0
 51
0.0
  0
LINE
  5
E9
330
8E
100
AcDbEntity
  8
0
100
AcDbLine
 10
67.49999864126971
 20
0.0000010117573197
 30
0.0
 11
48.49999864126971
 21
0.0000010117573197
 31
0.0
  0
ARC
  5
EA
330
8E
100
AcDbEntity
  8
0
100
AcDbCircle
 10
57.99999864126971
 20
9.500001011757319
 30
0.0
 40
9.5
100
AcDbArc
 50
186.0423284190541
 51
353.9576715809455
  0
LINE
  5
EB
330
8E
100
AcDbEntity
  8
0
100
AcDbLine
 10
50.5669642676106
 20
8.500001011757317
 30
0.0
 11
48.55277682742475
 21
8.500001011757317
 31
0.0
  0
LINE
  5
EC
330
8E
100
AcDbEntity
  8
0
100
AcDbLine
 10
67.4999986412696
 20
6.500001011757317
 30
0.0
 11
70.99999864127074
 21
6.500001011757317
 31
0.0
  0
LINE
  5
ED
330
8E
100
AcDbEntity
  8
0
100
AcDbLine
 10
67.44722045511571
 20
8.500001011757317
 30
0.0
 11
65.43303301492972
 21
8.500001011757317
 31
0.0
  0
ARC
  5
EE
330
8E
100
AcDbEntity
  8
0
100
AcDbCircle
 10
70.99999864127074
 20
7.500001011757317
 30
0.0
 40
1.0
100
AcDbArc
 50
270.0
 51
0.0
  0
LINE
  5
EF
330
8E
100
AcDbEntity
  8
0
100
AcDbLine
 10
63.09999864126972
 20
27.0000010117573
 30
0.0
 11
56.59999864126972
 21
27.0000010117573
 31
0.0
  0
LINE
  5
F0
330
8E
100
AcDbEntity
  8
0
100
AcDbLine
 10
54.49999864127072
 20
28.50000101175732
 30
0.0
 11
62.79999864127067
 21
28.50000101175732
 31
0.0
  0
LINE
  5
F1
330
8E
100
AcDbEntity
  8
0
100
AcDbLine
 10
53.69999864127078
 20
29.5000010117573
 30
0.0
 11
62.79999864127067
 21
29.5000010117573
 31
0.0
  0
LINE
  5
F2
330
8E
100
AcDbEntity
  8
0
100
AcDbLine
 10
56.59999864126972
 20
21.50000101175732
 30
0.0
 11
63.09999864126972
 21
21.50000101175732
 31
0.0
  0
LINE
  5
F3
330
8E
100
AcDbEntity
  8
0
100
AcDbLine
 10
63.99999876318871
 20
20.70000085241332
 30
0.0
 11
52.59999876318772
 21
20.70000085241332
 31
0.0
  0
LINE
  5
F4
330
8E
100
AcDbEntity
  8
0
100
AcDbLine
 10
50.49999864126959
 20
16.50000101175732
 30
0.0
 11
50.49999864126971
 21
9.500001011757319
 31
0.0
  0
CIRCLE
  5
F5
330
8E
100
AcDbEntity
  8
0
100
AcDbCircle
 10
59.66999864126967
 20
25.50000101175732
 30
0.0
 40
0.32
  0
LINE
  5
F6
330
8E
100
AcDbEntity
  8
0
100
AcDbLine
 10
57.59999864126974
 20
25.00000101175732
 30
0.0
 11
56.59999864126972
 21
25.00000101175732
 31
0.0
  0
CIRCLE
  5
F7
330
8E
100
AcDbEntity
  8
0
100
AcDbCircle
 10
59.66999864126967
 20
23.00000101175732
 30
0.0
 40
0.32
  0
LINE
  5
F8
330
8E
100
AcDbEntity
  8
0
100
AcDbLine
 10
56.59999864126972
 20
23.5000010117573
 30
0.0
 11
57.59999864126974
 21
23.5000010117573
 31
0.0
  0
LINE
  5
F9
330
8E
100
AcDbEntity
  8
0
100
AcDbLine
 10
56.59999864126972
 20
21.50000101175732
 30
0.0
 11
57.59999864126974
 21
21.50000101175732
 31
0.0
  0
LINE
  5
FA
330
8E
100
AcDbEntity
  8
0
100
AcDbLine
 10
57.59999864126974
 20
23.5000010117573
 30
0.0
 11
57.59999864126974
 21
25.00000101175732
 31
0.0
  0
LINE
  5
FB
330
8E
100
AcDbEntity
  8
0
100
AcDbLine
 10
56.59999864126972
 20
25.00000101175732
 30
0.0
 11
56.59999864126972
 21
23.5000010117573
 31
0.0
  0
LINE
  5
FC
330
8E
100
AcDbEntity
  8
0
100
AcDbLine
 10
57.59999864126974
 20
21.50000101175732
 30
0.0
 11
57.59999864126974
 21
27.0000010117573
 31
0.0
  0
LINE
  5
FD
330
8E
100
AcDbEntity
  8
0
100
AcDbLine
 10
56.59999864126972
 20
27.0000010117573
 30
0.0
 11
56.59999864126972
 21
21.50000101175732
 31
0.0
  0
ARC
  5
FE
330
8E
100
AcDbEntity
  8
0
100
AcDbCircle
 10
54.49999864127072
 20
29.00000101175732
 30
0.0
 40
0.5
100
AcDbArc
 50
180.0
 51
270.0
  0
LINE
  5
FF
330
8E
100
AcDbEntity
  8
0
100
AcDbLine
 10
53.99999864127074
 20
29.5000010117573
 30
0.0
 11
53.99999864127074
 21
29.00000101175732
 31
0.0
  0
ARC
  5
100
330
8E
100
AcDbEntity
  8
0
100
AcDbCircle
 10
59.44999864127078
 20
39.61628415434933
 30
0.0
 40
2.0
100
AcDbArc
 50
285.0000000000012
 51
0.0
  0
LINE
  5
101
330
8E
100
AcDbEntity
  8
0
100
AcDbLine
 10
61.44999864127078
 20
33.50000101175732
 30
0.0
 11
61.44999864127078
 21
35.90000101175728
 31
0.0
  0
ARC
  5
102
330
8E
100
AcDbEntity
  8
0
100
AcDbCircle
 10
57.14999864127071
 20
39.00000101175732
 30
0.0
 40
2.0
100
AcDbArc
 50
180.0
 51
285.0000000000012
  0
LINE
  5
103
330
8E
100
AcDbEntity
  8
0
100
AcDbLine
 10
55.14999864127071
 20
35.90000101175728
 30
0.0
 11
55.14999864127071
 21
33.50000101175732
 31
0.0
  0
LINE
  5
104
330
8E
100
AcDbEntity
  8
0
100
AcDbLine
 10
57.66763673147567
 20
37.06814935917928
 30
0.0
 11
59.96763673147576
 21
37.68443250177028
 31
0.0
  0
LINE
  5
105
330
8E
100
AcDbEntity
  8
0
100
AcDbLine
 10
56.69999864127078
 20
38.50000101175732
 30
0.0
 11
59.89999864127071
 21
38.50000101175732
 31
0.0
  0
LINE
  5
106
330
8E
100
AcDbEntity
  8
0
100
AcDbLine
 10
55.14999864127071
 20
35.90000101175728
 30
0.0
 11
61.44999864127078
 21
35.90000101175728
 31
0.0
  0
LINE
  5
107
330
8E
100
AcDbEntity
  8
0
100
AcDbLine
 10
55.14999864127071
 20
34.00000101175732
 30
0.0
 11
61.44999864127078
 21
34.00000101175732
 31
0.0
  0
LINE
  5
108
330
8E
100
AcDbEntity
  8
0
100
AcDbLine
 10
55.14999864127071
 20
33.50000101175732
 30
0.0
 11
61.44999864127078
 21
33.50000101175732
 31
0.0
  0
CIRCLE
  5
109
330
8E
100
AcDbEntity
  8
0
100
AcDbCircle
 10
58.29999864127067
 20
31.47000101175728
 30
0.0
 40
1.399999999999999
  0
LINE
  5
10A
330
8E
100
AcDbEntity
  8
0
100
AcDbLine
 10
65.49999864126959
 20
16.50000101175732
 30
0.0
 11
65.49999864126971
 21
9.500001011757319
 31
0.0
  0
LINE
  5
10B
330
8E
100
AcDbEntity
  8
0
100
AcDbLine
 10
63.09999864126972
 20
21.50000101175732
 30
0.0
 11
63.09999864126972
 21
27.0000010117573
 31
0.0
  0
LINE
  5
10C
330
8E
100
AcDbEntity
  8
0
100
AcDbLine
 10
62.79999864127067
 20
45.83000101175833
 30
0.0
 11
63.09999864127064
 21
45.83000101175833
 31
0.0
  0
LINE
  5
10D
330
8E
100
AcDbEntity
  8
0
100
AcDbLine
 10
62.79999864127067
 20
44.56000101175834
 30
0.0
 11
63.09999864127064
 21
44.56000101175834
 31
0.0
  0
LINE
  5
10E
330
8E
100
AcDbEntity
  8
0
100
AcDbLine
 10
62.79999864127067
 20
43.29000101175831
 30
0.0
 11
63.09999864127064
 21
43.29000101175831
 31
0.0
  0
LINE
  5
10F
330
8E
100
AcDbEntity
  8
0
100
AcDbLine
 10
62.79999864127067
 20
43.29000101175831
 30
0.0
 11
63.09999864127064
 21
43.29000101175831
 31
0.0
  0
LINE
  5
110
330
8E
100
AcDbEntity
  8
0
100
AcDbLine
 10
62.79999864127067
 20
42.02000101175833
 30
0.0
 11
63.09999864127064
 21
42.02000101175833
 31
0.0
  0
LINE
  5
111
330
8E
100
AcDbEntity
  8
0
100
AcDbLine
 10
62.79999864127067
 20
40.75000101175827
 30
0.0
 11
63.09999864127064
 21
40.75000101175827
 31
0.0
  0
LINE
  5
112
330
8E
100
AcDbEntity
  8
0
100
AcDbLine
 10
62.79999864127067
 20
39.48000101175829
 30
0.0
 11
63.09999864127064
 21
39.48000101175829
 31
0.0
  0
LINE
  5
113
330
8E
100
AcDbEntity
  8
0
100
AcDbLine
 10
62.79999864127067
 20
35.90000101175728
 30
0.0
 11
63.09999864127064
 21
35.90000101175728
 31
0.0
  0
ARC
  5
114
330
8E
100
AcDbEntity
  8
0
100
AcDbCircle
 10
62.79999864127067
 20
28.80000101175733
 30
0.0
 40
0.3
100
AcDbArc
 50
270.0
 51
0.0
  0
LINE
  5
115
330
8E
100
AcDbEntity
  8
0
100
AcDbLine
 10
63.09999864127064
 20
35.90000101175728
 30
0.0
 11
63.09999864127064
 21
28.80000101175733
 31
0.0
  0
ARC
  5
116
330
8E
100
AcDbEntity
  8
0
100
AcDbCircle
 10
42.99999864127072
 20
195.5000010117573
 30
0.0
 40
5.5
100
AcDbArc
 50
294.6199773286553
 51
0.0
  0
LINE
  5
117
330
8E
100
AcDbEntity
  8
0
100
AcDbLine
 10
17.99999864127073
 20
200.5000010117572
 30
0.0
 11
70.99999864127074
 21
200.5000010117572
 31
0.0
  0
LINE
  5
118
330
8E
100
AcDbEntity
  8
0
100
AcDbLine
 10
19.99999864127073
 20
190.5000010117573
 30
0.0
 11
71.99999864127073
 21
190.5000010117573
 31
0.0
  0
LINE
  5
119
330
8E
100
AcDbEntity
  8
0
100
AcDbLine
 10
69.99999864127072
 20
188.5000010117573
 30
0.0
 11
21.99999864127073
 21
188.5000010117573
 31
0.0
  0
LINE
  5
11A
330
8E
100
AcDbEntity
  8
0
100
AcDbLine
 10
69.69999864126974
 20
188.3000010117573
 30
0.0
 11
22.09999864126973
 21
188.3000010117573
 31
0.0
  0
LINE
  5
11B
330
8E
100
AcDbEntity
  8
0
100
AcDbLine
 10
17.99999864127073
 20
200.5000010117572
 30
0.0
 11
70.99999864127074
 21
200.5000010117572
 31
0.0
  0
CIRCLE
  5
11C
330
8E
100
AcDbEntity
  8
0
100
AcDbCircle
 10
42.99999864127072
 20
195.5000010117573
 30
0.0
 40
2.1
  0
LINE
  5
11D
330
8E
100
AcDbEntity
  8
0
100
AcDbLine
 10
37.49999864127072
 20
195.5000010117573
 30
0.0
 11
37.49999864127072
 21
200.5000010117572
 31
0.0
  0
LINE
  5
11E
330
8E
100
AcDbEntity
  8
0
100
AcDbLine
 10
38.94499864126976
 20
136.6600010117572
 30
0.0
 11
38.94499864126976
 21
112.5000010117573
 31
0.0
  0
LINE
  5
11F
330
8E
100
AcDbEntity
  8
0
100
AcDbLine
 10
39.39999876318768
 20
137.700000852413
 30
0.0
 11
39.39999876318768
 21
111.5000008524132
 31
0.0
  0
LINE
  5
120
330
8E
100
AcDbEntity
  8
0
100
AcDbLine
 10
30.59999864126973
 20
136.6600010117572
 30
0.0
 11
30.59999864126973
 21
112.5000010117573
 31
0.0
  0
LINE
  5
121
330
8E
100
AcDbEntity
  8
0
100
AcDbLine
 10
37.58499864126974
 20
136.6600010117572
 30
0.0
 11
37.58499864126974
 21
112.5000010117573
 31
0.0
  0
LINE
  5
122
330
8E
100
AcDbEntity
  8
0
100
AcDbLine
 10
29.59999864126973
 20
136.6600010117572
 30
0.0
 11
29.59999864126973
 21
112.5000010117573
 31
0.0
  0
LINE
  5
123
330
8E
100
AcDbEntity
  8
0
100
AcDbLine
 10
26.9999987631877
 20
137.700000852413
 30
0.0
 11
26.9999987631877
 21
111.5000008524132
 31
0.0
  0
LINE
  5
124
330
8E
100
AcDbEntity
  8
0
100
AcDbLine
 10
28.09999864127064
 20
111.5000008524132
 30
0.0
 11
28.09999864127064
 21
137.700000852413
 31
0.0
  0
LINE
  5
125
330
8E
100
AcDbEntity
  8
0
100
AcDbLine
 10
35.09999864126973
 20
88.07000101175731
 30
0.0
 11
35.09999864126973
 21
83.07000101175731
 31
0.0
  0
LINE
  5
126
330
8E
100
AcDbEntity
  8
0
100
AcDbLine
 10
30.09999864126973
 20
87.28000101175734
 30
0.0
 11
30.09999864126973
 21
83.86000101175728
 31
0.0
  0
LINE
  5
127
330
8E
100
AcDbEntity
  8
0
100
AcDbLine
 10
37.59999876318772
 20
92.10000085241338
 30
0.0
 11
37.59999876318772
 21
78.70000085241326
 31
0.0
  0
LINE
  5
128
330
8E
100
AcDbEntity
  8
0
100
AcDbLine
 10
36.59999864126973
 20
70.14000101175732
 30
0.0
 11
36.59999864126973
 21
100.6400010117572
 31
0.0
  0
LINE
  5
129
330
8E
100
AcDbEntity
  8
0
100
AcDbLine
 10
28.09999864126973
 20
106.0000010117572
 30
0.0
 11
28.09999864126973
 21
65.14000101175732
 31
0.0
  0
ARC
  5
12A
330
8E
100
AcDbEntity
  8
0
100
AcDbCircle
 10
32.09999864126971
 20
74.14000101175729
 30
0.0
 40
2.9
100
AcDbArc
 50
133.6028189726986
 51
226.3971810273013
  0
LINE
  5
12B
330
8E
100
AcDbEntity
  8
0
100
AcDbLine
 10
28.09999864126973
 20
65.14000101175732
 30
0.0
 11
35.09999864126973
 21
65.14000101175732
 31
0.0
  0
LINE
  5
12C
330
8E
100
AcDbEntity
  8
0
100
AcDbLine
 10
28.09999864126973
 20
65.14000101175732
 30
0.0
 11
35.09999864126973
 21
65.14000101175732
 31
0.0
  0
LINE
  5
12D
330
8E
100
AcDbEntity
  8
0
100
AcDbLine
 10
36.69999864126975
 20
62.14000101175731
 30
0.0
 11
28.09999864126973
 21
62.14000101175731
 31
0.0
  0
ARC
  5
12E
330
8E
100
AcDbEntity
  8
0
100
AcDbCircle
 10
32.09999864126971
 20
81.76000101175736
 30
0.0
 40
2.9
100
AcDbArc
 50
133.6028189726986
 51
226.3971810273013
  0
LINE
  5
12F
330
8E
100
AcDbEntity
  8
0
100
AcDbLine
 10
28.09999864126973
 20
70.38000101175732
 30
0.0
 11
28.09999864126973
 21
65.14000101175732
 31
0.0
  0
LINE
  5
130
330
8E
100
AcDbEntity
  8
0
100
AcDbLine
 10
35.09999864126973
 20
65.14000101175732
 30
0.0
 11
35.09999864126973
 21
70.14000101175732
 31
0.0
  0
LINE
  5
131
330
8E
100
AcDbEntity
  8
0
100
AcDbLine
 10
35.09999864126973
 20
65.14000101175732
 30
0.0
 11
35.09999864126973
 21
70.38000101175732
 31
0.0
  0
CIRCLE
  5
132
330
8E
100
AcDbEntity
  8
0
100
AcDbCircle
 10
32.09999864126971
 20
59.27000101175827
 30
0.0
 40
1.0
  0
CIRCLE
  5
133
330
8E
100
AcDbEntity
  8
0
100
AcDbCircle
 10
32.09999864126971
 20
59.27000101175827
 30
0.0
 40
1.5
  0
CIRCLE
  5
134
330
8E
100
AcDbEntity
  8
0
100
AcDbCircle
 10
32.09999864126971
 20
49.44000101175731
 30
0.0
 40
2.0
  0
CIRCLE
  5
135
330
8E
100
AcDbEntity
  8
0
100
AcDbCircle
 10
32.09999864126971
 20
49.44000101175731
 30
0.0
 40
2.0
  0
CIRCLE
  5
136
330
8E
100
AcDbEntity
  8
0
100
AcDbCircle
 10
32.09999864126971
 20
54.52000101175826
 30
0.0
 40
2.0
  0
LINE
  5
137
330
8E
100
AcDbEntity
  8
0
100
AcDbLine
 10
37.59999876318772
 20
78.70000085241326
 30
0.0
 11
39.19999876318764
 21
78.70000085241326
 31
0.0
  0
LINE
  5
138
330
8E
100
AcDbEntity
  8
0
100
AcDbLine
 10
36.59999864126973
 20
77.69000101175731
 30
0.0
 11
38.29999864126978
 21
77.69000101175731
 31
0.0
  0
LINE
  5
139
330
8E
100
AcDbEntity
  8
0
100
AcDbLine
 10
38.29999864126978
 20
76.0900010117573
 30
0.0
 11
36.59999864126973
 21
76.0900010117573
 31
0.0
  0
LINE
  5
13A
330
8E
100
AcDbEntity
  8
0
100
AcDbLine
 10
37.59999876318772
 20
75.10000085241336
 30
0.0
 11
39.19999876318764
 21
75.10000085241336
 31
0.0
  0
LINE
  5
13B
330
8E
100
AcDbEntity
  8
0
100
AcDbLine
 10
34.29999864126978
 20
83.07000101175731
 30
0.0
 11
35.09999864126973
 21
83.07000101175731
 31
0.0
  0
LINE
  5
13C
330
8E
100
AcDbEntity
  8
0
100
AcDbLine
 10
34.29999864126978
 20
80.45000101175729
 30
0.0
 11
35.09999864126973
 21
80.45000101175729
 31
0.0
  0
LINE
  5
13D
330
8E
100
AcDbEntity
  8
0
100
AcDbLine
 10
34.29999864126978
 20
83.07000101175731
 30
0.0
 11
34.29999864126978
 21
80.45000101175729
 31
0.0
  0
CIRCLE
  5
13E
330
8E
100
AcDbEntity
  8
0
100
AcDbCircle
 10
32.09999864126971
 20
81.76000101175736
 30
0.0
 40
0.75
  0
LINE
  5
13F
330
8E
100
AcDbEntity
  8
0
100
AcDbLine
 10
34.29999864126978
 20
75.45000101175729
 30
0.0
 11
35.09999864126973
 21
75.45000101175729
 31
0.0
  0
LINE
  5
140
330
8E
100
AcDbEntity
  8
0
100
AcDbLine
 10
35.09999864126973
 20
70.14000101175732
 30
0.0
 11
36.59999864126973
 21
70.14000101175732
 31
0.0
  0
LINE
  5
141
330
8E
100
AcDbEntity
  8
0
100
AcDbLine
 10
34.29999864126978
 20
72.8300010117573
 30
0.0
 11
35.09999864126973
 21
72.8300010117573
 31
0.0
  0
LINE
  5
142
330
8E
100
AcDbEntity
  8
0
100
AcDbLine
 10
35.09999864126973
 20
72.8300010117573
 30
0.0
 11
35.09999864126973
 21
71.14000101175729
 31
0.0
  0
LINE
  5
143
330
8E
100
AcDbEntity
  8
0
100
AcDbLine
 10
34.29999864126978
 20
75.45000101175729
 30
0.0
 11
34.29999864126978
 21
72.8300010117573
 31
0.0
  0
LINE
  5
144
330
8E
100
AcDbEntity
  8
0
100
AcDbLine
 10
30.09999864126973
 20
79.66000101175734
 30
0.0
 11
30.09999864126973
 21
76.24000101175727
 31
0.0
  0
LINE
  5
145
330
8E
100
AcDbEntity
  8
0
100
AcDbLine
 10
30.09999864126973
 20
72.04000101175734
 30
0.0
 11
30.09999864126973
 21
71.14000101175729
 31
0.0
  0
CIRCLE
  5
146
330
8E
100
AcDbEntity
  8
0
100
AcDbCircle
 10
32.09999864126971
 20
74.14000101175729
 30
0.0
 40
0.75
  0
CIRCLE
  5
147
330
8E
100
AcDbEntity
  8
0
100
AcDbCircle
 10
32.06361258086666
 20
68.04000101175734
 30
0.0
 40
0.9
  0
LINE
  5
148
330
8E
100
AcDbEntity
  8
0
100
AcDbLine
 10
30.09999864126973
 20
71.14000101175729
 30
0.0
 11
35.09999864126973
 21
71.14000101175729
 31
0.0
  0
CIRCLE
  5
149
330
8E
100
AcDbEntity
  8
0
100
AcDbCircle
 10
32.09999864126971
 20
74.14000101175729
 30
0.0
 40
1.5
  0
CIRCLE
  5
14A
330
8E
100
AcDbEntity
  8
0
100
AcDbCircle
 10
32.06361258086666
 20
68.04000101175734
 30
0.0
 40
2.0
  0
LINE
  5
14B
330
8E
100
AcDbEntity
  8
0
100
AcDbLine
 10
35.09999864126973
 20
80.45000101175729
 30
0.0
 11
35.09999864126973
 21
75.45000101175729
 31
0.0
  0
CIRCLE
  5
14C
330
8E
100
AcDbEntity
  8
0
100
AcDbCircle
 10
32.09999864126971
 20
81.76000101175736
 30
0.0
 40
1.5
  0
LINE
  5
14D
330
8E
100
AcDbEntity
  8
0
100
AcDbLine
 10
38.29999864126978
 20
77.69000101175731
 30
0.0
 11
38.29999864126978
 21
76.0900010117573
 31
0.0
  0
LINE
  5
14E
330
8E
100
AcDbEntity
  8
0
100
AcDbLine
 10
39.19999876318764
 20
78.70000085241326
 30
0.0
 11
39.19999876318764
 21
75.10000085241336
 31
0.0
  0
LINE
  5
14F
330
8E
100
AcDbEntity
  8
0
100
AcDbLine
 10
29.59999864126973
 20
112.5000010117573
 30
0.0
 11
38.94499864126976
 21
112.5000010117573
 31
0.0
  0
LINE
  5
150
330
8E
100
AcDbEntity
  8
0
100
AcDbLine
 10
26.9999987631877
 20
107.0000008524133
 30
0.0
 11
37.59999876318772
 21
107.0000008524133
 31
0.0
  0
LINE
  5
151
330
8E
100
AcDbEntity
  8
0
100
AcDbLine
 10
28.09999864126973
 20
106.0000010117572
 30
0.0
 11
35.09999864126973
 21
106.0000010117572
 31
0.0
  0
LINE
  5
152
330
8E
100
AcDbEntity
  8
0
100
AcDbLine
 10
28.09999864126973
 20
106.0000010117572
 30
0.0
 11
35.09999864126973
 21
106.0000010117572
 31
0.0
  0
ARC
  5
153
330
8E
100
AcDbEntity
  8
0
100
AcDbCircle
 10
32.09999864126971
 20
89.38000101175726
 30
0.0
 40
2.9
100
AcDbArc
 50
133.6028189726986
 51
226.3971810273013
  0
ARC
  5
154
330
8E
100
AcDbEntity
  8
0
100
AcDbCircle
 10
32.09999864126971
 20
97.0000010117574
 30
0.0
 40
2.9
100
AcDbArc
 50
133.6028189726986
 51
226.3971810273013
  0
LINE
  5
155
330
8E
100
AcDbEntity
  8
0
100
AcDbLine
 10
26.9999987631877
 20
111.5000008524132
 30
0.0
 11
39.39999876318768
 21
111.5000008524132
 31
0.0
  0
LINE
  5
156
330
8E
100
AcDbEntity
  8
0
100
AcDbLine
 10
28.09999864126973
 20
100.7600010117573
 30
0.0
 11
28.09999864126973
 21
106.0000010117572
 31
0.0
  0
LINE
  5
157
330
8E
100
AcDbEntity
  8
0
100
AcDbLine
 10
29.59999864126973
 20
120.0000010117572
 30
0.0
 11
28.09999864127064
 21
120.0000010117572
 31
0.0
  0
LINE
  5
158
330
8E
100
AcDbEntity
  8
0
100
AcDbLine
 10
28.09999864127064
 20
119.0000010117572
 30
0.0
 11
29.59999864126973
 21
119.0000010117572
 31
0.0
  0
LINE
  5
159
330
8E
100
AcDbEntity
  8
0
100
AcDbLine
 10
29.59999864126973
 20
119.0000010117572
 30
0.0
 11
29.59999864126973
 21
120.0000010117572
 31
0.0
  0
LINE
  5
15A
330
8E
100
AcDbEntity
  8
0
100
AcDbLine
 10
29.59999864126973
 20
115.5000010117573
 30
0.0
 11
28.09999864126973
 21
115.5000010117573
 31
0.0
  0
LINE
  5
15B
330
8E
100
AcDbEntity
  8
0
100
AcDbLine
 10
28.09999864126973
 20
112.5000010117573
 30
0.0
 11
29.59999864126973
 21
112.5000010117573
 31
0.0
  0
LINE
  5
15C
330
8E
100
AcDbEntity
  8
0
100
AcDbLine
 10
29.59999864126973
 20
112.5000010117573
 30
0.0
 11
29.59999864126973
 21
113.5000010117573
 31
0.0
  0
LINE
  5
15D
330
8E
100
AcDbEntity
  8
0
100
AcDbLine
 10
29.59999864126973
 20
112.5000010117573
 30
0.0
 11
29.59999864126973
 21
115.5000010117573
 31
0.0
  0
LINE
  5
15E
330
8E
100
AcDbEntity
  8
0
100
AcDbLine
 10
28.09999864126973
 20
115.5000010117573
 30
0.0
 11
28.09999864126973
 21
112.5000010117573
 31
0.0
  0
LINE
  5
15F
330
8E
100
AcDbEntity
  8
0
100
AcDbLine
 10
35.09999864126973
 20
101.0000010117573
 30
0.0
 11
35.09999864126973
 21
106.0000010117572
 31
0.0
  0
LINE
  5
160
330
8E
100
AcDbEntity
  8
0
100
AcDbLine
 10
35.09999864126973
 20
106.0000010117572
 30
0.0
 11
35.09999864126973
 21
100.7600010117573
 31
0.0
  0
CIRCLE
  5
161
330
8E
100
AcDbEntity
  8
0
100
AcDbCircle
 10
32.09999864126971
 20
103.1000010117572
 30
0.0
 40
0.9
  0
CIRCLE
  5
162
330
8E
100
AcDbEntity
  8
0
100
AcDbCircle
 10
32.09999864126971
 20
103.1000010117572
 30
0.0
 40
2.0
  0
LINE
  5
163
330
8E
100
AcDbEntity
  8
0
100
AcDbLine
 10
37.59999876318772
 20
107.0000008524133
 30
0.0
 11
37.59999876318772
 21
95.70000085241327
 31
0.0
  0
LINE
  5
164
330
8E
100
AcDbEntity
  8
0
100
AcDbLine
 10
37.59999876318772
 20
95.70000085241327
 30
0.0
 11
39.19999876318764
 21
95.70000085241327
 31
0.0
  0
LINE
  5
165
330
8E
100
AcDbEntity
  8
0
100
AcDbLine
 10
38.29999864126978
 20
94.69000101175732
 30
0.0
 11
36.59999864126973
 21
94.69000101175732
 31
0.0
  0
LINE
  5
166
330
8E
100
AcDbEntity
  8
0
100
AcDbLine
 10
37.59999876318772
 20
92.10000085241338
 30
0.0
 11
39.19999876318764
 21
92.10000085241338
 31
0.0
  0
LINE
  5
167
330
8E
100
AcDbEntity
  8
0
100
AcDbLine
 10
38.29999864126978
 20
93.0900010117573
 30
0.0
 11
36.59999864126973
 21
93.0900010117573
 31
0.0
  0
LINE
  5
168
330
8E
100
AcDbEntity
  8
0
100
AcDbLine
 10
35.09999864126973
 20
101.0000010117573
 30
0.0
 11
36.59999864126973
 21
101.0000010117573
 31
0.0
  0
LINE
  5
169
330
8E
100
AcDbEntity
  8
0
100
AcDbLine
 10
36.59999864126973
 20
101.0000010117573
 30
0.0
 11
36.59999864126973
 21
100.6400010117572
 31
0.0
  0
LINE
  5
16A
330
8E
100
AcDbEntity
  8
0
100
AcDbLine
 10
30.09999864126973
 20
99.64000101175724
 30
0.0
 11
30.09999864126973
 21
99.10000101175727
 31
0.0
  0
LINE
  5
16B
330
8E
100
AcDbEntity
  8
0
100
AcDbLine
 10
35.09999864126973
 20
99.64000101175724
 30
0.0
 11
30.09999864126973
 21
99.64000101175724
 31
0.0
  0
LINE
  5
16C
330
8E
100
AcDbEntity
  8
0
100
AcDbLine
 10
34.29999864126978
 20
98.31000101175732
 30
0.0
 11
35.09999864126973
 21
98.31000101175732
 31
0.0
  0
LINE
  5
16D
330
8E
100
AcDbEntity
  8
0
100
AcDbLine
 10
34.29999864126978
 20
95.69000101175731
 30
0.0
 11
35.09999864126973
 21
95.69000101175731
 31
0.0
  0
LINE
  5
16E
330
8E
100
AcDbEntity
  8
0
100
AcDbLine
 10
34.29999864126978
 20
98.31000101175732
 30
0.0
 11
34.29999864126978
 21
95.69000101175731
 31
0.0
  0
LINE
  5
16F
330
8E
100
AcDbEntity
  8
0
100
AcDbLine
 10
34.29999864126978
 20
90.69000101175731
 30
0.0
 11
35.09999864126973
 21
90.69000101175731
 31
0.0
  0
LINE
  5
170
330
8E
100
AcDbEntity
  8
0
100
AcDbLine
 10
34.29999864126978
 20
88.07000101175731
 30
0.0
 11
35.09999864126973
 21
88.07000101175731
 31
0.0
  0
LINE
  5
171
330
8E
100
AcDbEntity
  8
0
100
AcDbLine
 10
34.29999864126978
 20
90.69000101175731
 30
0.0
 11
34.29999864126978
 21
88.07000101175731
 31
0.0
  0
LINE
  5
172
330
8E
100
AcDbEntity
  8
0
100
AcDbLine
 10
35.09999864126973
 20
95.69000101175731
 30
0.0
 11
35.09999864126973
 21
90.69000101175731
 31
0.0
  0
CIRCLE
  5
173
330
8E
100
AcDbEntity
  8
0
100
AcDbCircle
 10
32.09999864126971
 20
97.0000010117574
 30
0.0
 40
0.75
  0
CIRCLE
  5
174
330
8E
100
AcDbEntity
  8
0
100
AcDbCircle
 10
32.09999864126971
 20
89.38000101175726
 30
0.0
 40
0.75
  0
LINE
  5
175
330
8E
100
AcDbEntity
  8
0
100
AcDbLine
 10
30.09999864126973
 20
94.90000101175724
 30
0.0
 11
30.09999864126973
 21
91.48000101175728
 31
0.0
  0
CIRCLE
  5
176
330
8E
100
AcDbEntity
  8
0
100
AcDbCircle
 10
32.09999864126971
 20
97.0000010117574
 30
0.0
 40
1.5
  0
CIRCLE
  5
177
330
8E
100
AcDbEntity
  8
0
100
AcDbCircle
 10
32.09999864126971
 20
89.38000101175726
 30
0.0
 40
1.5
  0
LINE
  5
178
330
8E
100
AcDbEntity
  8
0
100
AcDbLine
 10
35.09999864126973
 20
99.64000101175724
 30
0.0
 11
35.09999864126973
 21
98.31000101175732
 31
0.0
  0
LINE
  5
179
330
8E
100
AcDbEntity
  8
0
100
AcDbLine
 10
39.19999876318764
 20
95.70000085241327
 30
0.0
 11
39.19999876318764
 21
92.10000085241338
 31
0.0
  0
LINE
  5
17A
330
8E
100
AcDbEntity
  8
0
100
AcDbLine
 10
38.29999864126978
 20
94.69000101175732
 30
0.0
 11
38.29999864126978
 21
93.0900010117573
 31
0.0
  0
LINE
  5
17B
330
8E
100
AcDbEntity
  8
0
100
AcDbLine
 10
34.59999864126971
 20
120.5000010117572
 30
0.0
 11
33.59999864126971
 21
120.5000010117572
 31
0.0
  0
LINE
  5
17C
330
8E
100
AcDbEntity
  8
0
100
AcDbLine
 10
33.59999864126971
 20
118.5000010117572
 30
0.0
 11
34.59999864126971
 21
118.5000010117572
 31
0.0
  0
LINE
  5
17D
330
8E
100
AcDbEntity
  8
0
100
AcDbLine
 10
34.59999864126971
 20
118.5000010117572
 30
0.0
 11
34.59999864126971
 21
120.5000010117572
 31
0.0
  0
LINE
  5
17E
330
8E
100
AcDbEntity
  8
0
100
AcDbLine
 10
33.59999864126971
 20
120.5000010117572
 30
0.0
 11
33.59999864126971
 21
118.5000010117572
 31
0.0
  0
LINE
  5
17F
330
8E
100
AcDbEntity
  8
0
100
AcDbLine
 10
30.59999864126973
 20
113.5000010117573
 30
0.0
 11
37.58499864126974
 21
113.5000010117573
 31
0.0
  0
LINE
  5
180
330
8E
100
AcDbEntity
  8
0
100
AcDbLine
 10
0.4869101671166618
 20
190.0414046505393
 30
0.0
 11
17.99999864127073
 21
190.5000010117573
 31
0.0
  0
ARC
  5
181
330
8E
100
AcDbEntity
  8
0
100
AcDbCircle
 10
0.4999986412707358
 20
189.5415759880513
 30
0.0
 40
0.5
100
AcDbArc
 50
91.4999999999962
 51
180.0
  0
LINE
  5
182
330
8E
100
AcDbEntity
  8
0
100
AcDbLine
 10
39.89999876318768
 20
166.6000008524133
 30
0.0
 11
39.89999876318768
 21
158.4000008524133
 31
0.0
  0
LINE
  5
183
330
8E
100
AcDbEntity
  8
0
100
AcDbLine
 10
38.29999864127068
 20
158.9400010117573
 30
0.0
 11
38.29999864127068
 21
165.5800010117573
 31
0.0
  0
LINE
  5
184
330
8E
100
AcDbEntity
  8
0
100
AcDbLine
 10
28.09999864127064
 20
158.9400010117573
 30
0.0
 11
28.09999864127064
 21
165.5800010117573
 31
0.0
  0
LINE
  5
185
330
8E
100
AcDbEntity
  8
0
100
AcDbLine
 10
26.9999987631877
 20
174.6000008524133
 30
0.0
 11
26.9999987631877
 21
141.6000008524133
 31
0.0
  0
LINE
  5
186
330
8E
100
AcDbEntity
  8
0
100
AcDbLine
 10
28.09999864127076
 20
141.6000008524133
 30
0.0
 11
28.09999864127064
 21
174.6000008524133
 31
0.0
  0
LINE
  5
187
330
8E
100
AcDbEntity
  8
0
100
AcDbLine
 10
35.34999864127064
 20
157.9400010117573
 30
0.0
 11
28.09999864126973
 21
157.9400010117573
 31
0.0
  0
LINE
  5
188
330
8E
100
AcDbEntity
  8
0
100
AcDbLine
 10
38.29999864127068
 20
158.9400010117573
 30
0.0
 11
28.09999864127064
 21
158.9400010117573
 31
0.0
  0
LINE
  5
189
330
8E
100
AcDbEntity
  8
0
100
AcDbLine
 10
29.59999864126973
 20
136.6600010117572
 30
0.0
 11
30.59999864126973
 21
136.6600010117572
 31
0.0
  0
LINE
  5
18A
330
8E
100
AcDbEntity
  8
0
100
AcDbLine
 10
28.09999864126973
 20
142.5400010117573
 30
0.0
 11
35.34999864127064
 21
142.5400010117573
 31
0.0
  0
LINE
  5
18B
330
8E
100
AcDbEntity
  8
0
100
AcDbLine
 10
26.9999987631877
 20
141.6000008524133
 30
0.0
 11
36.29999876318777
 21
141.6000008524133
 31
0.0
  0
LINE
  5
18C
330
8E
100
AcDbEntity
  8
0
100
AcDbLine
 10
38.94499864126976
 20
136.6600010117572
 30
0.0
 11
29.59999864126973
 21
136.6600010117572
 31
0.0
  0
LINE
  5
18D
330
8E
100
AcDbEntity
  8
0
100
AcDbLine
 10
26.9999987631877
 20
137.700000852413
 30
0.0
 11
39.39999876318768
 21
137.700000852413
 31
0.0
  0
LINE
  5
18E
330
8E
100
AcDbEntity
  8
0
100
AcDbLine
 10
29.59999864126973
 20
136.6600010117572
 30
0.0
 11
28.09999864126973
 21
136.6600010117572
 31
0.0
  0
LINE
  5
18F
330
8E
100
AcDbEntity
  8
0
100
AcDbLine
 10
28.09999864126973
 20
133.6600010117572
 30
0.0
 11
29.59999864126973
 21
133.6600010117572
 31
0.0
  0
LINE
  5
190
330
8E
100
AcDbEntity
  8
0
100
AcDbLine
 10
29.59999864126973
 20
129.1600010117567
 30
0.0
 11
29.59999864126973
 21
130.1600010117567
 31
0.0
  0
LINE
  5
191
330
8E
100
AcDbEntity
  8
0
100
AcDbLine
 10
28.09999864127064
 20
129.1600010117567
 30
0.0
 11
29.59999864126973
 21
129.1600010117567
 31
0.0
  0
LINE
  5
192
330
8E
100
AcDbEntity
  8
0
100
AcDbLine
 10
29.59999864126973
 20
130.1600010117567
 30
0.0
 11
28.09999864127064
 21
130.1600010117567
 31
0.0
  0
LINE
  5
193
330
8E
100
AcDbEntity
  8
0
100
AcDbLine
 10
29.59999864126973
 20
124.0800010117573
 30
0.0
 11
29.59999864126973
 21
125.0800010117573
 31
0.0
  0
LINE
  5
194
330
8E
100
AcDbEntity
  8
0
100
AcDbLine
 10
28.09999864127064
 20
124.0800010117573
 30
0.0
 11
29.59999864126973
 21
124.0800010117573
 31
0.0
  0
LINE
  5
195
330
8E
100
AcDbEntity
  8
0
100
AcDbLine
 10
29.59999864126973
 20
125.0800010117573
 30
0.0
 11
28.09999864127064
 21
125.0800010117573
 31
0.0
  0
LINE
  5
196
330
8E
100
AcDbEntity
  8
0
100
AcDbLine
 10
29.59999864126973
 20
136.6600010117572
 30
0.0
 11
29.59999864126973
 21
135.6600010117572
 31
0.0
  0
LINE
  5
197
330
8E
100
AcDbEntity
  8
0
100
AcDbLine
 10
29.59999864126973
 20
133.6600010117572
 30
0.0
 11
29.59999864126973
 21
136.6600010117572
 31
0.0
  0
LINE
  5
198
330
8E
100
AcDbEntity
  8
0
100
AcDbLine
 10
28.09999864126973
 20
136.6600010117572
 30
0.0
 11
28.09999864126973
 21
133.6600010117572
 31
0.0
  0
LINE
  5
199
330
8E
100
AcDbEntity
  8
0
100
AcDbLine
 10
28.09999864126973
 20
157.9400010117573
 30
0.0
 11
28.09999864126973
 21
142.5400010117573
 31
0.0
  0
LINE
  5
19A
330
8E
100
AcDbEntity
  8
0
100
AcDbLine
 10
38.08499864126975
 20
136.6600010117572
 30
0.0
 11
37.58499864126974
 21
136.6600010117572
 31
0.0
  0
LINE
  5
19B
330
8E
100
AcDbEntity
  8
0
100
AcDbLine
 10
33.59999864126971
 20
128.6600010117572
 30
0.0
 11
34.59999864126971
 21
128.6600010117572
 31
0.0
  0
LINE
  5
19C
330
8E
100
AcDbEntity
  8
0
100
AcDbLine
 10
34.59999864126971
 20
128.6600010117572
 30
0.0
 11
34.59999864126971
 21
130.6600010117572
 31
0.0
  0
LINE
  5
19D
330
8E
100
AcDbEntity
  8
0
100
AcDbLine
 10
34.59999864126971
 20
130.6600010117572
 30
0.0
 11
33.59999864126971
 21
130.6600010117572
 31
0.0
  0
LINE
  5
19E
330
8E
100
AcDbEntity
  8
0
100
AcDbLine
 10
33.59999864126971
 20
130.6600010117572
 30
0.0
 11
33.59999864126971
 21
128.6600010117572
 31
0.0
  0
LINE
  5
19F
330
8E
100
AcDbEntity
  8
0
100
AcDbLine
 10
34.59999864126971
 20
125.5800010117573
 30
0.0
 11
33.59999864126971
 21
125.5800010117573
 31
0.0
  0
LINE
  5
1A0
330
8E
100
AcDbEntity
  8
0
100
AcDbLine
 10
33.59999864126971
 20
123.5800010117573
 30
0.0
 11
34.59999864126971
 21
123.5800010117573
 31
0.0
  0
LINE
  5
1A1
330
8E
100
AcDbEntity
  8
0
100
AcDbLine
 10
34.59999864126971
 20
123.5800010117573
 30
0.0
 11
34.59999864126971
 21
125.5800010117573
 31
0.0
  0
LINE
  5
1A2
330
8E
100
AcDbEntity
  8
0
100
AcDbLine
 10
33.59999864126971
 20
125.5800010117573
 30
0.0
 11
33.59999864126971
 21
123.5800010117573
 31
0.0
  0
LINE
  5
1A3
330
8E
100
AcDbEntity
  8
0
100
AcDbLine
 10
30.59999864126973
 20
135.6600010117572
 30
0.0
 11
37.58499864126974
 21
135.6600010117572
 31
0.0
  0
LINE
  5
1A4
330
8E
100
AcDbEntity
  8
0
100
AcDbLine
 10
36.29999876318777
 20
158.4000008524133
 30
0.0
 11
39.89999876318768
 21
158.4000008524133
 31
0.0
  0
CIRCLE
  5
1A5
330
8E
100
AcDbEntity
  8
0
100
AcDbCircle
 10
31.59999864126973
 20
148.4900010117573
 30
0.0
 40
1.0
  0
CIRCLE
  5
1A6
330
8E
100
AcDbEntity
  8
0
100
AcDbCircle
 10
31.59999864126973
 20
151.9900010117573
 30
0.0
 40
1.0
  0
CIRCLE
  5
1A7
330
8E
100
AcDbEntity
  8
0
100
AcDbCircle
 10
31.59999864126973
 20
144.9900010117573
 30
0.0
 40
1.0
  0
CIRCLE
  5
1A8
330
8E
100
AcDbEntity
  8
0
100
AcDbCircle
 10
31.59999864126973
 20
155.4900010117573
 30
0.0
 40
1.0
  0
LINE
  5
1A9
330
8E
100
AcDbEntity
  8
0
100
AcDbLine
 10
35.34999864127064
 20
142.5400010117573
 30
0.0
 11
35.34999864127064
 21
157.9400010117573
 31
0.0
  0
LINE
  5
1AA
330
8E
100
AcDbEntity
  8
0
100
AcDbLine
 10
36.29999876318777
 20
158.4000008524133
 30
0.0
 11
36.29999876318777
 21
141.6000008524133
 31
0.0
  0
CIRCLE
  5
1AB
330
8E
100
AcDbEntity
  8
0
100
AcDbCircle
 10
30.59999876318773
 20
183.3000008524134
 30
0.0
 40
1.399999999999999
  0
CIRCLE
  5
1AC
330
8E
100
AcDbEntity
  8
0
100
AcDbCircle
 10
30.59999876318773
 20
178.5000008524133
 30
0.0
 40
1.399999999999999
  0
LINE
  5
1AD
330
8E
100
AcDbEntity
  8
0
100
AcDbLine
 10
36.89999876318768
 20
174.6000008524133
 30
0.0
 11
26.9999987631877
 21
174.6000008524133
 31
0.0
  0
LINE
  5
1AE
330
8E
100
AcDbEntity
  8
0
100
AcDbLine
 10
35.99999864126971
 20
174.0800010117573
 30
0.0
 11
28.09999864126973
 21
174.0800010117573
 31
0.0
  0
LINE
  5
1AF
330
8E
100
AcDbEntity
  8
0
100
AcDbLine
 10
35.99999864126971
 20
166.580001011758
 30
0.0
 11
28.09999864126973
 21
166.580001011758
 31
0.0
  0
LINE
  5
1B0
330
8E
100
AcDbEntity
  8
0
100
AcDbLine
 10
38.29999864127068
 20
165.5800010117573
 30
0.0
 11
28.09999864127064
 21
165.5800010117573
 31
0.0
  0
LINE
  5
1B1
330
8E
100
AcDbEntity
  8
0
100
AcDbLine
 10
28.09999864127064
 20
173.1700010117583
 30
0.0
 11
28.49999864126971
 21
173.1700010117583
 31
0.0
  0
LINE
  5
1B2
330
8E
100
AcDbEntity
  8
0
100
AcDbLine
 10
28.09999864127064
 20
172.5700010117578
 30
0.0
 11
28.49999864126971
 21
172.5700010117578
 31
0.0
  0
LINE
  5
1B3
330
8E
100
AcDbEntity
  8
0
100
AcDbLine
 10
28.09999864127064
 20
170.6300010117582
 30
0.0
 11
28.49999864126971
 21
170.6300010117582
 31
0.0
  0
LINE
  5
1B4
330
8E
100
AcDbEntity
  8
0
100
AcDbLine
 10
28.09999864127064
 20
170.030001011758
 30
0.0
 11
28.49999864126971
 21
170.030001011758
 31
0.0
  0
LINE
  5
1B5
330
8E
100
AcDbEntity
  8
0
100
AcDbLine
 10
28.09999864127064
 20
167.4900010117583
 30
0.0
 11
28.49999864126971
 21
167.4900010117583
 31
0.0
  0
LINE
  5
1B6
330
8E
100
AcDbEntity
  8
0
100
AcDbLine
 10
28.09999864127064
 20
168.0900010117583
 30
0.0
 11
28.49999864126971
 21
168.0900010117583
 31
0.0
  0
LINE
  5
1B7
330
8E
100
AcDbEntity
  8
0
100
AcDbLine
 10
28.09999864126973
 20
166.580001011758
 30
0.0
 11
28.09999864126973
 21
167.4900010117583
 31
0.0
  0
LINE
  5
1B8
330
8E
100
AcDbEntity
  8
0
100
AcDbLine
 10
28.09999864126973
 20
173.1700010117573
 30
0.0
 11
28.09999864126973
 21
174.0800010117573
 31
0.0
  0
LINE
  5
1B9
330
8E
100
AcDbEntity
  8
0
100
AcDbLine
 10
28.49999864126971
 20
166.580001011758
 30
0.0
 11
28.49999864126971
 21
174.0800010117573
 31
0.0
  0
LINE
  5
1BA
330
8E
100
AcDbEntity
  8
0
100
AcDbLine
 10
17.99999864127073
 20
190.5000010117573
 30
0.0
 11
18.99999864127073
 21
190.4738150901881
 31
0.0
  0
LINE
  5
1BB
330
8E
100
AcDbEntity
  8
0
100
AcDbLine
 10
18.99999864127073
 20
186.5000010117573
 30
0.0
 11
19.01308711542367
 21
186.5003437455149
 31
0.0
  0
LINE
  5
1BC
330
8E
100
AcDbEntity
  8
0
100
AcDbLine
 10
19.99999864127073
 20
190.0000010117573
 30
0.0
 11
18.99999864127073
 21
190.0000010117573
 31
0.0
  0
CIRCLE
  5
1BD
330
8E
100
AcDbEntity
  8
0
100
AcDbCircle
 10
35.69999876318763
 20
178.5000008524133
 30
0.0
 40
1.399999999999999
  0
LINE
  5
1BE
330
8E
100
AcDbEntity
  8
0
100
AcDbLine
 10
38.29999864127068
 20
160.390001011757
 30
0.0
 11
33.5245037122787
 21
160.390001011757
 31
0.0
  0
LINE
  5
1BF
330
8E
100
AcDbEntity
  8
0
100
AcDbLine
 10
38.29999864127068
 20
164.130001011757
 30
0.0
 11
33.5245037122787
 21
164.130001011757
 31
0.0
  0
LINE
  5
1C0
330
8E
100
AcDbEntity
  8
0
100
AcDbLine
 10
38.29999864127068
 20
162.9300010117573
 30
0.0
 11
35.29999864127068
 21
162.9300010117573
 31
0.0
  0
LINE
  5
1C1
330
8E
100
AcDbEntity
  8
0
100
AcDbLine
 10
38.29999864127068
 20
161.5900010117568
 30
0.0
 11
35.29999864127068
 21
161.5900010117568
 31
0.0
  0
LINE
  5
1C2
330
8E
100
AcDbEntity
  8
0
100
AcDbLine
 10
38.29999864127068
 20
160.390001011757
 30
0.0
 11
35.29999864127068
 21
160.390001011757
 31
0.0
  0
LINE
  5
1C3
330
8E
100
AcDbEntity
  8
0
100
AcDbLine
 10
36.89999876318768
 20
166.6000008524133
 30
0.0
 11
39.89999876318768
 21
166.6000008524133
 31
0.0
  0
LINE
  5
1C4
330
8E
100
AcDbEntity
  8
0
100
AcDbLine
 10
35.29999864127068
 20
162.9300010117573
 30
0.0
 11
35.29999864127068
 21
164.130001011757
 31
0.0
  0
LINE
  5
1C5
330
8E
100
AcDbEntity
  8
0
100
AcDbLine
 10
35.29999864127068
 20
160.390001011757
 30
0.0
 11
35.29999864127068
 21
161.5900010117568
 31
0.0
  0
LINE
  5
1C6
330
8E
100
AcDbEntity
  8
0
100
AcDbLine
 10
36.79999864127068
 20
161.5900010117568
 30
0.0
 11
36.79999864127068
 21
162.9300010117573
 31
0.0
  0
LINE
  5
1C7
330
8E
100
AcDbEntity
  8
0
100
AcDbLine
 10
37.29999864127068
 20
162.9300010117573
 30
0.0
 11
37.29999864127068
 21
164.130001011757
 31
0.0
  0
LINE
  5
1C8
330
8E
100
AcDbEntity
  8
0
100
AcDbLine
 10
37.29999864127068
 20
160.390001011757
 30
0.0
 11
37.29999864127068
 21
161.5900010117568
 31
0.0
  0
LINE
  5
1C9
330
8E
100
AcDbEntity
  8
0
100
AcDbLine
 10
33.5245037122787
 20
164.130001011757
 30
0.0
 11
33.5245037122787
 21
160.390001011757
 31
0.0
  0
CIRCLE
  5
1CA
330
8E
100
AcDbEntity
  8
0
100
AcDbCircle
 10
32.24999864126971
 20
170.3300010117573
 30
0.0
 40
1.290290050200999
  0
LINE
  5
1CB
330
8E
100
AcDbEntity
  8
0
100
AcDbLine
 10
36.89999876318768
 20
174.6000008524133
 30
0.0
 11
36.89999876318768
 21
166.6000008524133
 31
0.0
  0
LINE
  5
1CC
330
8E
100
AcDbEntity
  8
0
100
AcDbLine
 10
35.99999864126971
 20
166.580001011758
 30
0.0
 11
35.99999864126971
 21
174.0800010117573
 31
0.0
  0
ARC
  5
1CD
330
8E
100
AcDbEntity
  8
0
100
AcDbCircle
 10
42.99999864127072
 20
195.5000010117573
 30
0.0
 40
5.5
100
AcDbArc
 50
180.0
 51
245.3800226713445
  0
CIRCLE
  5
1CE
330
8E
100
AcDbEntity
  8
0
100
AcDbCircle
 10
35.69999876318763
 20
183.3000008524134
 30
0.0
 40
1.399999999999999
  0
LINE
  5
1CF
330
8E
100
AcDbEntity
  8
0
100
AcDbLine
 10
17.99999864127073
 20
200.5000010117572
 30
0.0
 11
0.9738216929625878
 21
200.0541548775661
 31
0.0
  0
ARC
  5
1D0
330
8E
100
AcDbEntity
  8
0
100
AcDbCircle
 10
0.9999986412707356
 20
199.0544975525903
 30
0.0
 40
1.0
100
AcDbArc
 50
91.4999999999962
 51
180.0
  0
LINE
  5
1D1
330
8E
100
AcDbEntity
  8
0
100
AcDbLine
 10
48.49999864127074
 20
195.5000010117573
 30
0.0
 11
48.49999864127074
 21
200.5000010117572
 31
0.0
  0
LINE
  5
1D2
330
8E
100
AcDbEntity
  8
0
100
AcDbLine
 10
61.74999864126971
 20
111.7000010117572
 30
0.0
 11
61.74999864126971
 21
143.1500010117568
 31
0.0
  0
LINE
  5
1D3
330
8E
100
AcDbEntity
  8
0
100
AcDbLine
 10
55.44999864126975
 20
143.1500010117568
 30
0.0
 11
55.44999864126975
 21
111.7000010117572
 31
0.0
  0
LINE
  5
1D4
330
8E
100
AcDbEntity
  8
0
100
AcDbLine
 10
63.99999876318871
 20
151.2000008524131
 30
0.0
 11
63.99999876318871
 21
105.1000008524132
 31
0.0
  0
LINE
  5
1D5
330
8E
100
AcDbEntity
  8
0
100
AcDbLine
 10
52.59999876318772
 20
105.1000008524132
 30
0.0
 11
52.59999876318772
 21
151.2000008524131
 31
0.0
  0
LINE
  5
1D6
330
8E
100
AcDbEntity
  8
0
100
AcDbLine
 10
63.09999864127064
 20
151.2000008524131
 30
0.0
 11
63.09999864127064
 21
105.1000008524132
 31
0.0
  0
LINE
  5
1D7
330
8E
100
AcDbEntity
  8
0
100
AcDbLine
 10
62.84999864126972
 20
105.6000010117569
 30
0.0
 11
62.84999864126972
 21
149.2500010117573
 31
0.0
  0
LINE
  5
1D8
330
8E
100
AcDbEntity
  8
0
100
AcDbLine
 10
54.34999864126972
 20
149.2500010117573
 30
0.0
 11
54.34999864126972
 21
105.6000010117569
 31
0.0
  0
LINE
  5
1D9
330
8E
100
AcDbEntity
  8
0
100
AcDbLine
 10
63.09999864127064
 20
83.10000101175729
 30
0.0
 11
63.09999864127064
 21
89.00000101175738
 31
0.0
  0
LINE
  5
1DA
330
8E
100
AcDbEntity
  8
0
100
AcDbLine
 10
63.99999876318871
 20
103.1000008524131
 30
0.0
 11
63.99999876318871
 21
68.20000085241332
 31
0.0
  0
LINE
  5
1DB
330
8E
100
AcDbEntity
  8
0
100
AcDbLine
 10
63.09999864127064
 20
103.1000008524131
 30
0.0
 11
63.09999864127064
 21
68.20000085241332
 31
0.0
  0
LINE
  5
1DC
330
8E
100
AcDbEntity
  8
0
100
AcDbLine
 10
49.19999876318764
 20
98.60000085241338
 30
0.0
 11
49.19999876318764
 21
82.60000085241335
 31
0.0
  0
LINE
  5
1DD
330
8E
100
AcDbEntity
  8
0
100
AcDbLine
 10
50.29999864126978
 20
83.10000101175729
 30
0.0
 11
50.29999864126978
 21
97.10000101175728
 31
0.0
  0
LINE
  5
1DE
330
8E
100
AcDbEntity
  8
0
100
AcDbLine
 10
63.09999864126972
 20
82.60000101175727
 30
0.0
 11
55.19999864126976
 21
82.60000101175727
 31
0.0
  0
LINE
  5
1DF
330
8E
100
AcDbEntity
  8
0
100
AcDbLine
 10
63.09999864126972
 20
77.10000101175729
 30
0.0
 11
55.84999864126974
 21
77.10000101175729
 31
0.0
  0
LINE
  5
1E0
330
8E
100
AcDbEntity
  8
0
100
AcDbLine
 10
55.19999864126976
 20
77.60000101175727
 30
0.0
 11
63.09999864126972
 21
77.60000101175727
 31
0.0
  0
LINE
  5
1E1
330
8E
100
AcDbEntity
  8
0
100
AcDbLine
 10
55.84999864126974
 20
68.70000101175732
 30
0.0
 11
63.09999864126972
 21
68.70000101175732
 31
0.0
  0
LINE
  5
1E2
330
8E
100
AcDbEntity
  8
0
100
AcDbLine
 10
63.99999876318871
 20
68.20000085241332
 30
0.0
 11
52.59999876318772
 21
68.20000085241332
 31
0.0
  0
LINE
  5
1E3
330
8E
100
AcDbEntity
  8
0
100
AcDbLine
 10
63.99999876318871
 20
66.20000085241333
 30
0.0
 11
52.59999876318772
 21
66.20000085241333
 31
0.0
  0
LINE
  5
1E4
330
8E
100
AcDbEntity
  8
0
100
AcDbLine
 10
54.49999864127072
 20
65.70000101175732
 30
0.0
 11
62.79999864127067
 21
65.70000101175833
 31
0.0
  0
LINE
  5
1E5
330
8E
100
AcDbEntity
  8
0
100
AcDbLine
 10
53.69999864127078
 20
64.70000101175732
 30
0.0
 11
62.79999864127067
 21
64.70000101175732
 31
0.0
  0
LINE
  5
1E6
330
8E
100
AcDbEntity
  8
0
100
AcDbLine
 10
63.09999864127064
 20
83.10000101175729
 30
0.0
 11
50.29999864126978
 21
83.10000101175729
 31
0.0
  0
ARC
  5
1E7
330
8E
100
AcDbEntity
  8
0
100
AcDbCircle
 10
54.49999864127072
 20
65.20000101175732
 30
0.0
 40
0.5
100
AcDbArc
 50
90.0
 51
180.0
  0
LINE
  5
1E8
330
8E
100
AcDbEntity
  8
0
100
AcDbLine
 10
53.99999864127074
 20
65.20000101175732
 30
0.0
 11
53.99999864127074
 21
64.70000101175732
 31
0.0
  0
LINE
  5
1E9
330
8E
100
AcDbEntity
  8
0
100
AcDbLine
 10
61.44999864127078
 20
58.30000101175731
 30
0.0
 11
61.44999864127078
 21
60.70000101175832
 31
0.0
  0
ARC
  5
1EA
330
8E
100
AcDbEntity
  8
0
100
AcDbCircle
 10
59.44999864127078
 20
54.58371786916631
 30
0.0
 40
2.0
100
AcDbArc
 50
0.0
 51
74.99999999999841
  0
LINE
  5
1EB
330
8E
100
AcDbEntity
  8
0
100
AcDbLine
 10
55.14999864127071
 20
60.70000101175832
 30
0.0
 11
55.14999864127071
 21
58.30000101175731
 31
0.0
  0
ARC
  5
1EC
330
8E
100
AcDbEntity
  8
0
100
AcDbCircle
 10
57.14999864127071
 20
55.20000101175732
 30
0.0
 40
2.0
100
AcDbArc
 50
74.99999999999841
 51
180.0
  0
LINE
  5
1ED
330
8E
100
AcDbEntity
  8
0
100
AcDbLine
 10
57.66763673147567
 20
57.13185266433533
 30
0.0
 11
59.96763673147576
 21
56.51556952174428
 31
0.0
  0
LINE
  5
1EE
330
8E
100
AcDbEntity
  8
0
100
AcDbLine
 10
55.14999864127071
 20
58.30000101175731
 30
0.0
 11
61.44999864127078
 21
58.30000101175731
 31
0.0
  0
LINE
  5
1EF
330
8E
100
AcDbEntity
  8
0
100
AcDbLine
 10
55.14999864127071
 20
60.20000101175732
 30
0.0
 11
61.44999864127078
 21
60.20000101175732
 31
0.0
  0
LINE
  5
1F0
330
8E
100
AcDbEntity
  8
0
100
AcDbLine
 10
55.14999864127071
 20
60.70000101175732
 30
0.0
 11
61.44999864127078
 21
60.70000101175732
 31
0.0
  0
LINE
  5
1F1
330
8E
100
AcDbEntity
  8
0
100
AcDbLine
 10
59.89999864127071
 20
55.70000101175732
 30
0.0
 11
56.69999864127078
 21
55.70000101175832
 31
0.0
  0
CIRCLE
  5
1F2
330
8E
100
AcDbEntity
  8
0
100
AcDbCircle
 10
58.29999864127067
 20
62.73000101175728
 30
0.0
 40
1.399999999999999
  0
LINE
  5
1F3
330
8E
100
AcDbEntity
  8
0
100
AcDbLine
 10
52.59999876318772
 20
82.60000085241335
 30
0.0
 11
52.59999876318772
 21
68.20000085241332
 31
0.0
  0
LINE
  5
1F4
330
8E
100
AcDbEntity
  8
0
100
AcDbLine
 10
52.59999876318772
 20
82.60000085241335
 30
0.0
 11
49.19999876318764
 21
82.60000085241335
 31
0.0
  0
LINE
  5
1F5
330
8E
100
AcDbEntity
  8
0
100
AcDbLine
 10
58.14999864126968
 20
81.60000101175731
 30
0.0
 11
57.14999864126968
 21
81.60000101175731
 31
0.0
  0
LINE
  5
1F6
330
8E
100
AcDbEntity
  8
0
100
AcDbLine
 10
62.14999864126968
 20
81.60000101175731
 30
0.0
 11
56.14999864126968
 21
81.60000101175731
 31
0.0
  0
CIRCLE
  5
1F7
330
8E
100
AcDbEntity
  8
0
100
AcDbCircle
 10
59.59999864126974
 20
71.1500010117573
 30
0.0
 40
1.0
  0
CIRCLE
  5
1F8
330
8E
100
AcDbEntity
  8
0
100
AcDbCircle
 10
59.59999864126974
 20
74.65000101175729
 30
0.0
 40
1.0
  0
LINE
  5
1F9
330
8E
100
AcDbEntity
  8
0
100
AcDbLine
 10
57.14999864126968
 20
78.60000101175727
 30
0.0
 11
58.14999864126968
 21
78.60000101175727
 31
0.0
  0
LINE
  5
1FA
330
8E
100
AcDbEntity
  8
0
100
AcDbLine
 10
55.84999864126974
 20
77.10000101175729
 30
0.0
 11
55.84999864126974
 21
68.70000101175732
 31
0.0
  0
LINE
  5
1FB
330
8E
100
AcDbEntity
  8
0
100
AcDbLine
 10
56.14999864126968
 20
78.60000101175727
 30
0.0
 11
62.14999864126968
 21
78.60000101175727
 31
0.0
  0
LINE
  5
1FC
330
8E
100
AcDbEntity
  8
0
100
AcDbLine
 10
58.94999864126976
 20
78.60000101175727
 30
0.0
 11
58.94999864126976
 21
81.60000101175731
 31
0.0
  0
LINE
  5
1FD
330
8E
100
AcDbEntity
  8
0
100
AcDbLine
 10
62.14999864126968
 20
78.60000101175727
 30
0.0
 11
62.14999864126968
 21
81.60000101175731
 31
0.0
  0
LINE
  5
1FE
330
8E
100
AcDbEntity
  8
0
100
AcDbLine
 10
56.14999864126968
 20
81.60000101175731
 30
0.0
 11
56.14999864126968
 21
78.60000101175727
 31
0.0
  0
LINE
  5
1FF
330
8E
100
AcDbEntity
  8
0
100
AcDbLine
 10
58.14999864126968
 20
78.60000101175727
 30
0.0
 11
58.14999864126968
 21
81.60000101175731
 31
0.0
  0
LINE
  5
200
330
8E
100
AcDbEntity
  8
0
100
AcDbLine
 10
57.14999864126968
 20
81.60000101175731
 30
0.0
 11
57.14999864126968
 21
78.60000101175727
 31
0.0
  0
LINE
  5
201
330
8E
100
AcDbEntity
  8
0
100
AcDbLine
 10
55.19999864126976
 20
82.60000101175727
 30
0.0
 11
55.19999864126976
 21
77.60000101175727
 31
0.0
  0
LINE
  5
202
330
8E
100
AcDbEntity
  8
0
100
AcDbLine
 10
63.09999864127064
 20
65.40000101175826
 30
0.0
 11
63.09999864127064
 21
58.30000101175731
 31
0.0
  0
LINE
  5
203
330
8E
100
AcDbEntity
  8
0
100
AcDbLine
 10
62.79999864127067
 20
58.30000101175731
 30
0.0
 11
63.09999864127064
 21
58.30000101175731
 31
0.0
  0
LINE
  5
204
330
8E
100
AcDbEntity
  8
0
100
AcDbLine
 10
62.79999864127067
 20
50.91000101175831
 30
0.0
 11
63.09999864127064
 21
50.91000101175831
 31
0.0
  0
LINE
  5
205
330
8E
100
AcDbEntity
  8
0
100
AcDbLine
 10
62.79999864127067
 20
49.64000101175827
 30
0.0
 11
63.09999864127064
 21
49.64000101175827
 31
0.0
  0
LINE
  5
206
330
8E
100
AcDbEntity
  8
0
100
AcDbLine
 10
62.79999864127067
 20
53.45000101175831
 30
0.0
 11
63.09999864127064
 21
53.45000101175831
 31
0.0
  0
LINE
  5
207
330
8E
100
AcDbEntity
  8
0
100
AcDbLine
 10
62.79999864127067
 20
52.18000101175829
 30
0.0
 11
63.09999864127064
 21
52.18000101175835
 31
0.0
  0
LINE
  5
208
330
8E
100
AcDbEntity
  8
0
100
AcDbLine
 10
62.79999864127067
 20
50.91000101175831
 30
0.0
 11
63.09999864127064
 21
50.91000101175831
 31
0.0
  0
LINE
  5
209
330
8E
100
AcDbEntity
  8
0
100
AcDbLine
 10
62.79999864127067
 20
54.72000101175729
 30
0.0
 11
63.09999864127064
 21
54.72000101175729
 31
0.0
  0
LINE
  5
20A
330
8E
100
AcDbEntity
  8
0
100
AcDbLine
 10
62.79999864127067
 20
53.45000101175831
 30
0.0
 11
63.09999864127064
 21
53.45000101175831
 31
0.0
  0
LINE
  5
20B
330
8E
100
AcDbEntity
  8
0
100
AcDbLine
 10
62.79999864127067
 20
48.37000101175829
 30
0.0
 11
63.09999864127064
 21
48.37000101175829
 31
0.0
  0
LINE
  5
20C
330
8E
100
AcDbEntity
  8
0
100
AcDbLine
 10
62.79999864127067
 20
47.10000101175831
 30
0.0
 11
63.09999864127064
 21
47.10000101175831
 31
0.0
  0
ARC
  5
20D
330
8E
100
AcDbEntity
  8
0
100
AcDbCircle
 10
62.79999864127067
 20
65.40000101175826
 30
0.0
 40
0.3
100
AcDbArc
 50
0.0
 51
90.0
  0
LINE
  5
20E
330
8E
100
AcDbEntity
  8
0
100
AcDbLine
 10
63.09999864126972
 20
68.70000101175732
 30
0.0
 11
63.09999864126972
 21
77.10000101175729
 31
0.0
  0
LINE
  5
20F
330
8E
100
AcDbEntity
  8
0
100
AcDbLine
 10
63.09999864126972
 20
77.60000101175727
 30
0.0
 11
63.09999864126972
 21
82.60000101175727
 31
0.0
  0
LINE
  5
210
330
8E
100
AcDbEntity
  8
0
100
AcDbLine
 10
63.99999876318871
 20
103.1000008524131
 30
0.0
 11
52.59999876318772
 21
103.1000008524131
 31
0.0
  0
LINE
  5
211
330
8E
100
AcDbEntity
  8
0
100
AcDbLine
 10
63.99999876318871
 20
105.1000008524132
 30
0.0
 11
52.59999876318772
 21
105.1000008524132
 31
0.0
  0
LINE
  5
212
330
8E
100
AcDbEntity
  8
0
100
AcDbLine
 10
54.34999864126972
 20
105.6000010117569
 30
0.0
 11
62.84999864126972
 21
105.6000010117569
 31
0.0
  0
LINE
  5
213
330
8E
100
AcDbEntity
  8
0
100
AcDbLine
 10
63.09999864126972
 20
102.6000010117569
 30
0.0
 11
55.19999864126976
 21
102.6000010117569
 31
0.0
  0
LINE
  5
214
330
8E
100
AcDbEntity
  8
0
100
AcDbLine
 10
55.19999864126976
 20
97.60000101175727
 30
0.0
 11
63.09999864126972
 21
97.60000101175727
 31
0.0
  0
LINE
  5
215
330
8E
100
AcDbEntity
  8
0
100
AcDbLine
 10
63.09999864127064
 20
97.10000101175728
 30
0.0
 11
50.29999864126978
 21
97.10000101175728
 31
0.0
  0
LINE
  5
216
330
8E
100
AcDbEntity
  8
0
100
AcDbLine
 10
52.59999876318772
 20
98.60000085241338
 30
0.0
 11
52.59999876318772
 21
103.1000008524131
 31
0.0
  0
CIRCLE
  5
217
330
8E
100
AcDbEntity
  8
0
100
AcDbCircle
 10
56.59999864127065
 20
90.10000101175727
 30
0.0
 40
5.5
  0
LINE
  5
218
330
8E
100
AcDbEntity
  8
0
100
AcDbLine
 10
52.59999876318772
 20
98.60000085241338
 30
0.0
 11
49.19999876318764
 21
98.60000085241338
 31
0.0
  0
LINE
  5
219
330
8E
100
AcDbEntity
  8
0
100
AcDbLine
 10
58.14999864126968
 20
101.6000010117572
 30
0.0
 11
57.14999864126968
 21
101.6000010117572
 31
0.0
  0
LINE
  5
21A
330
8E
100
AcDbEntity
  8
0
100
AcDbLine
 10
62.14999864126968
 20
101.6000010117572
 30
0.0
 11
56.14999864126968
 21
101.6000010117572
 31
0.0
  0
LINE
  5
21B
330
8E
100
AcDbEntity
  8
0
100
AcDbLine
 10
57.14999864126968
 20
98.60000101175728
 30
0.0
 11
58.14999864126968
 21
98.60000101175728
 31
0.0
  0
LINE
  5
21C
330
8E
100
AcDbEntity
  8
0
100
AcDbLine
 10
56.14999864126968
 20
98.60000101175728
 30
0.0
 11
62.14999864126968
 21
98.60000101175728
 31
0.0
  0
LINE
  5
21D
330
8E
100
AcDbEntity
  8
0
100
AcDbLine
 10
62.14999864126968
 20
98.60000101175728
 30
0.0
 11
62.14999864126968
 21
101.6000010117572
 31
0.0
  0
LINE
  5
21E
330
8E
100
AcDbEntity
  8
0
100
AcDbLine
 10
58.94999864126976
 20
98.60000101175728
 30
0.0
 11
58.94999864126976
 21
101.6000010117572
 31
0.0
  0
LINE
  5
21F
330
8E
100
AcDbEntity
  8
0
100
AcDbLine
 10
58.14999864126968
 20
98.60000101175728
 30
0.0
 11
58.14999864126968
 21
101.6000010117572
 31
0.0
  0
LINE
  5
220
330
8E
100
AcDbEntity
  8
0
100
AcDbLine
 10
57.14999864126968
 20
101.6000010117572
 30
0.0
 11
57.14999864126968
 21
98.60000101175728
 31
0.0
  0
LINE
  5
221
330
8E
100
AcDbEntity
  8
0
100
AcDbLine
 10
56.14999864126968
 20
101.6000010117572
 30
0.0
 11
56.14999864126968
 21
98.60000101175728
 31
0.0
  0
LINE
  5
222
330
8E
100
AcDbEntity
  8
0
100
AcDbLine
 10
55.19999864126976
 20
102.6000010117569
 30
0.0
 11
55.19999864126976
 21
97.60000101175727
 31
0.0
  0
LINE
  5
223
330
8E
100
AcDbEntity
  8
0
100
AcDbLine
 10
60.59999864126972
 20
111.7000010117572
 30
0.0
 11
61.74999864126971
 21
111.7000010117572
 31
0.0
  0
LINE
  5
224
330
8E
100
AcDbEntity
  8
0
100
AcDbLine
 10
60.59999864126972
 20
108.8000002780668
 30
0.0
 11
60.59999864126972
 21
110.8000002780668
 31
0.0
  0
LINE
  5
225
330
8E
100
AcDbEntity
  8
0
100
AcDbLine
 10
60.59999864126972
 20
108.8000002780668
 30
0.0
 11
60.59999864126972
 21
113.7399886269404
 31
0.0
  0
LINE
  5
226
330
8E
100
AcDbEntity
  8
0
100
AcDbLine
 10
60.59999864126972
 20
105.6000010117569
 30
0.0
 11
60.59999864126972
 21
108.8000002780668
 31
0.0
  0
LINE
  5
227
330
8E
100
AcDbEntity
  8
0
100
AcDbLine
 10
55.44999864126975
 20
111.7000010117572
 30
0.0
 11
56.59999864126972
 21
111.7000010117572
 31
0.0
  0
LINE
  5
228
330
8E
100
AcDbEntity
  8
0
100
AcDbLine
 10
56.59999864126972
 20
113.7399886269404
 30
0.0
 11
56.59999864126972
 21
108.8000002780668
 31
0.0
  0
LINE
  5
229
330
8E
100
AcDbEntity
  8
0
100
AcDbLine
 10
56.59999864126972
 20
108.8000002780668
 30
0.0
 11
56.59999864126972
 21
105.6000010117569
 31
0.0
  0
LINE
  5
22A
330
8E
100
AcDbEntity
  8
0
100
AcDbLine
 10
60.59999864126972
 20
111.8000002780668
 30
0.0
 11
56.59999864126972
 21
111.8000002780668
 31
0.0
  0
LINE
  5
22B
330
8E
100
AcDbEntity
  8
0
100
AcDbLine
 10
60.59999864126972
 20
111.3000002780667
 30
0.0
 11
56.59999864126972
 21
111.3000002780667
 31
0.0
  0
LINE
  5
22C
330
8E
100
AcDbEntity
  8
0
100
AcDbLine
 10
60.59999864126972
 20
112.3000002780667
 30
0.0
 11
56.59999864126972
 21
112.3000002780667
 31
0.0
  0
LINE
  5
22D
330
8E
100
AcDbEntity
  8
0
100
AcDbLine
 10
60.59999864126972
 20
109.8000002780668
 30
0.0
 11
56.59999864126972
 21
109.8000002780668
 31
0.0
  0
LINE
  5
22E
330
8E
100
AcDbEntity
  8
0
100
AcDbLine
 10
60.59999864126972
 20
111.3000002780667
 30
0.0
 11
56.59999864126972
 21
111.3000002780667
 31
0.0
  0
LINE
  5
22F
330
8E
100
AcDbEntity
  8
0
100
AcDbLine
 10
60.59999864126972
 20
110.3000002780667
 30
0.0
 11
56.59999864126972
 21
110.3000002780667
 31
0.0
  0
LINE
  5
230
330
8E
100
AcDbEntity
  8
0
100
AcDbLine
 10
60.59999864126972
 20
110.8000002780668
 30
0.0
 11
56.59999864126972
 21
110.8000002780668
 31
0.0
  0
LINE
  5
231
330
8E
100
AcDbEntity
  8
0
100
AcDbLine
 10
60.59999864126972
 20
108.8000002780668
 30
0.0
 11
56.59999864126972
 21
108.8000002780668
 31
0.0
  0
LINE
  5
232
330
8E
100
AcDbEntity
  8
0
100
AcDbLine
 10
56.59999864126972
 20
108.8000002780668
 30
0.0
 11
60.59999864126972
 21
108.8000002780668
 31
0.0
  0
LINE
  5
233
330
8E
100
AcDbEntity
  8
0
100
AcDbLine
 10
60.59999864126972
 20
113.7399886269404
 30
0.0
 11
56.59999864126972
 21
113.7399886269404
 31
0.0
  0
LINE
  5
234
330
8E
100
AcDbEntity
  8
0
100
AcDbLine
 10
56.59999864126972
 20
105.6000010117569
 30
0.0
 11
60.59999864126972
 21
105.6000010117569
 31
0.0
  0
LINE
  5
235
330
8E
100
AcDbEntity
  8
0
100
AcDbLine
 10
63.09999864127064
 20
91.20000101175731
 30
0.0
 11
63.09999864127064
 21
97.10000101175728
 31
0.0
  0
LINE
  5
236
330
8E
100
AcDbEntity
  8
0
100
AcDbLine
 10
63.09999864126972
 20
97.60000101175727
 30
0.0
 11
63.09999864126972
 21
102.6000010117569
 31
0.0
  0
LINE
  5
237
330
8E
100
AcDbEntity
  8
0
100
AcDbLine
 10
63.09999864127064
 20
120.1900010117582
 30
0.0
 11
62.84999864126972
 21
120.1900010117582
 31
0.0
  0
LINE
  5
238
330
8E
100
AcDbEntity
  8
0
100
AcDbLine
 10
63.09999864127064
 20
121.4600010117582
 30
0.0
 11
62.84999864126972
 21
121.4600010117582
 31
0.0
  0
LINE
  5
239
330
8E
100
AcDbEntity
  8
0
100
AcDbLine
 10
63.09999864127064
 20
120.6900010117581
 30
0.0
 11
62.84999864126972
 21
120.6900010117581
 31
0.0
  0
LINE
  5
23A
330
8E
100
AcDbEntity
  8
0
100
AcDbLine
 10
63.09999864127064
 20
119.4200010117581
 30
0.0
 11
62.84999864126972
 21
119.4200010117581
 31
0.0
  0
LINE
  5
23B
330
8E
100
AcDbEntity
  8
0
100
AcDbLine
 10
63.09999864127064
 20
118.9200010117581
 30
0.0
 11
62.84999864126972
 21
118.9200010117581
 31
0.0
  0
LINE
  5
23C
330
8E
100
AcDbEntity
  8
0
100
AcDbLine
 10
63.09999864127064
 20
118.1500010117573
 30
0.0
 11
62.84999864126972
 21
118.1500010117572
 31
0.0
  0
LINE
  5
23D
330
8E
100
AcDbEntity
  8
0
100
AcDbLine
 10
63.09999864127064
 20
117.650001011758
 30
0.0
 11
62.84999864126972
 21
117.650001011758
 31
0.0
  0
LINE
  5
23E
330
8E
100
AcDbEntity
  8
0
100
AcDbLine
 10
63.09999864127064
 20
116.3800010117582
 30
0.0
 11
62.84999864126972
 21
116.3800010117582
 31
0.0
  0
LINE
  5
23F
330
8E
100
AcDbEntity
  8
0
100
AcDbLine
 10
63.09999864127064
 20
116.8800010117583
 30
0.0
 11
62.84999864126972
 21
116.8800010117581
 31
0.0
  0
LINE
  5
240
330
8E
100
AcDbEntity
  8
0
100
AcDbLine
 10
63.09999864127064
 20
116.8800010117583
 30
0.0
 11
62.84999864126972
 21
116.8800010117581
 31
0.0
  0
LINE
  5
241
330
8E
100
AcDbEntity
  8
0
100
AcDbLine
 10
63.09999864127064
 20
116.3800010117592
 30
0.0
 11
62.84999864126972
 21
116.3800010117593
 31
0.0
  0
LINE
  5
242
330
8E
100
AcDbEntity
  8
0
100
AcDbLine
 10
63.09999864127064
 20
115.1100010117592
 30
0.0
 11
62.84999864126972
 21
115.1100010117592
 31
0.0
  0
LINE
  5
243
330
8E
100
AcDbEntity
  8
0
100
AcDbLine
 10
63.09999864127064
 20
115.6100010117592
 30
0.0
 11
62.84999864126972
 21
115.6100010117592
 31
0.0
  0
LINE
  5
244
330
8E
100
AcDbEntity
  8
0
100
AcDbLine
 10
62.84999864126972
 20
111.7000010117572
 30
0.0
 11
63.09999864126972
 21
111.7000010117572
 31
0.0
  0
LINE
  5
245
330
8E
100
AcDbEntity
  8
0
100
AcDbLine
 10
62.84999864126972
 20
105.6000010117569
 30
0.0
 11
63.09999864126972
 21
105.6000010117569
 31
0.0
  0
LINE
  5
246
330
8E
100
AcDbEntity
  8
0
100
AcDbLine
 10
63.09999864126972
 20
105.6000010117569
 30
0.0
 11
63.09999864126972
 21
111.7000010117572
 31
0.0
  0
LINE
  5
247
330
8E
100
AcDbEntity
  8
0
100
AcDbLine
 10
63.09999864127064
 20
163.4000010117571
 30
0.0
 11
63.09999864127064
 21
156.2800010117573
 31
0.0
  0
CIRCLE
  5
248
330
8E
100
AcDbEntity
  8
0
100
AcDbCircle
 10
58.29999864127067
 20
158.9300010117583
 30
0.0
 40
1.399999999999999
  0
LINE
  5
249
330
8E
100
AcDbEntity
  8
0
100
AcDbLine
 10
53.69999864127078
 20
184.5200010117573
 30
0.0
 11
53.69999864127078
 21
157.0000010117573
 31
0.0
  0
LINE
  5
24A
330
8E
100
AcDbEntity
  8
0
100
AcDbLine
 10
62.79999864127067
 20
156.0000010117573
 30
0.0
 11
62.79999864127067
 21
185.5000010117582
 31
0.0
  0
LINE
  5
24B
330
8E
100
AcDbEntity
  8
0
100
AcDbLine
 10
63.99999876318871
 20
155.0000008524133
 30
0.0
 11
63.99999876318871
 21
186.3000008524134
 31
0.0
  0
LINE
  5
24C
330
8E
100
AcDbEntity
  8
0
100
AcDbLine
 10
52.59999876318772
 20
155.0000008524133
 30
0.0
 11
52.59999876318772
 21
186.3000008524134
 31
0.0
  0
LINE
  5
24D
330
8E
100
AcDbEntity
  8
0
100
AcDbLine
 10
63.09999864127064
 20
186.3000008524134
 30
0.0
 11
63.09999864127064
 21
155.0000008524133
 31
0.0
  0
LINE
  5
24E
330
8E
100
AcDbEntity
  8
0
100
AcDbLine
 10
54.49999864127072
 20
156.0000010117573
 30
0.0
 11
62.79999864127067
 21
156.0000010117573
 31
0.0
  0
LINE
  5
24F
330
8E
100
AcDbEntity
  8
0
100
AcDbLine
 10
53.69999864127078
 20
157.0000010117573
 30
0.0
 11
62.79999864127067
 21
157.0000010117573
 31
0.0
  0
LINE
  5
250
330
8E
100
AcDbEntity
  8
0
100
AcDbLine
 10
63.99999876318871
 20
155.0000008524133
 30
0.0
 11
52.59999876318772
 21
155.0000008524133
 31
0.0
  0
LINE
  5
251
330
8E
100
AcDbEntity
  8
0
100
AcDbLine
 10
63.99999876318871
 20
151.2000008524131
 30
0.0
 11
52.59999876318772
 21
151.2000008524131
 31
0.0
  0
LINE
  5
252
330
8E
100
AcDbEntity
  8
0
100
AcDbLine
 10
63.09999864126972
 20
149.2500010117573
 30
0.0
 11
54.34999864126972
 21
149.2500010117573
 31
0.0
  0
ARC
  5
253
330
8E
100
AcDbEntity
  8
0
100
AcDbCircle
 10
54.49999864127072
 20
156.5000010117573
 30
0.0
 40
0.5
100
AcDbArc
 50
180.0
 51
270.0
  0
LINE
  5
254
330
8E
100
AcDbEntity
  8
0
100
AcDbLine
 10
53.99999864127074
 20
157.0000010117573
 30
0.0
 11
53.99999864127074
 21
156.4800010117572
 31
0.0
  0
LINE
  5
255
330
8E
100
AcDbEntity
  8
0
100
AcDbLine
 10
60.72499864126974
 20
146.0500017454478
 30
0.0
 11
60.72499864126974
 21
149.2500010117573
 31
0.0
  0
LINE
  5
256
330
8E
100
AcDbEntity
  8
0
100
AcDbLine
 10
61.74999864126971
 20
143.1500010117568
 30
0.0
 11
60.72499864126974
 21
143.1500010117568
 31
0.0
  0
LINE
  5
257
330
8E
100
AcDbEntity
  8
0
100
AcDbLine
 10
60.72499864126974
 20
141.1100133965742
 30
0.0
 11
60.72499864126974
 21
146.0500017454478
 31
0.0
  0
LINE
  5
258
330
8E
100
AcDbEntity
  8
0
100
AcDbLine
 10
56.72499864126972
 20
149.2500010117573
 30
0.0
 11
56.72499864126972
 21
146.0500017454478
 31
0.0
  0
LINE
  5
259
330
8E
100
AcDbEntity
  8
0
100
AcDbLine
 10
56.72499864126972
 20
146.0500017454478
 30
0.0
 11
56.72499864126972
 21
144.0500017454478
 31
0.0
  0
LINE
  5
25A
330
8E
100
AcDbEntity
  8
0
100
AcDbLine
 10
56.72499864126972
 20
143.1500010117568
 30
0.0
 11
55.44999864126975
 21
143.1500010117568
 31
0.0
  0
LINE
  5
25B
330
8E
100
AcDbEntity
  8
0
100
AcDbLine
 10
56.72499864126972
 20
146.0500017454478
 30
0.0
 11
56.72499864126972
 21
141.1100133965742
 31
0.0
  0
LINE
  5
25C
330
8E
100
AcDbEntity
  8
0
100
AcDbLine
 10
56.72499864126972
 20
144.0500017454478
 30
0.0
 11
60.72499864126974
 21
144.0500017454478
 31
0.0
  0
LINE
  5
25D
330
8E
100
AcDbEntity
  8
0
100
AcDbLine
 10
56.72499864126972
 20
144.5500017454478
 30
0.0
 11
60.72499864126974
 21
144.5500017454478
 31
0.0
  0
LINE
  5
25E
330
8E
100
AcDbEntity
  8
0
100
AcDbLine
 10
56.72499864126972
 20
143.5500017454478
 30
0.0
 11
60.72499864126974
 21
143.5500017454478
 31
0.0
  0
LINE
  5
25F
330
8E
100
AcDbEntity
  8
0
100
AcDbLine
 10
56.72499864126972
 20
145.0500017454478
 30
0.0
 11
60.72499864126974
 21
145.0500017454478
 31
0.0
  0
LINE
  5
260
330
8E
100
AcDbEntity
  8
0
100
AcDbLine
 10
56.72499864126972
 20
143.5500017454478
 30
0.0
 11
60.72499864126974
 21
143.5500017454478
 31
0.0
  0
LINE
  5
261
330
8E
100
AcDbEntity
  8
0
100
AcDbLine
 10
60.72499864126974
 20
149.2500010117573
 30
0.0
 11
56.72499864126972
 21
149.2500010117573
 31
0.0
  0
LINE
  5
262
330
8E
100
AcDbEntity
  8
0
100
AcDbLine
 10
56.72499864126972
 20
146.0500017454478
 30
0.0
 11
60.72499864126974
 21
146.0500017454478
 31
0.0
  0
LINE
  5
263
330
8E
100
AcDbEntity
  8
0
100
AcDbLine
 10
60.72499864126974
 20
146.0500017454478
 30
0.0
 11
56.72499864126972
 21
146.0500017454478
 31
0.0
  0
LINE
  5
264
330
8E
100
AcDbEntity
  8
0
100
AcDbLine
 10
56.72499864126972
 20
142.5500017454478
 30
0.0
 11
60.72499864126974
 21
142.5500017454478
 31
0.0
  0
LINE
  5
265
330
8E
100
AcDbEntity
  8
0
100
AcDbLine
 10
56.72499864126972
 20
143.0500017454478
 30
0.0
 11
60.72499864126974
 21
143.0500017454478
 31
0.0
  0
LINE
  5
266
330
8E
100
AcDbEntity
  8
0
100
AcDbLine
 10
56.72499864126972
 20
141.1100133965742
 30
0.0
 11
60.72499864126974
 21
141.1100133965742
 31
0.0
  0
LINE
  5
267
330
8E
100
AcDbEntity
  8
0
100
AcDbLine
 10
63.09999864127064
 20
139.7400010117572
 30
0.0
 11
62.84999864126972
 21
139.7400010117572
 31
0.0
  0
LINE
  5
268
330
8E
100
AcDbEntity
  8
0
100
AcDbLine
 10
63.09999864127064
 20
139.2400010117573
 30
0.0
 11
62.84999864126972
 21
139.2400010117573
 31
0.0
  0
LINE
  5
269
330
8E
100
AcDbEntity
  8
0
100
AcDbLine
 10
63.09999864127064
 20
138.4700010117571
 30
0.0
 11
62.84999864126972
 21
138.4700010117572
 31
0.0
  0
LINE
  5
26A
330
8E
100
AcDbEntity
  8
0
100
AcDbLine
 10
63.09999864127064
 20
137.9700010117572
 30
0.0
 11
62.84999864126972
 21
137.9700010117572
 31
0.0
  0
LINE
  5
26B
330
8E
100
AcDbEntity
  8
0
100
AcDbLine
 10
63.09999864127064
 20
137.2000010117583
 30
0.0
 11
62.84999864126972
 21
137.2000010117583
 31
0.0
  0
LINE
  5
26C
330
8E
100
AcDbEntity
  8
0
100
AcDbLine
 10
63.09999864127064
 20
136.7000010117576
 30
0.0
 11
62.84999864126972
 21
136.7000010117576
 31
0.0
  0
LINE
  5
26D
330
8E
100
AcDbEntity
  8
0
100
AcDbLine
 10
63.09999864127064
 20
133.3900010117569
 30
0.0
 11
62.84999864126972
 21
133.3900010117569
 31
0.0
  0
LINE
  5
26E
330
8E
100
AcDbEntity
  8
0
100
AcDbLine
 10
63.09999864127064
 20
132.890001011758
 30
0.0
 11
62.84999864126972
 21
132.890001011758
 31
0.0
  0
LINE
  5
26F
330
8E
100
AcDbEntity
  8
0
100
AcDbLine
 10
63.09999864127064
 20
135.4300010117573
 30
0.0
 11
62.84999864126972
 21
135.4300010117573
 31
0.0
  0
LINE
  5
270
330
8E
100
AcDbEntity
  8
0
100
AcDbLine
 10
63.09999864127064
 20
134.6600010117572
 30
0.0
 11
62.84999864126972
 21
134.6600010117572
 31
0.0
  0
LINE
  5
271
330
8E
100
AcDbEntity
  8
0
100
AcDbLine
 10
63.09999864127064
 20
134.1600010117572
 30
0.0
 11
62.84999864126972
 21
134.1600010117572
 31
0.0
  0
LINE
  5
272
330
8E
100
AcDbEntity
  8
0
100
AcDbLine
 10
63.09999864127064
 20
135.930001011758
 30
0.0
 11
62.84999864126972
 21
135.9300010117582
 31
0.0
  0
LINE
  5
273
330
8E
100
AcDbEntity
  8
0
100
AcDbLine
 10
63.09999864127064
 20
131.6200010117581
 30
0.0
 11
62.84999864126972
 21
131.6200010117583
 31
0.0
  0
LINE
  5
274
330
8E
100
AcDbEntity
  8
0
100
AcDbLine
 10
63.09999864127064
 20
132.120001011758
 30
0.0
 11
62.84999864126972
 21
132.1200010117582
 31
0.0
  0
LINE
  5
275
330
8E
100
AcDbEntity
  8
0
100
AcDbLine
 10
63.09999864127064
 20
130.8500010117581
 30
0.0
 11
62.84999864126972
 21
130.8500010117581
 31
0.0
  0
LINE
  5
276
330
8E
100
AcDbEntity
  8
0
100
AcDbLine
 10
63.09999864127064
 20
130.3500010117567
 30
0.0
 11
62.84999864126972
 21
130.3500010117567
 31
0.0
  0
LINE
  5
277
330
8E
100
AcDbEntity
  8
0
100
AcDbLine
 10
63.09999864127064
 20
129.5800010117573
 30
0.0
 11
62.84999864126972
 21
129.5800010117573
 31
0.0
  0
LINE
  5
278
330
8E
100
AcDbEntity
  8
0
100
AcDbLine
 10
63.09999864127064
 20
129.080001011758
 30
0.0
 11
62.84999864126972
 21
129.080001011758
 31
0.0
  0
LINE
  5
279
330
8E
100
AcDbEntity
  8
0
100
AcDbLine
 10
63.09999864127064
 20
127.8100010117581
 30
0.0
 11
62.84999864126972
 21
127.8100010117581
 31
0.0
  0
LINE
  5
27A
330
8E
100
AcDbEntity
  8
0
100
AcDbLine
 10
63.09999864127064
 20
128.3100010117582
 30
0.0
 11
62.84999864126972
 21
128.3100010117582
 31
0.0
  0
LINE
  5
27B
330
8E
100
AcDbEntity
  8
0
100
AcDbLine
 10
63.09999864127064
 20
128.3100010117582
 30
0.0
 11
62.84999864126972
 21
128.3100010117582
 31
0.0
  0
LINE
  5
27C
330
8E
100
AcDbEntity
  8
0
100
AcDbLine
 10
63.09999864127064
 20
127.8100010117573
 30
0.0
 11
62.84999864126972
 21
127.8100010117573
 31
0.0
  0
LINE
  5
27D
330
8E
100
AcDbEntity
  8
0
100
AcDbLine
 10
63.09999864127064
 20
127.0400010117572
 30
0.0
 11
62.84999864126972
 21
127.0400010117572
 31
0.0
  0
LINE
  5
27E
330
8E
100
AcDbEntity
  8
0
100
AcDbLine
 10
63.09999864127064
 20
126.540001011758
 30
0.0
 11
62.84999864126972
 21
126.540001011758
 31
0.0
  0
LINE
  5
27F
330
8E
100
AcDbEntity
  8
0
100
AcDbLine
 10
63.09999864127064
 20
125.7700010117581
 30
0.0
 11
62.84999864126972
 21
125.7700010117581
 31
0.0
  0
LINE
  5
280
330
8E
100
AcDbEntity
  8
0
100
AcDbLine
 10
63.09999864127064
 20
121.9600010117583
 30
0.0
 11
62.84999864126972
 21
121.9600010117583
 31
0.0
  0
LINE
  5
281
330
8E
100
AcDbEntity
  8
0
100
AcDbLine
 10
63.09999864127064
 20
124.0000010117582
 30
0.0
 11
62.84999864126972
 21
124.0000010117582
 31
0.0
  0
LINE
  5
282
330
8E
100
AcDbEntity
  8
0
100
AcDbLine
 10
63.09999864127064
 20
123.2300010117581
 30
0.0
 11
62.84999864126972
 21
123.2300010117581
 31
0.0
  0
LINE
  5
283
330
8E
100
AcDbEntity
  8
0
100
AcDbLine
 10
63.09999864127064
 20
122.7300010117573
 30
0.0
 11
62.84999864126972
 21
122.7300010117569
 31
0.0
  0
LINE
  5
284
330
8E
100
AcDbEntity
  8
0
100
AcDbLine
 10
63.09999864127064
 20
125.2700010117582
 30
0.0
 11
62.84999864126972
 21
125.2700010117582
 31
0.0
  0
LINE
  5
285
330
8E
100
AcDbEntity
  8
0
100
AcDbLine
 10
63.09999864127064
 20
124.5000010117581
 30
0.0
 11
62.84999864126972
 21
124.5000010117581
 31
0.0
  0
ARC
  5
286
330
8E
100
AcDbEntity
  8
0
100
AcDbCircle
 10
62.79999864127067
 20
156.3000010117573
 30
0.0
 40
0.3
100
AcDbArc
 50
270.0
 51
0.0
  0
LINE
  5
287
330
8E
100
AcDbEntity
  8
0
100
AcDbLine
 10
63.09999864126972
 20
143.1500010117568
 30
0.0
 11
62.84999864126972
 21
143.1500010117568
 31
0.0
  0
LINE
  5
288
330
8E
100
AcDbEntity
  8
0
100
AcDbLine
 10
63.09999864126972
 20
143.1500010117568
 30
0.0
 11
63.09999864126972
 21
149.2500010117573
 31
0.0
  0
LINE
  5
289
330
8E
100
AcDbEntity
  8
0
100
AcDbLine
 10
63.99999876318871
 20
186.3000008524134
 30
0.0
 11
52.59999876318772
 21
186.3000008524134
 31
0.0
  0
LINE
  5
28A
330
8E
100
AcDbEntity
  8
0
100
AcDbLine
 10
54.49999864127072
 20
185.5000010117582
 30
0.0
 11
62.79999864127067
 21
185.5000010117582
 31
0.0
  0
LINE
  5
28B
330
8E
100
AcDbEntity
  8
0
100
AcDbLine
 10
53.69999864127078
 20
184.5000010117573
 30
0.0
 11
62.79999864127067
 21
184.5000010117573
 31
0.0
  0
LINE
  5
28C
330
8E
100
AcDbEntity
  8
0
100
AcDbLine
 10
61.44999864127078
 20
178.1000010117583
 30
0.0
 11
61.44999864127078
 21
180.5000010117582
 31
0.0
  0
LINE
  5
28D
330
8E
100
AcDbEntity
  8
0
100
AcDbLine
 10
55.14999864127071
 20
180.5000010117582
 30
0.0
 11
55.14999864127071
 21
178.1000010117583
 31
0.0
  0
ARC
  5
28E
330
8E
100
AcDbEntity
  8
0
100
AcDbCircle
 10
59.44999864127078
 20
174.433753773516
 30
0.0
 40
2.0
100
AcDbArc
 50
0.0
 51
74.99999999999841
  0
ARC
  5
28F
330
8E
100
AcDbEntity
  8
0
100
AcDbCircle
 10
57.14999864127071
 20
175.050036916108
 30
0.0
 40
2.0
100
AcDbArc
 50
74.99999999999841
 51
180.0
  0
LINE
  5
290
330
8E
100
AcDbEntity
  8
0
100
AcDbLine
 10
57.66763673147567
 20
176.9818885686861
 30
0.0
 11
59.96763673147576
 21
176.3656054260943
 31
0.0
  0
LINE
  5
291
330
8E
100
AcDbEntity
  8
0
100
AcDbLine
 10
59.89999864127071
 20
175.5200010117573
 30
0.0
 11
56.69999864127078
 21
175.5200010117573
 31
0.0
  0
LINE
  5
292
330
8E
100
AcDbEntity
  8
0
100
AcDbLine
 10
55.14999864127071
 20
178.1000010117583
 30
0.0
 11
61.44999864127078
 21
178.1000010117583
 31
0.0
  0
LINE
  5
293
330
8E
100
AcDbEntity
  8
0
100
AcDbLine
 10
61.44999864127078
 20
161.0000010117573
 30
0.0
 11
61.44999864127078
 21
163.4000010117571
 31
0.0
  0
ARC
  5
294
330
8E
100
AcDbEntity
  8
0
100
AcDbCircle
 10
59.44999864127078
 20
167.0652354083441
 30
0.0
 40
2.0
100
AcDbArc
 50
285.0000000000012
 51
0.0
  0
LINE
  5
295
330
8E
100
AcDbEntity
  8
0
100
AcDbLine
 10
55.14999864127071
 20
163.4000010117571
 30
0.0
 11
55.14999864127071
 21
161.0000010117573
 31
0.0
  0
ARC
  5
296
330
8E
100
AcDbEntity
  8
0
100
AcDbCircle
 10
57.14999864127071
 20
166.4489522657532
 30
0.0
 40
2.0
100
AcDbArc
 50
180.0
 51
285.0000000000012
  0
LINE
  5
297
330
8E
100
AcDbEntity
  8
0
100
AcDbLine
 10
56.69999864127078
 20
165.9800010117572
 30
0.0
 11
59.89999864127071
 21
165.9800010117572
 31
0.0
  0
LINE
  5
298
330
8E
100
AcDbEntity
  8
0
100
AcDbLine
 10
57.66763673147567
 20
164.5171006131743
 30
0.0
 11
59.96763673147576
 21
165.1333837557663
 31
0.0
  0
LINE
  5
299
330
8E
100
AcDbEntity
  8
0
100
AcDbLine
 10
55.14999864127071
 20
163.4000010117571
 30
0.0
 11
61.44999864127078
 21
163.4000010117571
 31
0.0
  0
LINE
  5
29A
330
8E
100
AcDbEntity
  8
0
100
AcDbLine
 10
55.14999864127071
 20
161.5000010117573
 30
0.0
 11
61.44999864127078
 21
161.5000010117573
 31
0.0
  0
LINE
  5
29B
330
8E
100
AcDbEntity
  8
0
100
AcDbLine
 10
55.14999864127071
 20
161.0000010117573
 30
0.0
 11
61.44999864127078
 21
161.0000010117573
 31
0.0
  0
LINE
  5
29C
330
8E
100
AcDbEntity
  8
0
100
AcDbLine
 10
61.44999864127078
 20
167.0652354083441
 30
0.0
 11
61.44999864127078
 21
174.433753773516
 31
0.0
  0
LINE
  5
29D
330
8E
100
AcDbEntity
  8
0
100
AcDbLine
 10
55.14999864127071
 20
175.050036916108
 30
0.0
 11
55.14999864127071
 21
166.4489522657532
 31
0.0
  0
LINE
  5
29E
330
8E
100
AcDbEntity
  8
0
100
AcDbLine
 10
56.69999864127078
 20
175.5200010117573
 30
0.0
 11
56.69999864127078
 21
165.9800010117572
 31
0.0
  0
LINE
  5
29F
330
8E
100
AcDbEntity
  8
0
100
AcDbLine
 10
59.89999864127071
 20
165.9800010117572
 30
0.0
 11
59.89999864127071
 21
175.5200010117573
 31
0.0
  0
ARC
  5
2A0
330
8E
100
AcDbEntity
  8
0
100
AcDbCircle
 10
54.49999864127072
 20
185.000001011758
 30
0.0
 40
0.5
100
AcDbArc
 50
90.0
 51
180.0
  0
LINE
  5
2A1
330
8E
100
AcDbEntity
  8
0
100
AcDbLine
 10
53.99999864127074
 20
185.0200010117573
 30
0.0
 11
53.99999864127074
 21
184.5200010117573
 31
0.0
  0
CIRCLE
  5
2A2
330
8E
100
AcDbEntity
  8
0
100
AcDbCircle
 10
58.29999864127067
 20
182.5700010117573
 30
0.0
 40
1.399999999999999
  0
LINE
  5
2A3
330
8E
100
AcDbEntity
  8
0
100
AcDbLine
 10
55.14999864127071
 20
180.0000010117573
 30
0.0
 11
61.44999864127078
 21
180.0000010117573
 31
0.0
  0
LINE
  5
2A4
330
8E
100
AcDbEntity
  8
0
100
AcDbLine
 10
55.14999864127071
 20
180.4800010117583
 30
0.0
 11
61.44999864127078
 21
180.4800010117583
 31
0.0
  0
LINE
  5
2A5
330
8E
100
AcDbEntity
  8
0
100
AcDbLine
 10
63.09999864127064
 20
185.2200010117572
 30
0.0
 11
63.09999864127064
 21
178.1000010117572
 31
0.0
  0
LINE
  5
2A6
330
8E
100
AcDbEntity
  8
0
100
AcDbLine
 10
62.79999864127067
 20
178.1000010117572
 30
0.0
 11
63.09999864127064
 21
178.1000010117572
 31
0.0
  0
LINE
  5
2A7
330
8E
100
AcDbEntity
  8
0
100
AcDbLine
 10
62.79999864127067
 20
174.5600010117573
 30
0.0
 11
63.09999864127064
 21
174.5600010117573
 31
0.0
  0
LINE
  5
2A8
330
8E
100
AcDbEntity
  8
0
100
AcDbLine
 10
62.79999864127067
 20
173.2900010117573
 30
0.0
 11
63.09999864127064
 21
173.2900010117573
 31
0.0
  0
LINE
  5
2A9
330
8E
100
AcDbEntity
  8
0
100
AcDbLine
 10
62.79999864127067
 20
173.2900010117573
 30
0.0
 11
63.09999864127064
 21
173.2900010117573
 31
0.0
  0
LINE
  5
2AA
330
8E
100
AcDbEntity
  8
0
100
AcDbLine
 10
62.79999864127067
 20
172.0200010117573
 30
0.0
 11
63.09999864127064
 21
172.0200010117573
 31
0.0
  0
LINE
  5
2AB
330
8E
100
AcDbEntity
  8
0
100
AcDbLine
 10
62.79999864127067
 20
172.0200010117573
 30
0.0
 11
63.09999864127064
 21
172.0200010117573
 31
0.0
  0
LINE
  5
2AC
330
8E
100
AcDbEntity
  8
0
100
AcDbLine
 10
62.79999864127067
 20
170.7500010117573
 30
0.0
 11
63.09999864127064
 21
170.7500010117573
 31
0.0
  0
LINE
  5
2AD
330
8E
100
AcDbEntity
  8
0
100
AcDbLine
 10
62.79999864127067
 20
170.7500010117573
 30
0.0
 11
63.09999864127064
 21
170.7500010117573
 31
0.0
  0
LINE
  5
2AE
330
8E
100
AcDbEntity
  8
0
100
AcDbLine
 10
62.79999864127067
 20
169.4800010117568
 30
0.0
 11
63.09999864127064
 21
169.4800010117568
 31
0.0
  0
LINE
  5
2AF
330
8E
100
AcDbEntity
  8
0
100
AcDbLine
 10
62.79999864127067
 20
169.4800010117568
 30
0.0
 11
63.09999864127064
 21
169.4800010117568
 31
0.0
  0
LINE
  5
2B0
330
8E
100
AcDbEntity
  8
0
100
AcDbLine
 10
62.79999864127067
 20
168.2100010117583
 30
0.0
 11
63.09999864127064
 21
168.2100010117583
 31
0.0
  0
LINE
  5
2B1
330
8E
100
AcDbEntity
  8
0
100
AcDbLine
 10
62.79999864127067
 20
166.9400010117583
 30
0.0
 11
63.09999864127064
 21
166.9400010117583
 31
0.0
  0
LINE
  5
2B2
330
8E
100
AcDbEntity
  8
0
100
AcDbLine
 10
62.79999864127067
 20
163.4000010117571
 30
0.0
 11
63.09999864127064
 21
163.4000010117571
 31
0.0
  0
ARC
  5
2B3
330
8E
100
AcDbEntity
  8
0
100
AcDbCircle
 10
62.79999864127067
 20
185.2000010117583
 30
0.0
 40
0.3
100
AcDbArc
 50
0.0
 51
90.0
  0
ARC
  5
2B4
330
8E
100
AcDbEntity
  8
0
100
AcDbCircle
 10
70.99999864127074
 20
199.500001011757
 30
0.0
 40
1.0
100
AcDbArc
 50
0.0
 51
90.0
  0
ARC
  5
2B5
330
8E
100
AcDbEntity
  8
0
100
AcDbCircle
 10
70.99999864127074
 20
199.500001011757
 30
0.0
 40
1.0
100
AcDbArc
 50
0.0
 51
90.0
  0
ENDBLK
  5
2B7
330
8E
100
AcDbEntity
  8
0
100
AcDbBlockEnd
  0
BLOCK
  5
421
330
2B8
100
AcDbEntity
  8
0
100
AcDbBlockBegin
  2
A$C58867D70
 70
     0
 10
0.0
 20
0.0
 30
0.0
  3
A$C58867D70
  1

  0
LINE
  5
2B9
330
2B8
100
AcDbEntity
  8
0
100
AcDbLine
 10
56.60000086032681
 20
135.6738143481891
 30
0.0
 11
56.60000086032681
 21
124.3738143481889
 31
0.0
  0
LINE
  5
2BA
330
2B8
100
AcDbEntity
  8
0
100
AcDbLine
 10
60.60000086032681
 20
124.3738143481889
 30
0.0
 11
60.60000086032681
 21
135.6738143481891
 31
0.0
  0
LINE
  5
2BB
330
2B8
100
AcDbEntity
  8
0
100
AcDbLine
 10
67.50000086032776
 20
50.00000026975714
 30
0.0
 11
48.50000086032776
 21
50.00000026975717
 31
0.0
  0
LINE
  5
2BC
330
2B8
100
AcDbEntity
  8
0
100
AcDbLine
 10
48.55277904648175
 20
102.0000002697571
 30
0.0
 11
67.44722267417279
 21
102.0000002697571
 31
0.0
  0
LINE
  5
2BD
330
2B8
100
AcDbEntity
  8
0
100
AcDbLine
 10
48.50000086032776
 20
92.00000026975715
 30
0.0
 11
67.50000086032776
 21
92.00000026975715
 31
0.0
  0
LINE
  5
2BE
330
2B8
100
AcDbEntity
  8
0
100
AcDbLine
 10
48.50000086032776
 20
90.00000026975717
 30
0.0
 11
67.50000086032776
 21
90.00000026975715
 31
0.0
  0
LINE
  5
2BF
330
2B8
100
AcDbEntity
  8
0
100
AcDbLine
 10
67.50000086032776
 20
52.00000026975715
 30
0.0
 11
48.50000086032776
 21
52.00000026975716
 31
0.0
  0
LINE
  5
2C0
330
2B8
100
AcDbEntity
  8
0
100
AcDbLine
 10
18.00000086032776
 20
5.000000269758174
 30
0.0
 11
72.00000086032777
 21
3.585960505021147
 31
0.0
  0
LINE
  5
2C1
330
2B8
100
AcDbEntity
  8
0
100
AcDbLine
 10
72.00000086032777
 20
3.585960505021147
 30
0.0
 11
19.00000086032775
 21
4.973814348189193
 31
0.0
  0
LINE
  5
2C2
330
2B8
100
AcDbEntity
  8
0
100
AcDbLine
 10
68.50000086032776
 20
48.97381434818919
 30
0.0
 11
47.50000086032776
 21
48.97381434818919
 31
0.0
  0
LINE
  5
2C3
330
2B8
100
AcDbEntity
  8
0
100
AcDbLine
 10
30.00000086032776
 20
21.97381434818919
 30
0.0
 11
72.00000086032777
 21
21.97381434818919
 31
0.0
  0
LINE
  5
2C4
330
2B8
100
AcDbEntity
  8
0
100
AcDbLine
 10
71.00000086032777
 20
42.97381434818919
 30
0.0
 11
30.00000086032776
 21
42.97381434818919
 31
0.0
  0
LINE
  5
2C5
330
2B8
100
AcDbEntity
  8
0
100
AcDbLine
 10
71.00000086032777
 20
40.97381434818919
 30
0.0
 11
30.00000086032776
 21
40.97381434818919
 31
0.0
  0
LINE
  5
2C6
330
2B8
100
AcDbEntity
  8
0
100
AcDbLine
 10
71.00000086032777
 20
35.97381434818919
 30
0.0
 11
30.00000086032776
 21
35.97381434818919
 31
0.0
  0
LINE
  5
2C7
330
2B8
100
AcDbEntity
  8
0
100
AcDbLine
 10
71.00000086032777
 20
33.97381434818919
 30
0.0
 11
30.00000086032776
 21
33.97381434818919
 31
0.0
  0
LINE
  5
2C8
330
2B8
100
AcDbEntity
  8
0
100
AcDbLine
 10
71.00000086032777
 20
28.97381434818919
 30
0.0
 11
30.00000086032776
 21
28.97381434818919
 31
0.0
  0
LINE
  5
2C9
330
2B8
100
AcDbEntity
  8
0
100
AcDbLine
 10
71.00000086032777
 20
26.97381434818919
 30
0.0
 11
30.00000086032776
 21
26.97381434818919
 31
0.0
  0
LINE
  5
2CA
330
2B8
100
AcDbEntity
  8
0
100
AcDbLine
 10
20.00000086032776
 20
120.9738143481889
 30
0.0
 11
72.00000086032777
 21
120.9738143481889
 31
0.0
  0
LINE
  5
2CB
330
2B8
100
AcDbEntity
  8
0
100
AcDbLine
 10
30.00000086032776
 20
103.9738143481889
 30
0.0
 11
72.00000086032777
 21
103.9738143481889
 31
0.0
  0
LINE
  5
2CC
330
2B8
100
AcDbEntity
  8
0
100
AcDbLine
 10
0.0000008603277593
 20
0.0000002697581891
 30
0.0
 11
72.00000086032777
 21
0.0000002697581749
 31
0.0
  0
LINE
  5
2CD
330
2B8
100
AcDbEntity
  8
0
100
AcDbLine
 10
0.0000008603277024
 20
79.00000026975819
 30
0.0
 11
0.0000008603277024
 21
54.00000026975819
 31
0.0
  0
LINE
  5
2CE
330
2B8
100
AcDbEntity
  8
0
100
AcDbLine
 10
48.50000086032776
 20
50.00000026975717
 30
0.0
 11
48.50000086032776
 21
92.00000026975715
 31
0.0
  0
LINE
  5
2CF
330
2B8
100
AcDbEntity
  8
0
100
AcDbLine
 10
19.00000086032775
 20
71.00000026975816
 30
0.0
 11
19.00000086032775
 21
33.00000026975817
 31
0.0
  0
LINE
  5
2D0
330
2B8
100
AcDbEntity
  8
0
100
AcDbLine
 10
20.00000086032776
 20
32.97381434819016
 30
0.0
 11
20.00000086032776
 21
70.97381434818919
 31
0.0
  0
LINE
  5
2D1
330
2B8
100
AcDbEntity
  8
0
100
AcDbLine
 10
30.00000086032776
 20
103.9738143481889
 30
0.0
 11
30.00000086032776
 21
21.97381434818919
 31
0.0
  0
ARC
  5
2D2
330
2B8
100
AcDbEntity
  8
0
100
AcDbCircle
 10
1.000000860327759
 20
56.05154104271015
 30
0.0
 40
1.0
100
AcDbArc
 50
93.03047684586102
 51
180.0
  0
LINE
  5
2D3
330
2B8
100
AcDbEntity
  8
0
100
AcDbLine
 10
18.00000086032776
 20
5.000000269758174
 30
0.0
 11
0.0000008603277593
 21
4.528653681512209
 31
0.0
  0
LINE
  5
2D4
330
2B8
100
AcDbEntity
  8
0
100
AcDbLine
 10
0.0000008603277593
 20
21.17551798640023
 30
0.0
 11
0.0000008603277593
 21
0.0000002697581891
 31
0.0
  0
LINE
  5
2D5
330
2B8
100
AcDbEntity
  8
0
100
AcDbLine
 10
0.1464474697343689
 20
53.64644687916491
 30
0.0
 11
4.0000008603277
 21
52.00000026975819
 31
0.0
  0
LINE
  5
2D6
330
2B8
100
AcDbEntity
  8
0
100
AcDbLine
 10
0.4738328822067503
 20
21.67483275377823
 30
0.0
 11
11.57850479469276
 21
22.2568039483782
 31
0.0
  0
LINE
  5
2D7
330
2B8
100
AcDbEntity
  8
0
100
AcDbLine
 10
0.9471337191877752
 20
29.05014259757923
 30
0.0
 11
11.57930157203878
 21
29.61302207214214
 31
0.0
  0
LINE
  5
2D8
330
2B8
100
AcDbEntity
  8
0
100
AcDbLine
 10
0.9471337191877752
 20
26.94985794193623
 30
0.0
 11
11.57930157203878
 21
26.38697846737318
 31
0.0
  0
LINE
  5
2D9
330
2B8
100
AcDbEntity
  8
0
100
AcDbLine
 10
0.9471337191877752
 20
54.9498579419362
 30
0.0
 11
11.57930157203878
 21
54.38697846737319
 31
0.0
  0
LINE
  5
2DA
330
2B8
100
AcDbEntity
  8
0
100
AcDbLine
 10
0.9471337191877752
 20
50.05014259757923
 30
0.0
 11
11.57930157203878
 21
50.61302207214215
 31
0.0
  0
LINE
  5
2DB
330
2B8
100
AcDbEntity
  8
0
100
AcDbLine
 10
0.9471337191877752
 20
47.9498579419362
 30
0.0
 11
11.57930157203878
 21
47.38697846737319
 31
0.0
  0
LINE
  5
2DC
330
2B8
100
AcDbEntity
  8
0
100
AcDbLine
 10
0.9471337191877752
 20
43.05014259757923
 30
0.0
 11
11.57930157203878
 21
43.61302207214214
 31
0.0
  0
LINE
  5
2DD
330
2B8
100
AcDbEntity
  8
0
100
AcDbLine
 10
0.9471337191877752
 20
40.94985794193621
 30
0.0
 11
11.57930157203878
 21
40.38697846737318
 31
0.0
  0
LINE
  5
2DE
330
2B8
100
AcDbEntity
  8
0
100
AcDbLine
 10
0.9471337191877752
 20
36.05014259757922
 30
0.0
 11
11.57930157203878
 21
36.61302207214213
 31
0.0
  0
LINE
  5
2DF
330
2B8
100
AcDbEntity
  8
0
100
AcDbLine
 10
0.9471337191877752
 20
33.94985794193623
 30
0.0
 11
11.57930157203878
 21
33.38697846737318
 31
0.0
  0
POINT
  5
2E0
330
2B8
100
AcDbEntity
  8
0
100
AcDbPoint
 10
0.0000008603277593
 20
21.65000026975816
 30
0.0
  0
ARC
  5
2E1
330
2B8
100
AcDbEntity
  8
0
100
AcDbCircle
 10
0.5000008603277593
 20
21.17551798640023
 30
0.0
 40
0.5
100
AcDbArc
 50
92.9999999999991
 51
180.0
  0
LINE
  5
2E2
330
2B8
100
AcDbEntity
  8
0
100
AcDbLine
 10
0.0000008603277593
 20
28.05154104271014
 30
0.0
 11
0.0000008603277593
 21
27.9484594968052
 31
0.0
  0
ARC
  5
2E3
330
2B8
100
AcDbEntity
  8
0
100
AcDbCircle
 10
1.000000860327759
 20
28.05154104271014
 30
0.0
 40
1.0
100
AcDbArc
 50
93.03047684586102
 51
180.0
  0
ARC
  5
2E4
330
2B8
100
AcDbEntity
  8
0
100
AcDbCircle
 10
1.000000860327759
 20
27.9484594968052
 30
0.0
 40
1.0
100
AcDbArc
 50
180.0
 51
266.9695231541389
  0
LINE
  5
2E5
330
2B8
100
AcDbEntity
  8
0
100
AcDbLine
 10
0.0000008603277593
 20
35.05154104271014
 30
0.0
 11
0.0000008603277593
 21
34.94845949680517
 31
0.0
  0
ARC
  5
2E6
330
2B8
100
AcDbEntity
  8
0
100
AcDbCircle
 10
1.000000860327759
 20
35.05154104271015
 30
0.0
 40
1.0
100
AcDbArc
 50
93.03047684586102
 51
180.0
  0
ARC
  5
2E7
330
2B8
100
AcDbEntity
  8
0
100
AcDbCircle
 10
1.000000860327759
 20
34.9484594968052
 30
0.0
 40
1.0
100
AcDbArc
 50
180.0
 51
266.9695231541389
  0
ARC
  5
2E8
330
2B8
100
AcDbEntity
  8
0
100
AcDbCircle
 10
0.5000008603277025
 20
54.00000026975819
 30
0.0
 40
0.5
100
AcDbArc
 50
180.0
 51
224.9999999999908
  0
LINE
  5
2E9
330
2B8
100
AcDbEntity
  8
0
100
AcDbLine
 10
0.0000008603277593
 20
42.05154104271015
 30
0.0
 11
0.0000008603277593
 21
41.94845949680519
 31
0.0
  0
ARC
  5
2EA
330
2B8
100
AcDbEntity
  8
0
100
AcDbCircle
 10
1.000000860327759
 20
42.05154104271015
 30
0.0
 40
1.0
100
AcDbArc
 50
93.03047684586102
 51
180.0
  0
ARC
  5
2EB
330
2B8
100
AcDbEntity
  8
0
100
AcDbCircle
 10
1.000000860327759
 20
41.94845949680519
 30
0.0
 40
1.0
100
AcDbArc
 50
180.0
 51
266.9695231541389
  0
LINE
  5
2EC
330
2B8
100
AcDbEntity
  8
0
100
AcDbLine
 10
0.0000008603277593
 20
56.05154104271015
 30
0.0
 11
0.0000008603277593
 21
55.94845949680519
 31
0.0
  0
ARC
  5
2ED
330
2B8
100
AcDbEntity
  8
0
100
AcDbCircle
 10
1.000000860327759
 20
55.94845949680519
 30
0.0
 40
1.0
100
AcDbArc
 50
180.0
 51
266.9695231541389
  0
LINE
  5
2EE
330
2B8
100
AcDbEntity
  8
0
100
AcDbLine
 10
0.0000008603277593
 20
49.05154104271015
 30
0.0
 11
0.0000008603277593
 21
48.94845949680519
 31
0.0
  0
ARC
  5
2EF
330
2B8
100
AcDbEntity
  8
0
100
AcDbCircle
 10
1.000000860327759
 20
49.05154104271015
 30
0.0
 40
1.0
100
AcDbArc
 50
93.03047684586102
 51
180.0
  0
ARC
  5
2F0
330
2B8
100
AcDbEntity
  8
0
100
AcDbCircle
 10
1.000000860327759
 20
48.94845949680519
 30
0.0
 40
1.0
100
AcDbArc
 50
180.0
 51
266.9695231541389
  0
ARC
  5
2F1
330
2B8
100
AcDbEntity
  8
0
100
AcDbCircle
 10
11.50000086032773
 20
38.11092440444622
 30
0.0
 40
1.5
100
AcDbArc
 50
273.030476845861
 51
0.0
  0
LINE
  5
2F2
330
2B8
100
AcDbEntity
  8
0
100
AcDbLine
 10
13.00000086032776
 20
31.88907613506922
 30
0.0
 11
13.00000086032776
 21
31.11092440444622
 31
0.0
  0
ARC
  5
2F3
330
2B8
100
AcDbEntity
  8
0
100
AcDbCircle
 10
11.50000086032773
 20
31.11092440444624
 30
0.0
 40
1.5
100
AcDbArc
 50
273.030476845861
 51
0.0
  0
LINE
  5
2F4
330
2B8
100
AcDbEntity
  8
0
100
AcDbLine
 10
13.00000086032776
 20
24.88907613506921
 30
0.0
 11
13.00000086032776
 21
23.75474825051014
 31
0.0
  0
ARC
  5
2F5
330
2B8
100
AcDbEntity
  8
0
100
AcDbCircle
 10
11.50000086032773
 20
24.88907613506923
 30
0.0
 40
1.5
100
AcDbArc
 50
0.0
 51
86.9695231541357
  0
ARC
  5
2F6
330
2B8
100
AcDbEntity
  8
0
100
AcDbCircle
 10
11.50000086032773
 20
23.75474825051016
 30
0.0
 40
1.5
100
AcDbArc
 50
273.0000000000023
 51
0.0
  0
ARC
  5
2F7
330
2B8
100
AcDbEntity
  8
0
100
AcDbCircle
 10
11.50000086032773
 20
31.88907613506923
 30
0.0
 40
1.5
100
AcDbArc
 50
0.0
 51
86.9695231541357
  0
LINE
  5
2F8
330
2B8
100
AcDbEntity
  8
0
  6
CONTINUOUS
100
AcDbLine
 10
6.000000860327757
 20
46.50000026975819
 30
0.0
 11
12.86995403531385
 21
46.50000026975819
 31
0.0
  0
LINE
  5
2F9
330
2B8
100
AcDbEntity
  8
0
  6
CONTINUOUS
100
AcDbLine
 10
4.000000860327642
 20
54.78823556387578
 30
0.0
 11
4.0000008603277
 21
54.00000026975819
 31
0.0
  0
LINE
  5
2FA
330
2B8
100
AcDbEntity
  8
0
  6
CONTINUOUS
100
AcDbLine
 10
6.000000860327757
 20
54.68235321093454
 30
0.0
 11
6.000000860327757
 21
50.31764732858087
 31
0.0
  0
LINE
  5
2FB
330
2B8
100
AcDbEntity
  8
0
100
AcDbLine
 10
2.000000860327701
 20
54.89411791681701
 30
0.0
 11
2.000000860327701
 21
54.85450853396232
 31
0.0
  0
LINE
  5
2FC
330
2B8
100
AcDbEntity
  8
0
100
AcDbLine
 10
4.0000008603277
 20
47.78823556387577
 30
0.0
 11
4.0000008603277
 21
47.00000026975819
 31
0.0
  0
LINE
  5
2FD
330
2B8
100
AcDbEntity
  8
0
100
AcDbLine
 10
6.000000860327816
 20
50.31764732858086
 30
0.0
 11
6.000000860327701
 21
54.00000026975819
 31
0.0
  0
LINE
  5
2FE
330
2B8
100
AcDbEntity
  8
0
  6
CONTINUOUS
100
AcDbLine
 10
6.000000860327757
 20
47.68235321093453
 30
0.0
 11
6.000000860327757
 21
46.50000026975819
 31
0.0
  0
LINE
  5
2FF
330
2B8
100
AcDbEntity
  8
0
100
AcDbLine
 10
2.000000860327701
 20
52.85450853396226
 30
0.0
 11
2.000000860327701
 21
52.00000026975819
 31
0.0
  0
LINE
  5
300
330
2B8
100
AcDbEntity
  8
0
100
AcDbLine
 10
2.000000860327701
 20
54.85450853396232
 30
0.0
 11
4.0000008603277
 21
54.00000026975819
 31
0.0
  0
LINE
  5
301
330
2B8
100
AcDbEntity
  8
0
100
AcDbLine
 10
2.000000860327701
 20
54.85450853396226
 30
0.0
 11
2.000000860327701
 21
54.89411791681701
 31
0.0
  0
ARC
  5
302
330
2B8
100
AcDbEntity
  8
0
100
AcDbCircle
 10
2.500000860327701
 20
52.00000026975819
 30
0.0
 40
0.5
100
AcDbArc
 50
180.0
 51
270.0
  0
ARC
  5
303
330
2B8
100
AcDbEntity
  8
0
100
AcDbCircle
 10
3.500000860327701
 20
52.00000026975819
 30
0.0
 40
0.5
100
AcDbArc
 50
270.0
 51
0.0
  0
LINE
  5
304
330
2B8
100
AcDbEntity
  8
0
100
AcDbLine
 10
2.500000860327701
 20
51.50000026975819
 30
0.0
 11
3.500000860327701
 21
51.50000026975819
 31
0.0
  0
ARC
  5
305
330
2B8
100
AcDbEntity
  8
0
100
AcDbCircle
 10
4.500000860327702
 20
47.00000026975819
 30
0.0
 40
0.5
100
AcDbArc
 50
180.0
 51
270.0
  0
ARC
  5
306
330
2B8
100
AcDbEntity
  8
0
100
AcDbCircle
 10
5.500000860327928
 20
47.00000026975819
 30
0.0
 40
0.5
100
AcDbArc
 50
270.0
 51
0.0
  0
ARC
  5
307
330
2B8
100
AcDbEntity
  8
0
100
AcDbCircle
 10
5.500000860327701
 20
54.00000026975819
 30
0.0
 40
0.5
100
AcDbArc
 50
0.0
 51
90.0
  0
ARC
  5
308
330
2B8
100
AcDbEntity
  8
0
100
AcDbCircle
 10
4.500000860327702
 20
54.00000026975819
 30
0.0
 40
0.5
100
AcDbArc
 50
90.0
 51
180.0
  0
LINE
  5
309
330
2B8
100
AcDbEntity
  8
0
100
AcDbLine
 10
4.0000008603277
 20
52.0000002697583
 30
0.0
 11
4.0000008603277
 21
50.21176497563963
 31
0.0
  0
LINE
  5
30A
330
2B8
100
AcDbEntity
  8
0
100
AcDbLine
 10
5.500000860327701
 20
54.50000026975819
 30
0.0
 11
4.500000860327702
 21
54.50000026975819
 31
0.0
  0
LINE
  5
30B
330
2B8
100
AcDbEntity
  8
0
100
AcDbLine
 10
6.000000860327928
 20
47.00000026975819
 30
0.0
 11
6.000000860327928
 21
47.68235321093452
 31
0.0
  0
LINE
  5
30C
330
2B8
100
AcDbEntity
  8
0
100
AcDbLine
 10
4.500000860327702
 20
46.50000026975819
 30
0.0
 11
5.500000860327928
 21
46.50000026975819
 31
0.0
  0
LINE
  5
30D
330
2B8
100
AcDbEntity
  8
0
100
AcDbLine
 10
13.00000086032776
 20
38.88907613506921
 30
0.0
 11
13.00000086032776
 21
38.11092440444622
 31
0.0
  0
LINE
  5
30E
330
2B8
100
AcDbEntity
  8
0
100
AcDbLine
 10
12.00000086032773
 20
43.69671084207324
 30
0.0
 11
12.00000086032773
 21
46.50000026975816
 31
0.0
  0
LINE
  5
30F
330
2B8
100
AcDbEntity
  8
0
100
AcDbLine
 10
13.00000086032776
 20
45.88907613506921
 30
0.0
 11
13.00000086032776
 21
45.11092440444623
 31
0.0
  0
ARC
  5
310
330
2B8
100
AcDbEntity
  8
0
100
AcDbCircle
 10
11.50000086032773
 20
45.88907613506921
 30
0.0
 40
1.5
100
AcDbArc
 50
0.0
 51
86.9695231541357
  0
ARC
  5
311
330
2B8
100
AcDbEntity
  8
0
100
AcDbCircle
 10
11.50000086032773
 20
45.11092440444623
 30
0.0
 40
1.5
100
AcDbArc
 50
273.030476845861
 51
0.0
  0
ARC
  5
312
330
2B8
100
AcDbEntity
  8
0
100
AcDbCircle
 10
11.50000086032773
 20
38.88907613506921
 30
0.0
 40
1.5
100
AcDbArc
 50
0.0
 51
86.9695231541357
  0
LINE
  5
313
330
2B8
100
AcDbEntity
  8
0
100
AcDbLine
 10
13.00000086032776
 20
52.88907613506921
 30
0.0
 11
13.00000086032776
 21
52.11092440444623
 31
0.0
  0
ARC
  5
314
330
2B8
100
AcDbEntity
  8
0
100
AcDbCircle
 10
11.50000086032773
 20
52.88907613506921
 30
0.0
 40
1.5
100
AcDbArc
 50
0.0
 51
86.9695231541357
  0
ARC
  5
315
330
2B8
100
AcDbEntity
  8
0
100
AcDbCircle
 10
11.50000086032773
 20
52.11092440444623
 30
0.0
 40
1.5
100
AcDbArc
 50
273.030476845861
 51
0.0
  0
LINE
  5
316
330
2B8
100
AcDbEntity
  8
0
100
AcDbLine
 10
19.00000086032775
 20
21.00000026975817
 30
0.0
 11
19.00000086032775
 21
4.973814348188168
 31
0.0
  0
LINE
  5
317
330
2B8
100
AcDbEntity
  8
0
100
AcDbLine
 10
20.00000086032776
 20
4.921442505051173
 30
0.0
 11
20.00000086032776
 21
20.97381434818919
 31
0.0
  0
LINE
  5
318
330
2B8
100
AcDbEntity
  8
0
100
AcDbLine
 10
45.29128870780477
 20
4.259166825093188
 30
0.0
 11
45.29128870780477
 21
21.97381434818919
 31
0.0
  0
LINE
  5
319
330
2B8
100
AcDbEntity
  8
0
100
AcDbLine
 10
40.70871301284973
 20
4.379165792826142
 30
0.0
 11
40.70871301284973
 21
21.97381434819021
 31
0.0
  0
LINE
  5
31A
330
2B8
100
AcDbEntity
  8
0
100
AcDbLine
 10
40.90000086032675
 20
3.800000269757163
 30
0.0
 11
40.90000086032675
 21
0.0000002697581749
 31
0.0
  0
LINE
  5
31B
330
2B8
100
AcDbEntity
  8
0
100
AcDbLine
 10
45.1000008603277
 20
3.800000269757163
 30
0.0
 11
45.1000008603277
 21
0.0000002697581749
 31
0.0
  0
LINE
  5
31C
330
2B8
100
AcDbEntity
  8
0
100
AcDbLine
 10
37.50000086032776
 20
3.800000269757163
 30
0.0
 11
48.50000086032776
 21
3.800000269757163
 31
0.0
  0
LINE
  5
31D
330
2B8
100
AcDbEntity
  8
0
100
AcDbLine
 10
37.50000086032776
 20
4.489374799158213
 30
0.0
 11
37.50000086032776
 21
3.800000269757163
 31
0.0
  0
LINE
  5
31E
330
2B8
100
AcDbEntity
  8
0
100
AcDbLine
 10
48.50000086032776
 20
4.201329661898171
 30
0.0
 11
48.50000086032776
 21
3.800000269757163
 31
0.0
  0
LINE
  5
31F
330
2B8
100
AcDbEntity
  8
0
100
AcDbLine
 10
48.5000008603277
 20
54.97381434818919
 30
0.0
 11
30.00000086032776
 21
54.97381434818919
 31
0.0
  0
LINE
  5
320
330
2B8
100
AcDbEntity
  8
0
100
AcDbLine
 10
47.00000086032775
 20
49.97381434818919
 30
0.0
 11
30.00000086032776
 21
49.97381434818919
 31
0.0
  0
LINE
  5
321
330
2B8
100
AcDbEntity
  8
0
100
AcDbLine
 10
47.00000086032775
 20
47.97381434818919
 30
0.0
 11
30.00000086032776
 21
47.97381434818919
 31
0.0
  0
LINE
  5
322
330
2B8
100
AcDbEntity
  8
0
100
AcDbLine
 10
23.50000086032776
 20
23.00000026975817
 30
0.0
 11
22.00000086032673
 21
23.00000026975817
 31
0.0
  0
LINE
  5
323
330
2B8
100
AcDbEntity
  8
0
100
AcDbLine
 10
23.70000086032671
 20
22.47381434818917
 30
0.0
 11
22.00000086032673
 21
22.47381434818917
 31
0.0
  0
LINE
  5
324
330
2B8
100
AcDbEntity
  8
0
100
AcDbLine
 10
19.00000086032775
 20
21.00000026975817
 30
0.0
 11
17.70000086032773
 21
21.00000026975817
 31
0.0
  0
LINE
  5
325
330
2B8
100
AcDbEntity
  8
0
100
AcDbLine
 10
20.00000086032776
 20
20.97381434818919
 30
0.0
 11
19.00000086032775
 21
20.97381434818919
 31
0.0
  0
LINE
  5
326
330
2B8
100
AcDbEntity
  8
0
100
AcDbLine
 10
23.50000086032776
 20
31.00000026975817
 30
0.0
 11
22.00000086032673
 21
31.00000026975817
 31
0.0
  0
LINE
  5
327
330
2B8
100
AcDbEntity
  8
0
100
AcDbLine
 10
19.00000086032775
 20
33.00000026975817
 30
0.0
 11
17.70000086032773
 21
33.00000026975817
 31
0.0
  0
LINE
  5
328
330
2B8
100
AcDbEntity
  8
0
100
AcDbLine
 10
23.70000086032671
 20
31.47381434818919
 30
0.0
 11
22.00000086032673
 21
31.47381434818919
 31
0.0
  0
LINE
  5
329
330
2B8
100
AcDbEntity
  8
0
100
AcDbLine
 10
20.00000086032776
 20
32.97381434819016
 30
0.0
 11
19.00000086032775
 21
32.97381434819016
 31
0.0
  0
LINE
  5
32A
330
2B8
100
AcDbEntity
  8
0
100
AcDbLine
 10
22.10000086032772
 20
31.00000026975817
 30
0.0
 11
22.10000086032772
 21
23.00000026975817
 31
0.0
  0
LINE
  5
32B
330
2B8
100
AcDbEntity
  8
0
100
AcDbLine
 10
22.70000086032774
 20
31.00000026975817
 30
0.0
 11
22.70000086032774
 21
23.00000026975817
 31
0.0
  0
LINE
  5
32C
330
2B8
100
AcDbEntity
  8
0
100
AcDbLine
 10
23.50000086032776
 20
31.00000026975817
 30
0.0
 11
23.50000086032776
 21
23.00000026975817
 31
0.0
  0
LINE
  5
32D
330
2B8
100
AcDbEntity
  8
0
100
AcDbLine
 10
17.70000086032773
 20
33.00000026975817
 30
0.0
 11
17.70000086032773
 21
21.10000026975717
 31
0.0
  0
LINE
  5
32E
330
2B8
100
AcDbEntity
  8
0
100
AcDbLine
 10
18.50000086032776
 20
33.00000026975817
 30
0.0
 11
18.50000086032776
 21
21.00000026975817
 31
0.0
  0
LINE
  5
32F
330
2B8
100
AcDbEntity
  8
0
100
AcDbLine
 10
19.00000086032775
 20
33.00000026975817
 30
0.0
 11
19.00000086032775
 21
21.00000026975715
 31
0.0
  0
LINE
  5
330
330
2B8
100
AcDbEntity
  8
0
100
AcDbLine
 10
22.00000086032673
 20
31.47381434818919
 30
0.0
 11
22.00000086032673
 21
22.47381434818917
 31
0.0
  0
LINE
  5
331
330
2B8
100
AcDbEntity
  8
0
100
AcDbLine
 10
23.70000086032671
 20
31.47381434818919
 30
0.0
 11
23.70000086032671
 21
22.47381434818917
 31
0.0
  0
LINE
  5
332
330
2B8
100
AcDbEntity
  8
0
100
AcDbLine
 10
47.00000086032775
 20
47.97381434818919
 30
0.0
 11
47.00000086032775
 21
49.97381434818919
 31
0.0
  0
LINE
  5
333
330
2B8
100
AcDbEntity
  8
0
100
AcDbLine
 10
47.50000086032776
 20
48.97381434818919
 30
0.0
 11
47.50000086032776
 21
54.97381434818919
 31
0.0
  0
LINE
  5
334
330
2B8
100
AcDbEntity
  8
0
100
AcDbLine
 10
0.0000008603277593
 20
120.5286536815119
 30
0.0
 11
18.00000086033076
 21
121.0000002697571
 31
0.0
  0
LINE
  5
335
330
2B8
100
AcDbEntity
  8
0
100
AcDbLine
 10
10.80000086032873
 20
96.4282355638752
 30
0.0
 11
10.80000086032873
 21
92.57176497564023
 31
0.0
  0
LINE
  5
336
330
2B8
100
AcDbEntity
  8
0
100
AcDbLine
 10
13.00000086032776
 20
94.88907613506922
 30
0.0
 11
13.00000086032776
 21
94.11092440444624
 31
0.0
  0
LINE
  5
337
330
2B8
100
AcDbEntity
  8
0
100
AcDbLine
 10
0.1464474697343689
 20
79.35355366035145
 30
0.0
 11
4.0000008603277
 21
81.00000026975818
 31
0.0
  0
LINE
  5
338
330
2B8
100
AcDbEntity
  8
0
100
AcDbLine
 10
0.9471337191877752
 20
64.05014259757923
 30
0.0
 11
11.57930157203878
 21
64.61302207214214
 31
0.0
  0
LINE
  5
339
330
2B8
100
AcDbEntity
  8
0
100
AcDbLine
 10
0.9471337191877752
 20
61.94985794193621
 30
0.0
 11
11.57930157203878
 21
61.38697846737318
 31
0.0
  0
LINE
  5
33A
330
2B8
100
AcDbEntity
  8
0
100
AcDbLine
 10
0.9471337191877752
 20
57.05014259757923
 30
0.0
 11
11.57930157203878
 21
57.61302207214215
 31
0.0
  0
LINE
  5
33B
330
2B8
100
AcDbEntity
  8
0
100
AcDbLine
 10
0.9471337191877752
 20
92.05014259757922
 30
0.0
 11
11.57930157203878
 21
92.61302207214214
 31
0.0
  0
LINE
  5
33C
330
2B8
100
AcDbEntity
  8
0
100
AcDbLine
 10
0.9471337191877752
 20
89.94985794193622
 30
0.0
 11
11.57930157203878
 21
89.38697846737317
 31
0.0
  0
LINE
  5
33D
330
2B8
100
AcDbEntity
  8
0
100
AcDbLine
 10
0.9471337191877752
 20
85.05014259757922
 30
0.0
 11
11.57930157203878
 21
85.61302207214216
 31
0.0
  0
LINE
  5
33E
330
2B8
100
AcDbEntity
  8
0
100
AcDbLine
 10
0.9471337191877752
 20
82.94985794193619
 30
0.0
 11
11.57930157203878
 21
82.38697846737318
 31
0.0
  0
LINE
  5
33F
330
2B8
100
AcDbEntity
  8
0
100
AcDbLine
 10
0.9471337191877752
 20
78.05014259757922
 30
0.0
 11
11.57930157203878
 21
78.61302207214214
 31
0.0
  0
LINE
  5
340
330
2B8
100
AcDbEntity
  8
0
100
AcDbLine
 10
0.9471337191877752
 20
75.94985794193622
 30
0.0
 11
11.57930157203878
 21
75.38697846737318
 31
0.0
  0
LINE
  5
341
330
2B8
100
AcDbEntity
  8
0
100
AcDbLine
 10
0.9471337191877752
 20
71.05014259757922
 30
0.0
 11
11.57930157203878
 21
71.61302207214214
 31
0.0
  0
LINE
  5
342
330
2B8
100
AcDbEntity
  8
0
100
AcDbLine
 10
0.9471337191877752
 20
68.94985794193622
 30
0.0
 11
11.57930157203878
 21
68.38697846737318
 31
0.0
  0
LINE
  5
343
330
2B8
100
AcDbEntity
  8
0
100
AcDbLine
 10
0.0000008603277593
 20
63.05154104271014
 30
0.0
 11
0.0000008603277593
 21
62.94845949680519
 31
0.0
  0
ARC
  5
344
330
2B8
100
AcDbEntity
  8
0
100
AcDbCircle
 10
1.000000860327759
 20
63.05154104271014
 30
0.0
 40
1.0
100
AcDbArc
 50
93.03047684586102
 51
180.0
  0
ARC
  5
345
330
2B8
100
AcDbEntity
  8
0
100
AcDbCircle
 10
1.000000860327759
 20
62.94845949680519
 30
0.0
 40
1.0
100
AcDbArc
 50
180.0
 51
266.9695231541389
  0
LINE
  5
346
330
2B8
100
AcDbEntity
  8
0
100
AcDbLine
 10
0.0000008603277593
 20
70.05154104271014
 30
0.0
 11
0.0000008603277593
 21
69.94845949680518
 31
0.0
  0
ARC
  5
347
330
2B8
100
AcDbEntity
  8
0
100
AcDbCircle
 10
1.000000860327759
 20
70.05154104271014
 30
0.0
 40
1.0
100
AcDbArc
 50
93.03047684586102
 51
180.0
  0
ARC
  5
348
330
2B8
100
AcDbEntity
  8
0
100
AcDbCircle
 10
1.000000860327759
 20
69.94845949680518
 30
0.0
 40
1.0
100
AcDbArc
 50
180.0
 51
266.9695231541389
  0
ARC
  5
349
330
2B8
100
AcDbEntity
  8
0
100
AcDbCircle
 10
0.5000008603277025
 20
79.00000026975819
 30
0.0
 40
0.5
100
AcDbArc
 50
134.9999999999723
 51
180.0
  0
LINE
  5
34A
330
2B8
100
AcDbEntity
  8
0
100
AcDbLine
 10
0.0000008603277593
 20
77.05154104271014
 30
0.0
 11
0.0000008603277593
 21
76.94845949680519
 31
0.0
  0
ARC
  5
34B
330
2B8
100
AcDbEntity
  8
0
100
AcDbCircle
 10
1.000000860327759
 20
77.05154104271014
 30
0.0
 40
1.0
100
AcDbArc
 50
93.03047684586102
 51
180.0
  0
ARC
  5
34C
330
2B8
100
AcDbEntity
  8
0
100
AcDbCircle
 10
1.000000860327759
 20
76.94845949680519
 30
0.0
 40
1.0
100
AcDbArc
 50
180.0
 51
266.9695231541389
  0
LINE
  5
34D
330
2B8
100
AcDbEntity
  8
0
100
AcDbLine
 10
0.0000008603277593
 20
84.05154104271014
 30
0.0
 11
0.0000008603277593
 21
83.94845949680519
 31
0.0
  0
ARC
  5
34E
330
2B8
100
AcDbEntity
  8
0
100
AcDbCircle
 10
1.000000860327759
 20
84.05154104271014
 30
0.0
 40
1.0
100
AcDbArc
 50
93.03047684586102
 51
180.0
  0
ARC
  5
34F
330
2B8
100
AcDbEntity
  8
0
100
AcDbCircle
 10
1.000000860327759
 20
83.94845949680519
 30
0.0
 40
1.0
100
AcDbArc
 50
180.0
 51
266.9695231541389
  0
LINE
  5
350
330
2B8
100
AcDbEntity
  8
0
100
AcDbLine
 10
0.0000008603277593
 20
91.05154104271013
 30
0.0
 11
0.0000008603277593
 21
90.94845949680518
 31
0.0
  0
ARC
  5
351
330
2B8
100
AcDbEntity
  8
0
100
AcDbCircle
 10
1.000000860327759
 20
91.05154104271013
 30
0.0
 40
1.0
100
AcDbArc
 50
93.03047684586102
 51
180.0
  0
ARC
  5
352
330
2B8
100
AcDbEntity
  8
0
100
AcDbCircle
 10
1.000000860327759
 20
90.94845949680518
 30
0.0
 40
1.0
100
AcDbArc
 50
180.0
 51
266.9695231541389
  0
LINE
  5
353
330
2B8
100
AcDbEntity
  8
0
  6
CONTINUOUS
100
AcDbLine
 10
4.0000008603277
 20
75.78823556387573
 30
0.0
 11
4.0000008603277
 21
71.21176497563962
 31
0.0
  0
LINE
  5
354
330
2B8
100
AcDbEntity
  8
0
  6
CONTINUOUS
100
AcDbLine
 10
6.000000860327757
 20
75.68235321093453
 30
0.0
 11
6.000000860327757
 21
71.31764732858084
 31
0.0
  0
LINE
  5
355
330
2B8
100
AcDbEntity
  8
0
100
AcDbLine
 10
2.000000860327701
 20
71.10588262269842
 30
0.0
 11
2.000000860327701
 21
75.89411791681702
 31
0.0
  0
LINE
  5
356
330
2B8
100
AcDbEntity
  8
0
100
AcDbLine
 10
2.000000860328098
 20
75.89411791681698
 30
0.0
 11
2.000000860327983
 21
71.10588262269844
 31
0.0
  0
ARC
  5
357
330
2B8
100
AcDbEntity
  8
0
100
AcDbCircle
 10
11.50000086032773
 20
73.88907613506922
 30
0.0
 40
1.5
100
AcDbArc
 50
0.0
 51
86.9695231541357
  0
LINE
  5
358
330
2B8
100
AcDbEntity
  8
0
  6
CONTINUOUS
100
AcDbLine
 10
4.0000008603277
 20
61.78823556387579
 30
0.0
 11
4.0000008603277
 21
57.21176497563964
 31
0.0
  0
LINE
  5
359
330
2B8
100
AcDbEntity
  8
0
  6
CONTINUOUS
100
AcDbLine
 10
4.0000008603277
 20
68.78823556387579
 30
0.0
 11
4.0000008603277
 21
64.21176497563964
 31
0.0
  0
LINE
  5
35A
330
2B8
100
AcDbEntity
  8
0
  6
CONTINUOUS
100
AcDbLine
 10
6.000000860327757
 20
68.68235321093455
 30
0.0
 11
6.000000860327757
 21
64.31764732858086
 31
0.0
  0
LINE
  5
35B
330
2B8
100
AcDbEntity
  8
0
100
AcDbLine
 10
2.000000860327759
 20
61.89411791681703
 30
0.0
 11
2.000000860327701
 21
57.10588262269842
 31
0.0
  0
LINE
  5
35C
330
2B8
100
AcDbEntity
  8
0
100
AcDbLine
 10
2.000000860327701
 20
64.10588262269843
 30
0.0
 11
2.000000860327701
 21
68.89411791681701
 31
0.0
  0
LINE
  5
35D
330
2B8
100
AcDbEntity
  8
0
  6
CONTINUOUS
100
AcDbLine
 10
6.000000860327757
 20
61.68235321093455
 30
0.0
 11
6.000000860327757
 21
57.31764732858087
 31
0.0
  0
LINE
  5
35E
330
2B8
100
AcDbEntity
  8
0
100
AcDbLine
 10
2.000000860327701
 20
57.10588262269842
 30
0.0
 11
2.000000860327701
 21
61.89411791681701
 31
0.0
  0
LINE
  5
35F
330
2B8
100
AcDbEntity
  8
0
100
AcDbLine
 10
2.000000860327928
 20
68.89411791681701
 30
0.0
 11
2.000000860327816
 21
64.10588262269843
 31
0.0
  0
LINE
  5
360
330
2B8
100
AcDbEntity
  8
0
100
AcDbLine
 10
13.00000086032776
 20
59.88907613506921
 30
0.0
 11
13.00000086032776
 21
59.11092440444623
 31
0.0
  0
ARC
  5
361
330
2B8
100
AcDbEntity
  8
0
100
AcDbCircle
 10
11.50000086032773
 20
59.88907613506921
 30
0.0
 40
1.5
100
AcDbArc
 50
0.0
 51
86.9695231541357
  0
ARC
  5
362
330
2B8
100
AcDbEntity
  8
0
100
AcDbCircle
 10
11.50000086032773
 20
59.11092440444623
 30
0.0
 40
1.5
100
AcDbArc
 50
273.030476845861
 51
0.0
  0
LINE
  5
363
330
2B8
100
AcDbEntity
  8
0
100
AcDbLine
 10
13.00000086032776
 20
66.88907613506922
 30
0.0
 11
13.00000086032776
 21
66.11092440444622
 31
0.0
  0
ARC
  5
364
330
2B8
100
AcDbEntity
  8
0
100
AcDbCircle
 10
11.50000086032773
 20
66.88907613506922
 30
0.0
 40
1.5
100
AcDbArc
 50
0.0
 51
86.9695231541357
  0
LINE
  5
365
330
2B8
100
AcDbEntity
  8
0
100
AcDbLine
 10
13.00000086032776
 20
73.88907613506922
 30
0.0
 11
13.00000086032776
 21
73.11092440444622
 31
0.0
  0
ARC
  5
366
330
2B8
100
AcDbEntity
  8
0
100
AcDbCircle
 10
11.50000086032773
 20
73.11092440444622
 30
0.0
 40
1.5
100
AcDbArc
 50
273.030476845861
 51
0.0
  0
ARC
  5
367
330
2B8
100
AcDbEntity
  8
0
100
AcDbCircle
 10
11.50000086032773
 20
66.11092440444622
 30
0.0
 40
1.5
100
AcDbArc
 50
273.030476845861
 51
0.0
  0
LWPOLYLINE
  5
368
330
2B8
100
AcDbEntity
  8
0
100
AcDbPolyline
 90
        3
 70
     0
 43
0.0
 10
12.86995403531431
 20
86.50000026975819
 10
6.000000860327757
 20
86.50000026975819
 10
6.000000860327757
 20
85.31764732858086
  0
LINE
  5
369
330
2B8
100
AcDbEntity
  8
0
  6
CONTINUOUS
100
AcDbLine
 10
4.0000008603277
 20
79.00000026975819
 30
0.0
 11
4.0000008603277
 21
78.21176497563964
 31
0.0
  0
LINE
  5
36A
330
2B8
100
AcDbEntity
  8
0
  6
CONTINUOUS
100
AcDbLine
 10
6.000000860327757
 20
82.68235321093454
 30
0.0
 11
6.000000860327757
 21
78.31764732858085
 31
0.0
  0
LINE
  5
36B
330
2B8
100
AcDbEntity
  8
0
100
AcDbLine
 10
2.000000860327701
 20
78.10588262269842
 30
0.0
 11
2.000000860327701
 21
78.14549200555411
 31
0.0
  0
LINE
  5
36C
330
2B8
100
AcDbEntity
  8
0
100
AcDbLine
 10
4.0000008603277
 20
82.78823556387576
 30
0.0
 11
4.0000008603277
 21
81.00000026975818
 31
0.0
  0
LINE
  5
36D
330
2B8
100
AcDbEntity
  8
0
100
AcDbLine
 10
6.000000860327701
 20
85.31764732858084
 30
0.0
 11
6.000000860327701
 21
86.00000026975818
 31
0.0
  0
LINE
  5
36E
330
2B8
100
AcDbEntity
  8
0
100
AcDbLine
 10
2.000000860328157
 20
78.14549200555434
 30
0.0
 11
2.000000860328098
 21
78.10588262269845
 31
0.0
  0
LINE
  5
36F
330
2B8
100
AcDbEntity
  8
0
100
AcDbLine
 10
2.000000860328157
 20
78.14549200555434
 30
0.0
 11
4.0000008603277
 21
79.00000026975819
 31
0.0
  0
ARC
  5
370
330
2B8
100
AcDbEntity
  8
0
100
AcDbCircle
 10
3.500000860327928
 20
81.00000026975818
 30
0.0
 40
0.5
100
AcDbArc
 50
0.0
 51
90.0
  0
ARC
  5
371
330
2B8
100
AcDbEntity
  8
0
100
AcDbCircle
 10
2.500000860327929
 20
81.00000026975818
 30
0.0
 40
0.5
100
AcDbArc
 50
90.0
 51
180.0
  0
LINE
  5
372
330
2B8
100
AcDbEntity
  8
0
100
AcDbLine
 10
2.000000860327928
 20
81.00000026975818
 30
0.0
 11
2.000000860328157
 21
80.14549200555434
 31
0.0
  0
LINE
  5
373
330
2B8
100
AcDbEntity
  8
0
100
AcDbLine
 10
3.500000860327928
 20
81.50000026975819
 30
0.0
 11
2.500000860327929
 21
81.50000026975819
 31
0.0
  0
ARC
  5
374
330
2B8
100
AcDbEntity
  8
0
100
AcDbCircle
 10
4.500000860327702
 20
79.00000026975819
 30
0.0
 40
0.5
100
AcDbArc
 50
180.0
 51
270.0
  0
ARC
  5
375
330
2B8
100
AcDbEntity
  8
0
100
AcDbCircle
 10
5.500000860327928
 20
79.00000026975819
 30
0.0
 40
0.5
100
AcDbArc
 50
270.0
 51
0.0
  0
ARC
  5
376
330
2B8
100
AcDbEntity
  8
0
100
AcDbCircle
 10
5.500000860327701
 20
86.00000026975818
 30
0.0
 40
0.5
100
AcDbArc
 50
0.0
 51
90.0
  0
ARC
  5
377
330
2B8
100
AcDbEntity
  8
0
100
AcDbCircle
 10
4.500000860327702
 20
86.00000026975818
 30
0.0
 40
0.5
100
AcDbArc
 50
90.0
 51
180.0
  0
LINE
  5
378
330
2B8
100
AcDbEntity
  8
0
100
AcDbLine
 10
4.0000008603277
 20
86.00000026975818
 30
0.0
 11
4.0000008603277
 21
85.21176497563962
 31
0.0
  0
LINE
  5
379
330
2B8
100
AcDbEntity
  8
0
100
AcDbLine
 10
5.500000860327701
 20
86.50000026975819
 30
0.0
 11
4.500000860327702
 21
86.50000026975819
 31
0.0
  0
LINE
  5
37A
330
2B8
100
AcDbEntity
  8
0
100
AcDbLine
 10
6.000000860327928
 20
79.00000026975819
 30
0.0
 11
6.000000860327816
 21
82.68235321093451
 31
0.0
  0
LINE
  5
37B
330
2B8
100
AcDbEntity
  8
0
100
AcDbLine
 10
4.500000860327702
 20
78.50000026975819
 30
0.0
 11
5.500000860327928
 21
78.50000026975819
 31
0.0
  0
LINE
  5
37C
330
2B8
100
AcDbEntity
  8
0
  6
CONTINUOUS
100
AcDbLine
 10
6.000000860327757
 20
86.50000026975819
 30
0.0
 11
6.000000860327757
 21
85.31764732858086
 31
0.0
  0
LINE
  5
37D
330
2B8
100
AcDbEntity
  8
0
100
AcDbLine
 10
13.00000086032776
 20
80.88907613506922
 30
0.0
 11
13.00000086032776
 21
80.11092440444622
 31
0.0
  0
ARC
  5
37E
330
2B8
100
AcDbEntity
  8
0
100
AcDbCircle
 10
11.50000086032773
 20
80.11092440444622
 30
0.0
 40
1.5
100
AcDbArc
 50
273.030476845861
 51
0.0
  0
LINE
  5
37F
330
2B8
100
AcDbEntity
  8
0
100
AcDbLine
 10
12.00000086032773
 20
86.50000026975819
 30
0.0
 11
12.00000086032773
 21
89.30328969744222
 31
0.0
  0
LINE
  5
380
330
2B8
100
AcDbEntity
  8
0
100
AcDbLine
 10
10.80000086032873
 20
89.04896274407917
 30
0.0
 11
12.00000086032773
 21
89.01753963819624
 31
0.0
  0
LINE
  5
381
330
2B8
100
AcDbEntity
  8
0
100
AcDbLine
 10
13.00000086032776
 20
87.88907613506918
 30
0.0
 11
13.00000086032776
 21
87.1109244044462
 31
0.0
  0
ARC
  5
382
330
2B8
100
AcDbEntity
  8
0
100
AcDbCircle
 10
11.50000086032773
 20
87.1109244044462
 30
0.0
 40
1.5
100
AcDbArc
 50
273.030476845861
 51
0.0
  0
ARC
  5
383
330
2B8
100
AcDbEntity
  8
0
100
AcDbCircle
 10
11.50000086032773
 20
94.11092440444624
 30
0.0
 40
1.5
100
AcDbArc
 50
273.030476845861
 51
0.0
  0
LINE
  5
384
330
2B8
100
AcDbEntity
  8
0
100
AcDbLine
 10
10.80000086032873
 20
89.42823556387521
 30
0.0
 11
10.80000086032873
 21
89.04896274407917
 31
0.0
  0
ARC
  5
385
330
2B8
100
AcDbEntity
  8
0
100
AcDbCircle
 10
11.50000086032773
 20
87.88907613506918
 30
0.0
 40
1.5
100
AcDbArc
 50
0.0
 51
86.9695231541357
  0
ARC
  5
386
330
2B8
100
AcDbEntity
  8
0
100
AcDbCircle
 10
11.50000086032773
 20
80.88907613506922
 30
0.0
 40
1.5
100
AcDbArc
 50
0.0
 51
86.9695231541357
  0
LINE
  5
387
330
2B8
100
AcDbEntity
  8
0
100
AcDbLine
 10
0.9471337191877752
 20
96.9498579419362
 30
0.0
 11
11.57930157203878
 21
96.38697846737318
 31
0.0
  0
LINE
  5
388
330
2B8
100
AcDbEntity
  8
0
100
AcDbLine
 10
0.4738328822067503
 20
104.3251677857379
 30
0.0
 11
11.57850479469276
 21
103.7431965911381
 31
0.0
  0
LINE
  5
389
330
2B8
100
AcDbEntity
  8
0
100
AcDbLine
 10
0.9471337191877752
 20
99.05014259757923
 30
0.0
 11
11.57930157203878
 21
99.61302207214217
 31
0.0
  0
LINE
  5
38A
330
2B8
100
AcDbEntity
  8
0
100
AcDbLine
 10
0.0000008603277593
 20
104.8244825531152
 30
0.0
 11
0.0000008603277593
 21
120.5286536815119
 31
0.0
  0
LINE
  5
38B
330
2B8
100
AcDbEntity
  8
0
100
AcDbLine
 10
0.0000008603277593
 20
98.05154104271013
 30
0.0
 11
0.0000008603277593
 21
97.94845949680521
 31
0.0
  0
POINT
  5
38C
330
2B8
100
AcDbEntity
  8
0
100
AcDbPoint
 10
0.0000008603277593
 20
104.3500002697571
 30
0.0
  0
ARC
  5
38D
330
2B8
100
AcDbEntity
  8
0
100
AcDbCircle
 10
0.5000008603277593
 20
104.8244825531152
 30
0.0
 40
0.5
100
AcDbArc
 50
180.0
 51
266.9999999999976
  0
ARC
  5
38E
330
2B8
100
AcDbEntity
  8
0
100
AcDbCircle
 10
1.000000860327759
 20
98.05154104271013
 30
0.0
 40
1.0
100
AcDbArc
 50
93.03047684586102
 51
180.0
  0
ARC
  5
38F
330
2B8
100
AcDbEntity
  8
0
100
AcDbCircle
 10
1.000000860327759
 20
97.94845949680521
 30
0.0
 40
1.0
100
AcDbArc
 50
180.0
 51
266.9695231541389
  0
ARC
  5
390
330
2B8
100
AcDbEntity
  8
0
100
AcDbCircle
 10
11.50000086032773
 20
94.88907613506922
 30
0.0
 40
1.5
100
AcDbArc
 50
0.0
 51
86.9695231541357
  0
LINE
  5
391
330
2B8
100
AcDbEntity
  8
0
100
AcDbLine
 10
10.80000086032873
 20
103.783996253501
 30
0.0
 11
10.80000086032873
 21
99.56600428601417
 31
0.0
  0
LINE
  5
392
330
2B8
100
AcDbEntity
  8
0
100
AcDbLine
 10
13.00000086032776
 20
102.245252289006
 30
0.0
 11
13.00000086032776
 21
101.1109244044462
 31
0.0
  0
ARC
  5
393
330
2B8
100
AcDbEntity
  8
0
100
AcDbCircle
 10
11.50000086032773
 20
102.245252289006
 30
0.0
 40
1.5
100
AcDbArc
 50
0.0
 51
87.00000000000091
  0
ARC
  5
394
330
2B8
100
AcDbEntity
  8
0
100
AcDbCircle
 10
11.50000086032773
 20
101.1109244044462
 30
0.0
 40
1.5
100
AcDbArc
 50
273.030476845861
 51
0.0
  0
LINE
  5
395
330
2B8
100
AcDbEntity
  8
0
100
AcDbLine
 10
48.55277904648175
 20
102.0000002697571
 30
0.0
 11
48.55277904648175
 21
92.00000026975715
 31
0.0
  0
LINE
  5
396
330
2B8
100
AcDbEntity
  8
0
100
AcDbLine
 10
19.00000086032775
 20
110.4710193276321
 30
0.0
 11
19.00000086032775
 21
83.00000026975816
 31
0.0
  0
LINE
  5
397
330
2B8
100
AcDbEntity
  8
0
100
AcDbLine
 10
20.00000086032776
 20
82.97381434819016
 30
0.0
 11
20.00000086032776
 21
109.6057337748872
 31
0.0
  0
LINE
  5
398
330
2B8
100
AcDbEntity
  8
0
100
AcDbLine
 10
47.50000086032776
 20
70.97381434818919
 30
0.0
 11
47.50000086032776
 21
96.97381434818922
 31
0.0
  0
LINE
  5
399
330
2B8
100
AcDbEntity
  8
0
100
AcDbLine
 10
48.5000008603277
 20
56.97381434818919
 30
0.0
 11
30.00000086032776
 21
56.97381434818919
 31
0.0
  0
LINE
  5
39A
330
2B8
100
AcDbEntity
  8
0
100
AcDbLine
 10
48.5000008603277
 20
61.97381434818919
 30
0.0
 11
30.00000086032776
 21
61.97381434818919
 31
0.0
  0
LINE
  5
39B
330
2B8
100
AcDbEntity
  8
0
100
AcDbLine
 10
48.5000008603277
 20
63.97381434818919
 30
0.0
 11
30.00000086032776
 21
63.97381434818919
 31
0.0
  0
LINE
  5
39C
330
2B8
100
AcDbEntity
  8
0
100
AcDbLine
 10
48.5000008603277
 20
68.97381434818919
 30
0.0
 11
30.00000086032776
 21
68.97381434818919
 31
0.0
  0
LINE
  5
39D
330
2B8
100
AcDbEntity
  8
0
100
AcDbLine
 10
48.5000008603277
 20
70.97381434818919
 30
0.0
 11
30.00000086032776
 21
70.97381434818919
 31
0.0
  0
LINE
  5
39E
330
2B8
100
AcDbEntity
  8
0
100
AcDbLine
 10
47.00000086032775
 20
84.97381434818919
 30
0.0
 11
30.00000086032776
 21
84.97381434818919
 31
0.0
  0
LINE
  5
39F
330
2B8
100
AcDbEntity
  8
0
100
AcDbLine
 10
47.00000086032775
 20
82.97381434818921
 30
0.0
 11
30.00000086032776
 21
82.97381434818921
 31
0.0
  0
LINE
  5
3A0
330
2B8
100
AcDbEntity
  8
0
100
AcDbLine
 10
47.00000086032775
 20
77.9738143481892
 30
0.0
 11
30.00000086032776
 21
77.9738143481892
 31
0.0
  0
LINE
  5
3A1
330
2B8
100
AcDbEntity
  8
0
100
AcDbLine
 10
47.00000086032775
 20
75.97381434818919
 30
0.0
 11
30.00000086032776
 21
75.97381434818919
 31
0.0
  0
LINE
  5
3A2
330
2B8
100
AcDbEntity
  8
0
100
AcDbLine
 10
47.00000086032775
 20
91.9738143481892
 30
0.0
 11
30.00000086032776
 21
91.9738143481892
 31
0.0
  0
LINE
  5
3A3
330
2B8
100
AcDbEntity
  8
0
100
AcDbLine
 10
47.00000086032775
 20
89.97381434818917
 30
0.0
 11
30.00000086032776
 21
89.97381434818917
 31
0.0
  0
LINE
  5
3A4
330
2B8
100
AcDbEntity
  8
0
100
AcDbLine
 10
22.10000086032772
 20
81.00000026975818
 30
0.0
 11
22.10000086032772
 21
73.00000026975816
 31
0.0
  0
LINE
  5
3A5
330
2B8
100
AcDbEntity
  8
0
100
AcDbLine
 10
22.70000086032774
 20
81.00000026975818
 30
0.0
 11
22.70000086032774
 21
73.00000026975816
 31
0.0
  0
LINE
  5
3A6
330
2B8
100
AcDbEntity
  8
0
100
AcDbLine
 10
23.50000086032776
 20
81.00000026975818
 30
0.0
 11
23.50000086032776
 21
73.00000026975816
 31
0.0
  0
LINE
  5
3A7
330
2B8
100
AcDbEntity
  8
0
100
AcDbLine
 10
22.00000086032673
 20
81.47381434818919
 30
0.0
 11
22.00000086032673
 21
72.47381434818919
 31
0.0
  0
LINE
  5
3A8
330
2B8
100
AcDbEntity
  8
0
100
AcDbLine
 10
23.70000086032671
 20
81.47381434818919
 30
0.0
 11
23.70000086032671
 21
72.47381434818919
 31
0.0
  0
LINE
  5
3A9
330
2B8
100
AcDbEntity
  8
0
100
AcDbLine
 10
17.70000086032773
 20
83.00000026975816
 30
0.0
 11
17.70000086032773
 21
71.10000026975717
 31
0.0
  0
LINE
  5
3AA
330
2B8
100
AcDbEntity
  8
0
100
AcDbLine
 10
18.50000086032776
 20
83.00000026975816
 30
0.0
 11
18.50000086032776
 21
71.00000026975816
 31
0.0
  0
LINE
  5
3AB
330
2B8
100
AcDbEntity
  8
0
100
AcDbLine
 10
19.00000086032775
 20
71.00000026975715
 30
0.0
 11
19.00000086032775
 21
83.00000026975816
 31
0.0
  0
LINE
  5
3AC
330
2B8
100
AcDbEntity
  8
0
100
AcDbLine
 10
19.00000086032775
 20
71.00000026975816
 30
0.0
 11
17.70000086032773
 21
71.00000026975816
 31
0.0
  0
LINE
  5
3AD
330
2B8
100
AcDbEntity
  8
0
100
AcDbLine
 10
20.00000086032776
 20
70.97381434818919
 30
0.0
 11
19.00000086032775
 21
70.97381434818919
 31
0.0
  0
LINE
  5
3AE
330
2B8
100
AcDbEntity
  8
0
100
AcDbLine
 10
23.50000086032776
 20
73.00000026975816
 30
0.0
 11
22.00000086032673
 21
73.00000026975816
 31
0.0
  0
LINE
  5
3AF
330
2B8
100
AcDbEntity
  8
0
100
AcDbLine
 10
23.70000086032671
 20
72.47381434818919
 30
0.0
 11
22.00000086032673
 21
72.47381434818919
 31
0.0
  0
LINE
  5
3B0
330
2B8
100
AcDbEntity
  8
0
100
AcDbLine
 10
23.50000086032776
 20
81.00000026975818
 30
0.0
 11
22.00000086032673
 21
81.00000026975818
 31
0.0
  0
LINE
  5
3B1
330
2B8
100
AcDbEntity
  8
0
100
AcDbLine
 10
19.00000086032775
 20
83.00000026975816
 30
0.0
 11
17.70000086032773
 21
83.00000026975816
 31
0.0
  0
LINE
  5
3B2
330
2B8
100
AcDbEntity
  8
0
100
AcDbLine
 10
23.70000086032671
 20
81.47381434818919
 30
0.0
 11
22.00000086032673
 21
81.47381434818919
 31
0.0
  0
LINE
  5
3B3
330
2B8
100
AcDbEntity
  8
0
100
AcDbLine
 10
20.00000086032776
 20
82.97381434819016
 30
0.0
 11
19.00000086032775
 21
82.97381434819016
 31
0.0
  0
LINE
  5
3B4
330
2B8
100
AcDbEntity
  8
0
100
AcDbLine
 10
47.50000086032776
 20
56.97381434818919
 30
0.0
 11
47.50000086032776
 21
61.97381434818919
 31
0.0
  0
LINE
  5
3B5
330
2B8
100
AcDbEntity
  8
0
100
AcDbLine
 10
47.50000086032776
 20
63.97381434818919
 30
0.0
 11
47.50000086032776
 21
68.97381434818919
 31
0.0
  0
ARC
  5
3B6
330
2B8
100
AcDbEntity
  8
0
100
AcDbCircle
 10
49.30000086032777
 20
82.00000026975715
 30
0.0
 40
1.05
100
AcDbArc
 50
139.6324064558198
 51
220.36759354418
  0
LINE
  5
3B7
330
2B8
100
AcDbEntity
  8
0
100
AcDbLine
 10
47.00000086032775
 20
75.97381434818919
 30
0.0
 11
47.00000086032775
 21
77.9738143481892
 31
0.0
  0
LINE
  5
3B8
330
2B8
100
AcDbEntity
  8
0
100
AcDbLine
 10
47.00000086032775
 20
82.97381434818921
 30
0.0
 11
47.00000086032775
 21
84.97381434818919
 31
0.0
  0
LINE
  5
3B9
330
2B8
100
AcDbEntity
  8
0
100
AcDbLine
 10
47.00000086032775
 20
89.97381434818917
 30
0.0
 11
47.00000086032775
 21
91.9738143481892
 31
0.0
  0
LINE
  5
3BA
330
2B8
100
AcDbEntity
  8
0
100
AcDbLine
 10
48.55277904648175
 20
96.97381434818922
 30
0.0
 11
30.00000086032776
 21
96.97381434818922
 31
0.0
  0
LINE
  5
3BB
330
2B8
100
AcDbEntity
  8
0
100
AcDbLine
 10
48.55277904648175
 20
98.97381434818921
 30
0.0
 11
30.00000086032776
 21
98.97381434818921
 31
0.0
  0
LINE
  5
3BC
330
2B8
100
AcDbEntity
  8
0
100
AcDbLine
 10
28.10000086032772
 20
121.9738143481889
 30
0.0
 11
36.70000086032684
 21
121.9738143481889
 31
0.0
  0
LINE
  5
3BD
330
2B8
100
AcDbEntity
  8
0
100
AcDbLine
 10
29.20000086032678
 20
126.2738143481892
 30
0.0
 11
35.10000086032681
 21
126.2738143481892
 31
0.0
  0
LINE
  5
3BE
330
2B8
100
AcDbEntity
  8
0
100
AcDbLine
 10
29.60000086032676
 20
127.5738143481889
 30
0.0
 11
38.94500086032684
 21
127.5738143481889
 31
0.0
  0
LINE
  5
3BF
330
2B8
100
AcDbEntity
  8
0
100
AcDbLine
 10
22.00000086032776
 20
111.000000269758
 30
0.0
 11
22.00000086032776
 21
120.8952565834811
 31
0.0
  0
LINE
  5
3C0
330
2B8
100
AcDbEntity
  8
0
100
AcDbLine
 10
23.00000086032774
 20
120.9738143481889
 30
0.0
 11
23.00000086032774
 21
110.1347147170121
 31
0.0
  0
LINE
  5
3C1
330
2B8
100
AcDbEntity
  8
0
100
AcDbLine
 10
22.00000086032776
 20
120.4738143481892
 30
0.0
 11
22.00000086032776
 21
110.9738143481901
 31
0.0
  0
LINE
  5
3C2
330
2B8
100
AcDbEntity
  8
0
100
AcDbLine
 10
22.00000086032776
 20
111.000000269758
 30
0.0
 11
19.00000086032775
 21
110.4710193276321
 31
0.0
  0
LINE
  5
3C3
330
2B8
100
AcDbEntity
  8
0
100
AcDbLine
 10
23.00000086032774
 20
110.1347147170121
 30
0.0
 11
20.00000086032776
 21
109.6057337748872
 31
0.0
  0
LINE
  5
3C4
330
2B8
100
AcDbEntity
  8
0
100
AcDbLine
 10
19.00000086032775
 20
110.4448334060641
 30
0.0
 11
22.00000086032776
 21
110.9738143481901
 31
0.0
  0
LINE
  5
3C5
330
2B8
100
AcDbEntity
  8
0
100
AcDbLine
 10
18.00000086032776
 20
121.0000002697581
 30
0.0
 11
22.00000086032776
 21
120.8952565834811
 31
0.0
  0
LINE
  5
3C6
330
2B8
100
AcDbEntity
  8
0
100
AcDbLine
 10
22.00000086032776
 20
120.4738143481892
 30
0.0
 11
23.00000086032774
 21
120.4738143481892
 31
0.0
  0
LINE
  5
3C7
330
2B8
100
AcDbEntity
  8
0
100
AcDbLine
 10
20.00000086032776
 20
120.9738143481889
 30
0.0
 11
20.00000086032776
 21
120.9476284266201
 31
0.0
  0
LINE
  5
3C8
330
2B8
100
AcDbEntity
  8
0
100
AcDbLine
 10
20.00000086032776
 20
120.9738143481889
 30
0.0
 11
20.00000086032776
 21
120.9476284266194
 31
0.0
  0
LINE
  5
3C9
330
2B8
100
AcDbEntity
  8
0
100
AcDbLine
 10
28.10000086032772
 20
120.9738143481889
 30
0.0
 11
28.10000086032772
 21
121.9738143481889
 31
0.0
  0
LINE
  5
3CA
330
2B8
100
AcDbEntity
  8
0
100
AcDbLine
 10
29.20000086032678
 20
121.9738143481889
 30
0.0
 11
29.20000086032678
 21
126.2738143481892
 31
0.0
  0
LINE
  5
3CB
330
2B8
100
AcDbEntity
  8
0
100
AcDbLine
 10
29.60000086032676
 20
126.2738143481889
 30
0.0
 11
29.60000086032676
 21
127.5738143481889
 31
0.0
  0
LINE
  5
3CC
330
2B8
100
AcDbEntity
  8
0
100
AcDbLine
 10
39.20000086032775
 20
107.4738143481889
 30
0.0
 11
39.20000086032775
 21
115.4738143481889
 31
0.0
  0
LINE
  5
3CD
330
2B8
100
AcDbEntity
  8
0
100
AcDbLine
 10
42.20000086032775
 20
105.4738143481889
 30
0.0
 11
42.20000086032775
 21
117.4738143481889
 31
0.0
  0
LINE
  5
3CE
330
2B8
100
AcDbEntity
  8
0
100
AcDbLine
 10
42.20000086032775
 20
105.4738143481889
 30
0.0
 11
34.00000086032775
 21
105.4738143481889
 31
0.0
  0
LINE
  5
3CF
330
2B8
100
AcDbEntity
  8
0
100
AcDbLine
 10
37.20000086032774
 20
109.4738143481889
 30
0.0
 11
37.20000086032774
 21
107.4738143481889
 31
0.0
  0
LINE
  5
3D0
330
2B8
100
AcDbEntity
  8
0
100
AcDbLine
 10
37.20000086032774
 20
107.4738143481889
 30
0.0
 11
39.20000086032775
 21
107.4738143481889
 31
0.0
  0
LINE
  5
3D1
330
2B8
100
AcDbEntity
  8
0
100
AcDbLine
 10
34.00000086032775
 20
109.4738143481889
 30
0.0
 11
34.00000086032775
 21
105.4738143481889
 31
0.0
  0
LINE
  5
3D2
330
2B8
100
AcDbEntity
  8
0
100
AcDbLine
 10
34.00000086032775
 20
109.4738143481889
 30
0.0
 11
37.20000086032774
 21
109.4738143481889
 31
0.0
  0
LINE
  5
3D3
330
2B8
100
AcDbEntity
  8
0
100
AcDbLine
 10
47.50000086032776
 20
98.97381434818921
 30
0.0
 11
47.50000086032776
 21
103.9738143481889
 31
0.0
  0
LINE
  5
3D4
330
2B8
100
AcDbEntity
  8
0
100
AcDbLine
 10
34.00000086032775
 20
117.4738143481889
 30
0.0
 11
42.20000086032775
 21
117.4738143481889
 31
0.0
  0
LINE
  5
3D5
330
2B8
100
AcDbEntity
  8
0
100
AcDbLine
 10
36.70000086032684
 20
121.9738143481889
 30
0.0
 11
36.70000086032684
 21
120.9738143481889
 31
0.0
  0
LINE
  5
3D6
330
2B8
100
AcDbEntity
  8
0
100
AcDbLine
 10
35.10000086032681
 20
126.2738143481892
 30
0.0
 11
35.10000086032681
 21
121.9738143481889
 31
0.0
  0
LINE
  5
3D7
330
2B8
100
AcDbEntity
  8
0
100
AcDbLine
 10
38.94500086032684
 20
127.5738143481889
 30
0.0
 11
38.94500086032684
 21
120.9738143481889
 31
0.0
  0
LINE
  5
3D8
330
2B8
100
AcDbEntity
  8
0
100
AcDbLine
 10
37.20000086032774
 20
113.4738143481889
 30
0.0
 11
37.20000086032774
 21
115.4738143481889
 31
0.0
  0
LINE
  5
3D9
330
2B8
100
AcDbEntity
  8
0
100
AcDbLine
 10
37.20000086032774
 20
115.4738143481889
 30
0.0
 11
39.20000086032775
 21
115.4738143481889
 31
0.0
  0
LINE
  5
3DA
330
2B8
100
AcDbEntity
  8
0
100
AcDbLine
 10
34.00000086032775
 20
113.4738143481889
 30
0.0
 11
34.00000086032775
 21
117.4738143481889
 31
0.0
  0
LINE
  5
3DB
330
2B8
100
AcDbEntity
  8
0
100
AcDbLine
 10
34.00000086032775
 20
113.4738143481889
 30
0.0
 11
37.20000086032774
 21
113.4738143481889
 31
0.0
  0
LINE
  5
3DC
330
2B8
100
AcDbEntity
  8
0
100
AcDbLine
 10
67.50000086032776
 20
92.00000026975715
 30
0.0
 11
67.50000086032776
 21
50.00000026975714
 31
0.0
  0
LINE
  5
3DD
330
2B8
100
AcDbEntity
  8
0
100
AcDbLine
 10
69.00000086032775
 20
54.97381434818919
 30
0.0
 11
69.00000086032775
 21
56.97381434818919
 31
0.0
  0
LINE
  5
3DE
330
2B8
100
AcDbEntity
  8
0
100
AcDbLine
 10
70.00000086032776
 20
54.97381434818919
 30
0.0
 11
70.00000086032776
 21
56.97381434818919
 31
0.0
  0
LINE
  5
3DF
330
2B8
100
AcDbEntity
  8
0
100
AcDbLine
 10
71.00000086032777
 20
21.97381434818919
 30
0.0
 11
71.00000086032777
 21
103.9738143481889
 31
0.0
  0
LINE
  5
3E0
330
2B8
100
AcDbEntity
  8
0
100
AcDbLine
 10
72.00000086032777
 20
3.585960505021147
 30
0.0
 11
72.00000086032777
 21
120.9738143481889
 31
0.0
  0
LINE
  5
3E1
330
2B8
100
AcDbEntity
  8
0
100
AcDbLine
 10
72.00000086032777
 20
0.0000002697581749
 30
0.0
 11
72.00000086032777
 21
3.585960505021147
 31
0.0
  0
LINE
  5
3E2
330
2B8
100
AcDbEntity
  8
0
100
AcDbLine
 10
63.00000086032776
 20
50.00000026975714
 30
0.0
 11
67.50000086032776
 21
50.00000026975714
 31
0.0
  0
LINE
  5
3E3
330
2B8
100
AcDbEntity
  8
0
100
AcDbLine
 10
63.00000086032776
 20
50.00000026975714
 30
0.0
 11
53.00000086032776
 21
50.00000026975717
 31
0.0
  0
LINE
  5
3E4
330
2B8
100
AcDbEntity
  8
0
100
AcDbLine
 10
53.00000086032776
 20
49.97381434818919
 30
0.0
 11
63.00000086032776
 21
49.97381434818919
 31
0.0
  0
LINE
  5
3E5
330
2B8
100
AcDbEntity
  8
0
100
AcDbLine
 10
53.00000086032776
 20
52.00000026975716
 30
0.0
 11
53.00000086032776
 21
49.97381434818919
 31
0.0
  0
ARC
  5
3E6
330
2B8
100
AcDbEntity
  8
0
100
AcDbCircle
 10
53.00000086032776
 20
50.4738143481892
 30
0.0
 40
0.5
100
AcDbArc
 50
251.374822272642
 51
270.0
  0
LINE
  5
3E7
330
2B8
100
AcDbEntity
  8
0
100
AcDbLine
 10
63.00000086032776
 20
49.97381434818919
 30
0.0
 11
63.00000086032776
 21
52.00000026975715
 31
0.0
  0
ARC
  5
3E8
330
2B8
100
AcDbEntity
  8
0
100
AcDbCircle
 10
63.00000086032776
 20
50.4738143481892
 30
0.0
 40
0.5
100
AcDbArc
 50
270.0
 51
288.6251777273578
  0
LINE
  5
3E9
330
2B8
100
AcDbEntity
  8
0
100
AcDbLine
 10
69.00000086032775
 20
33.97381434818919
 30
0.0
 11
69.00000086032775
 21
35.97381434818919
 31
0.0
  0
LINE
  5
3EA
330
2B8
100
AcDbEntity
  8
0
100
AcDbLine
 10
70.00000086032776
 20
33.97381434818919
 30
0.0
 11
70.00000086032776
 21
35.97381434818919
 31
0.0
  0
LINE
  5
3EB
330
2B8
100
AcDbEntity
  8
0
100
AcDbLine
 10
69.00000086032775
 20
26.97381434818919
 30
0.0
 11
69.00000086032775
 21
28.97381434818919
 31
0.0
  0
LINE
  5
3EC
330
2B8
100
AcDbEntity
  8
0
100
AcDbLine
 10
70.00000086032776
 20
26.97381434818919
 30
0.0
 11
70.00000086032776
 21
28.97381434818919
 31
0.0
  0
LINE
  5
3ED
330
2B8
100
AcDbEntity
  8
0
100
AcDbLine
 10
67.50000086032776
 20
50.00000026975714
 30
0.0
 11
67.50000086032776
 21
50.00000026975714
 31
0.0
  0
LINE
  5
3EE
330
2B8
100
AcDbEntity
  8
0
100
AcDbLine
 10
69.00000086032775
 20
40.97381434818919
 30
0.0
 11
69.00000086032775
 21
42.97381434818919
 31
0.0
  0
LINE
  5
3EF
330
2B8
100
AcDbEntity
  8
0
100
AcDbLine
 10
70.00000086032776
 20
40.97381434818919
 30
0.0
 11
70.00000086032776
 21
42.97381434818919
 31
0.0
  0
LINE
  5
3F0
330
2B8
100
AcDbEntity
  8
0
100
AcDbLine
 10
71.00000086032777
 20
49.97381434818919
 30
0.0
 11
69.00000086032775
 21
49.97381434818919
 31
0.0
  0
LINE
  5
3F1
330
2B8
100
AcDbEntity
  8
0
100
AcDbLine
 10
71.00000086032777
 20
47.97381434818919
 30
0.0
 11
69.00000086032775
 21
47.97381434818919
 31
0.0
  0
LINE
  5
3F2
330
2B8
100
AcDbEntity
  8
0
100
AcDbLine
 10
69.00000086032775
 20
47.97381434818919
 30
0.0
 11
69.00000086032775
 21
49.97381434818919
 31
0.0
  0
LINE
  5
3F3
330
2B8
100
AcDbEntity
  8
0
100
AcDbLine
 10
70.00000086032776
 20
47.97381434818919
 30
0.0
 11
70.00000086032776
 21
49.97381434818919
 31
0.0
  0
LINE
  5
3F4
330
2B8
100
AcDbEntity
  8
0
100
AcDbLine
 10
68.50000086032776
 20
54.97381434818919
 30
0.0
 11
68.50000086032776
 21
48.97381434818919
 31
0.0
  0
LINE
  5
3F5
330
2B8
100
AcDbEntity
  8
0
100
AcDbLine
 10
71.00000086032777
 20
54.97381434818919
 30
0.0
 11
67.5000008603277
 21
54.97381434818919
 31
0.0
  0
LINE
  5
3F6
330
2B8
100
AcDbEntity
  8
0
100
AcDbLine
 10
67.44722267417279
 20
102.0000002697571
 30
0.0
 11
67.44722267417279
 21
92.00000026975715
 31
0.0
  0
LINE
  5
3F7
330
2B8
100
AcDbEntity
  8
0
100
AcDbLine
 10
68.50000086032776
 20
96.97381434818922
 30
0.0
 11
68.50000086032776
 21
70.97381434818919
 31
0.0
  0
LINE
  5
3F8
330
2B8
100
AcDbEntity
  8
0
100
AcDbLine
 10
68.50000086032776
 20
61.97381434818919
 30
0.0
 11
68.50000086032776
 21
56.97381434818919
 31
0.0
  0
LINE
  5
3F9
330
2B8
100
AcDbEntity
  8
0
100
AcDbLine
 10
69.00000086032775
 20
68.97381434818919
 30
0.0
 11
69.00000086032775
 21
70.97381434818919
 31
0.0
  0
LINE
  5
3FA
330
2B8
100
AcDbEntity
  8
0
100
AcDbLine
 10
70.00000086032776
 20
68.97381434818919
 30
0.0
 11
70.00000086032776
 21
70.97381434818919
 31
0.0
  0
LINE
  5
3FB
330
2B8
100
AcDbEntity
  8
0
100
AcDbLine
 10
68.50000086032776
 20
68.97381434818919
 30
0.0
 11
68.50000086032776
 21
63.97381434818919
 31
0.0
  0
LINE
  5
3FC
330
2B8
100
AcDbEntity
  8
0
100
AcDbLine
 10
69.00000086032775
 20
61.97381434818919
 30
0.0
 11
69.00000086032775
 21
63.97381434818919
 31
0.0
  0
LINE
  5
3FD
330
2B8
100
AcDbEntity
  8
0
100
AcDbLine
 10
70.00000086032776
 20
61.97381434818919
 30
0.0
 11
70.00000086032776
 21
63.97381434818919
 31
0.0
  0
LINE
  5
3FE
330
2B8
100
AcDbEntity
  8
0
100
AcDbLine
 10
71.00000086032777
 20
70.97381434818919
 30
0.0
 11
67.5000008603277
 21
70.97381434818919
 31
0.0
  0
LINE
  5
3FF
330
2B8
100
AcDbEntity
  8
0
100
AcDbLine
 10
71.00000086032777
 20
68.97381434818919
 30
0.0
 11
67.5000008603277
 21
68.97381434818919
 31
0.0
  0
LINE
  5
400
330
2B8
100
AcDbEntity
  8
0
100
AcDbLine
 10
71.00000086032777
 20
63.97381434818919
 30
0.0
 11
67.5000008603277
 21
63.97381434818919
 31
0.0
  0
LINE
  5
401
330
2B8
100
AcDbEntity
  8
0
100
AcDbLine
 10
71.00000086032777
 20
61.97381434818919
 30
0.0
 11
67.5000008603277
 21
61.97381434818919
 31
0.0
  0
LINE
  5
402
330
2B8
100
AcDbEntity
  8
0
100
AcDbLine
 10
71.00000086032777
 20
56.97381434818919
 30
0.0
 11
67.5000008603277
 21
56.97381434818919
 31
0.0
  0
LINE
  5
403
330
2B8
100
AcDbEntity
  8
0
100
AcDbLine
 10
71.00000086032777
 20
77.9738143481892
 30
0.0
 11
69.00000086032775
 21
77.9738143481892
 31
0.0
  0
LINE
  5
404
330
2B8
100
AcDbEntity
  8
0
100
AcDbLine
 10
71.00000086032777
 20
75.97381434818919
 30
0.0
 11
69.00000086032775
 21
75.97381434818919
 31
0.0
  0
LINE
  5
405
330
2B8
100
AcDbEntity
  8
0
100
AcDbLine
 10
69.00000086032775
 20
75.97381434818919
 30
0.0
 11
69.00000086032775
 21
77.9738143481892
 31
0.0
  0
LINE
  5
406
330
2B8
100
AcDbEntity
  8
0
100
AcDbLine
 10
70.00000086032776
 20
75.97381434818919
 30
0.0
 11
70.00000086032776
 21
77.9738143481892
 31
0.0
  0
LINE
  5
407
330
2B8
100
AcDbEntity
  8
0
100
AcDbLine
 10
71.00000086032777
 20
84.97381434818919
 30
0.0
 11
69.00000086032775
 21
84.97381434818919
 31
0.0
  0
LINE
  5
408
330
2B8
100
AcDbEntity
  8
0
100
AcDbLine
 10
71.00000086032777
 20
82.97381434818921
 30
0.0
 11
69.00000086032775
 21
82.97381434818921
 31
0.0
  0
LINE
  5
409
330
2B8
100
AcDbEntity
  8
0
100
AcDbLine
 10
69.00000086032775
 20
82.97381434818921
 30
0.0
 11
69.00000086032775
 21
84.97381434818919
 31
0.0
  0
LINE
  5
40A
330
2B8
100
AcDbEntity
  8
0
100
AcDbLine
 10
70.00000086032776
 20
82.97381434818921
 30
0.0
 11
70.00000086032776
 21
84.97381434818919
 31
0.0
  0
LINE
  5
40B
330
2B8
100
AcDbEntity
  8
0
100
AcDbLine
 10
71.00000086032777
 20
91.9738143481892
 30
0.0
 11
69.00000086032775
 21
91.9738143481892
 31
0.0
  0
LINE
  5
40C
330
2B8
100
AcDbEntity
  8
0
100
AcDbLine
 10
71.00000086032777
 20
89.97381434818917
 30
0.0
 11
69.00000086032775
 21
89.97381434818917
 31
0.0
  0
LINE
  5
40D
330
2B8
100
AcDbEntity
  8
0
100
AcDbLine
 10
69.00000086032775
 20
89.97381434818917
 30
0.0
 11
69.00000086032775
 21
91.9738143481892
 31
0.0
  0
LINE
  5
40E
330
2B8
100
AcDbEntity
  8
0
100
AcDbLine
 10
70.00000086032776
 20
89.97381434818917
 30
0.0
 11
70.00000086032776
 21
91.9738143481892
 31
0.0
  0
ARC
  5
40F
330
2B8
100
AcDbEntity
  8
0
100
AcDbCircle
 10
67.00000086032776
 20
91.97381434818916
 30
0.0
 40
0.5
100
AcDbArc
 50
0.0
 51
26.56294527600439
  0
LINE
  5
410
330
2B8
100
AcDbEntity
  8
0
100
AcDbLine
 10
67.50000086032776
 20
86.9738143481892
 30
0.0
 11
67.50000086032776
 21
91.9738143481892
 31
0.0
  0
LINE
  5
411
330
2B8
100
AcDbEntity
  8
0
100
AcDbLine
 10
65.50000086032776
 20
102.0000002697571
 30
0.0
 11
64.00000086032775
 21
102.0000002697571
 31
0.0
  0
LINE
  5
412
330
2B8
100
AcDbEntity
  8
0
100
AcDbLine
 10
55.15000086032777
 20
124.3738143481889
 30
0.0
 11
61.4500008603278
 21
124.3738143481889
 31
0.0
  0
LINE
  5
413
330
2B8
100
AcDbEntity
  8
0
100
AcDbLine
 10
55.15000086032777
 20
120.9738143481889
 30
0.0
 11
55.15000086032777
 21
124.3738143481889
 31
0.0
  0
LINE
  5
414
330
2B8
100
AcDbEntity
  8
0
100
AcDbLine
 10
54.35000086032681
 20
130.1738143481891
 30
0.0
 11
56.60000086032681
 21
130.1738143481892
 31
0.0
  0
LINE
  5
415
330
2B8
100
AcDbEntity
  8
0
100
AcDbLine
 10
54.35000086032681
 20
120.9738143481889
 30
0.0
 11
54.35000086032681
 21
130.1738143481891
 31
0.0
  0
LINE
  5
416
330
2B8
100
AcDbEntity
  8
0
100
AcDbLine
 10
54.35000086032681
 20
120.9738143481889
 30
0.0
 11
54.35000086032687
 21
130.1738143481891
 31
0.0
  0
LINE
  5
417
330
2B8
100
AcDbEntity
  8
0
100
AcDbLine
 10
61.4500008603278
 20
124.3738143481889
 30
0.0
 11
61.4500008603278
 21
120.9738143481889
 31
0.0
  0
LINE
  5
418
330
2B8
100
AcDbEntity
  8
0
100
AcDbLine
 10
60.60000086032676
 20
130.1738143481892
 30
0.0
 11
62.85000086032681
 21
130.1738143481891
 31
0.0
  0
LINE
  5
419
330
2B8
100
AcDbEntity
  8
0
100
AcDbLine
 10
62.85000086032676
 20
130.1738143481891
 30
0.0
 11
62.85000086032681
 21
120.9738143481889
 31
0.0
  0
LINE
  5
41A
330
2B8
100
AcDbEntity
  8
0
100
AcDbLine
 10
68.50000086032776
 20
103.9738143481889
 30
0.0
 11
68.50000086032776
 21
98.97381434818921
 31
0.0
  0
LINE
  5
41B
330
2B8
100
AcDbEntity
  8
0
100
AcDbLine
 10
69.00000086032775
 20
96.97381434818922
 30
0.0
 11
69.00000086032775
 21
98.97381434818921
 31
0.0
  0
LINE
  5
41C
330
2B8
100
AcDbEntity
  8
0
100
AcDbLine
 10
70.00000086032776
 20
96.97381434818922
 30
0.0
 11
70.00000086032776
 21
98.97381434818921
 31
0.0
  0
LINE
  5
41D
330
2B8
100
AcDbEntity
  8
0
100
AcDbLine
 10
71.00000086032777
 20
98.97381434818921
 30
0.0
 11
67.44722267417279
 21
98.97381434818921
 31
0.0
  0
LINE
  5
41E
330
2B8
100
AcDbEntity
  8
0
100
AcDbLine
 10
71.00000086032777
 20
96.97381434818922
 30
0.0
 11
67.44722267417279
 21
96.97381434818922
 31
0.0
  0
LINE
  5
41F
330
2B8
100
AcDbEntity
  8
0
100
AcDbLine
 10
60.60000086032681
 20
135.6738143481891
 30
0.0
 11
56.60000086032681
 21
135.6738143481891
 31
0.0
  0
LINE
  5
420
330
2B8
100
AcDbEntity
  8
0
100
AcDbLine
 10
56.60000086032681
 20
135.6738143481891
 30
0.0
 11
60.60000086032681
 21
135.6738143481891
 31
0.0
  0
ENDBLK
  5
422
330
2B8
100
AcDbEntity
  8
0
100
AcDbBlockEnd
  0
BLOCK
  5
514
330
423
100
AcDbEntity
  8
0
100
AcDbBlockBegin
  2
A$C2F474FB8
 70
     0
 10
0.0
 20
0.0
 30
0.0
  3
A$C2F474FB8
  1

  0
LINE
  5
424
330
423
100
AcDbEntity
  8
0
100
AcDbLine
 10
135.7000007363554
 20
200.3690706232759
 30
0.0
 11
135.7000007363554
 21
6.630929838967857
 31
0.0
  0
LINE
  5
425
330
423
100
AcDbEntity
  8
0
100
AcDbLine
 10
130.7000007363555
 20
6.500000231121872
 30
0.0
 11
130.7000007363555
 21
16.50000023112187
 31
0.0
  0
LINE
  5
426
330
423
100
AcDbEntity
  8
0
100
AcDbLine
 10
14.70000073635648
 20
16.50000023112187
 30
0.0
 11
14.70000073635648
 21
190.5000002311219
 31
0.0
  0
LINE
  5
427
330
423
100
AcDbEntity
  8
0
100
AcDbLine
 10
14.70000073635648
 20
190.5000002311219
 30
0.0
 11
130.7000007363555
 21
190.5000002311219
 31
0.0
  0
LINE
  5
428
330
423
100
AcDbEntity
  8
0
100
AcDbLine
 10
14.70000073635648
 20
16.50000023112187
 30
0.0
 11
130.7000007363555
 21
16.50000023112187
 31
0.0
  0
LINE
  5
429
330
423
100
AcDbEntity
  8
0
100
AcDbLine
 10
130.7000007363555
 20
200.5000002311219
 30
0.0
 11
135.7000007363554
 21
200.3690706232759
 31
0.0
  0
LINE
  5
42A
330
423
100
AcDbEntity
  8
0
100
AcDbLine
 10
132.1140405010924
 20
200.4629722967464
 30
0.0
 11
132.1140405010915
 21
6.537028165496847
 31
0.0
  0
LINE
  5
42B
330
423
100
AcDbEntity
  8
0
100
AcDbLine
 10
130.7000007363555
 20
6.500000231121872
 30
0.0
 11
135.7000007363554
 21
6.630929838967857
 31
0.0
  0
LINE
  5
42C
330
423
100
AcDbEntity
  8
0
100
AcDbLine
 10
14.70000073635648
 20
16.50000023112187
 30
0.0
 11
14.70000073635648
 21
190.5000002311219
 31
0.0
  0
LINE
  5
42D
330
423
100
AcDbEntity
  8
0
100
AcDbLine
 10
14.70000073635648
 20
190.5000002311219
 30
0.0
 11
132.0878545795242
 21
190.5000002311219
 31
0.0
  0
LINE
  5
42E
330
423
100
AcDbEntity
  8
0
100
AcDbLine
 10
31.70000073635651
 20
16.50000023112187
 30
0.0
 11
31.70000073635651
 21
190.5000002311219
 31
0.0
  0
LINE
  5
42F
330
423
100
AcDbEntity
  8
0
100
AcDbLine
 10
113.7000007363565
 20
16.50000023112187
 30
0.0
 11
113.7000007363565
 21
190.5000002311219
 31
0.0
  0
LINE
  5
430
330
423
100
AcDbEntity
  8
0
100
AcDbLine
 10
31.70000073635651
 20
189.5000002311219
 30
0.0
 11
113.7000007363565
 21
189.5000002311219
 31
0.0
  0
LINE
  5
431
330
423
100
AcDbEntity
  8
0
100
AcDbLine
 10
36.7000007363565
 20
187.5000002311218
 30
0.0
 11
38.70000073635651
 21
187.5000002311218
 31
0.0
  0
LINE
  5
432
330
423
100
AcDbEntity
  8
0
100
AcDbLine
 10
36.7000007363565
 20
17.50000023112187
 30
0.0
 11
36.7000007363565
 21
70.75000023112187
 31
0.0
  0
LINE
  5
433
330
423
100
AcDbEntity
  8
0
100
AcDbLine
 10
38.70000073635651
 20
17.50000023112187
 30
0.0
 11
38.70000073635651
 21
70.75000023112187
 31
0.0
  0
LINE
  5
434
330
423
100
AcDbEntity
  8
0
100
AcDbLine
 10
36.7000007363565
 20
136.2500002311217
 30
0.0
 11
38.70000073635651
 21
136.2500002311217
 31
0.0
  0
LINE
  5
435
330
423
100
AcDbEntity
  8
0
100
AcDbLine
 10
36.7000007363565
 20
70.75000023112187
 30
0.0
 11
38.70000073635651
 21
70.75000023112187
 31
0.0
  0
LINE
  5
436
330
423
100
AcDbEntity
  8
0
100
AcDbLine
 10
31.70000073635651
 20
17.50000023112187
 30
0.0
 11
113.7000007363565
 21
17.50000023112187
 31
0.0
  0
LINE
  5
437
330
423
100
AcDbEntity
  8
0
100
AcDbLine
 10
36.7000007363565
 20
19.50000023112187
 30
0.0
 11
38.70000073635651
 21
19.50000023112187
 31
0.0
  0
LINE
  5
438
330
423
100
AcDbEntity
  8
0
100
AcDbLine
 10
36.7000007363565
 20
136.2500002311217
 30
0.0
 11
36.7000007363565
 21
189.5000002311219
 31
0.0
  0
LINE
  5
439
330
423
100
AcDbEntity
  8
0
100
AcDbLine
 10
38.70000073635651
 20
136.2500002311217
 30
0.0
 11
38.70000073635651
 21
189.5000002311219
 31
0.0
  0
LINE
  5
43A
330
423
100
AcDbEntity
  8
0
100
AcDbLine
 10
43.70000073635649
 20
187.5000002311218
 30
0.0
 11
45.70000073635649
 21
187.5000002311218
 31
0.0
  0
LINE
  5
43B
330
423
100
AcDbEntity
  8
0
100
AcDbLine
 10
43.70000073635649
 20
17.50000023112187
 30
0.0
 11
43.70000073635649
 21
70.75000023112187
 31
0.0
  0
LINE
  5
43C
330
423
100
AcDbEntity
  8
0
100
AcDbLine
 10
45.70000073635649
 20
17.50000023112187
 30
0.0
 11
45.70000073635649
 21
70.75000023112187
 31
0.0
  0
LINE
  5
43D
330
423
100
AcDbEntity
  8
0
100
AcDbLine
 10
43.70000073635649
 20
136.2500002311217
 30
0.0
 11
45.70000073635649
 21
136.2500002311217
 31
0.0
  0
LINE
  5
43E
330
423
100
AcDbEntity
  8
0
100
AcDbLine
 10
43.70000073635649
 20
70.75000023112187
 30
0.0
 11
45.70000073635649
 21
70.75000023112187
 31
0.0
  0
LINE
  5
43F
330
423
100
AcDbEntity
  8
0
100
AcDbLine
 10
43.70000073635649
 20
19.50000023112187
 30
0.0
 11
45.70000073635649
 21
19.50000023112187
 31
0.0
  0
LINE
  5
440
330
423
100
AcDbEntity
  8
0
100
AcDbLine
 10
43.70000073635649
 20
136.2500002311217
 30
0.0
 11
43.70000073635649
 21
189.5000002311219
 31
0.0
  0
LINE
  5
441
330
423
100
AcDbEntity
  8
0
100
AcDbLine
 10
45.70000073635649
 20
136.2500002311217
 30
0.0
 11
45.70000073635649
 21
189.5000002311219
 31
0.0
  0
LINE
  5
442
330
423
100
AcDbEntity
  8
0
100
AcDbLine
 10
50.70000073635649
 20
187.5000002311218
 30
0.0
 11
52.7000007363565
 21
187.5000002311218
 31
0.0
  0
LINE
  5
443
330
423
100
AcDbEntity
  8
0
100
AcDbLine
 10
50.70000073635649
 20
17.50000023112187
 30
0.0
 11
50.70000073635649
 21
70.75000023112187
 31
0.0
  0
LINE
  5
444
330
423
100
AcDbEntity
  8
0
100
AcDbLine
 10
52.7000007363565
 20
17.50000023112187
 30
0.0
 11
52.7000007363565
 21
70.75000023112187
 31
0.0
  0
LINE
  5
445
330
423
100
AcDbEntity
  8
0
100
AcDbLine
 10
50.70000073635649
 20
136.2500002311217
 30
0.0
 11
52.7000007363565
 21
136.2500002311217
 31
0.0
  0
LINE
  5
446
330
423
100
AcDbEntity
  8
0
100
AcDbLine
 10
50.70000073635649
 20
70.75000023112187
 30
0.0
 11
52.7000007363565
 21
70.75000023112187
 31
0.0
  0
LINE
  5
447
330
423
100
AcDbEntity
  8
0
100
AcDbLine
 10
50.70000073635649
 20
19.50000023112187
 30
0.0
 11
52.7000007363565
 21
19.50000023112187
 31
0.0
  0
LINE
  5
448
330
423
100
AcDbEntity
  8
0
100
AcDbLine
 10
50.70000073635649
 20
136.2500002311217
 30
0.0
 11
50.70000073635649
 21
189.5000002311219
 31
0.0
  0
LINE
  5
449
330
423
100
AcDbEntity
  8
0
100
AcDbLine
 10
52.7000007363565
 20
136.2500002311217
 30
0.0
 11
52.7000007363565
 21
189.5000002311219
 31
0.0
  0
LINE
  5
44A
330
423
100
AcDbEntity
  8
0
100
AcDbLine
 10
57.7000007363565
 20
17.50000023112187
 30
0.0
 11
57.7000007363565
 21
70.75000023112187
 31
0.0
  0
LINE
  5
44B
330
423
100
AcDbEntity
  8
0
100
AcDbLine
 10
59.70000073635651
 20
17.50000023112187
 30
0.0
 11
59.70000073635651
 21
70.75000023112187
 31
0.0
  0
LINE
  5
44C
330
423
100
AcDbEntity
  8
0
100
AcDbLine
 10
57.7000007363565
 20
136.2500002311217
 30
0.0
 11
59.70000073635651
 21
136.2500002311217
 31
0.0
  0
LINE
  5
44D
330
423
100
AcDbEntity
  8
0
100
AcDbLine
 10
57.7000007363565
 20
70.75000023112187
 30
0.0
 11
59.70000073635651
 21
70.75000023112187
 31
0.0
  0
LINE
  5
44E
330
423
100
AcDbEntity
  8
0
100
AcDbLine
 10
57.7000007363565
 20
19.50000023112187
 30
0.0
 11
59.70000073635651
 21
19.50000023112187
 31
0.0
  0
LINE
  5
44F
330
423
100
AcDbEntity
  8
0
100
AcDbLine
 10
57.7000007363565
 20
136.2500002311217
 30
0.0
 11
57.7000007363565
 21
189.5000002311219
 31
0.0
  0
LINE
  5
450
330
423
100
AcDbEntity
  8
0
100
AcDbLine
 10
59.70000073635651
 20
136.2500002311217
 30
0.0
 11
59.70000073635651
 21
189.5000002311219
 31
0.0
  0
LINE
  5
451
330
423
100
AcDbEntity
  8
0
100
AcDbLine
 10
64.7000007363565
 20
187.5000002311218
 30
0.0
 11
66.70000073635653
 21
187.5000002311218
 31
0.0
  0
LINE
  5
452
330
423
100
AcDbEntity
  8
0
100
AcDbLine
 10
64.7000007363565
 20
17.50000023112187
 30
0.0
 11
64.7000007363565
 21
70.75000023112187
 31
0.0
  0
LINE
  5
453
330
423
100
AcDbEntity
  8
0
100
AcDbLine
 10
66.70000073635653
 20
17.50000023112187
 30
0.0
 11
66.70000073635653
 21
70.75000023112187
 31
0.0
  0
LINE
  5
454
330
423
100
AcDbEntity
  8
0
100
AcDbLine
 10
64.7000007363565
 20
136.2500002311217
 30
0.0
 11
66.70000073635653
 21
136.2500002311217
 31
0.0
  0
LINE
  5
455
330
423
100
AcDbEntity
  8
0
100
AcDbLine
 10
64.7000007363565
 20
70.75000023112187
 30
0.0
 11
66.70000073635653
 21
70.75000023112187
 31
0.0
  0
LINE
  5
456
330
423
100
AcDbEntity
  8
0
100
AcDbLine
 10
64.7000007363565
 20
19.50000023112187
 30
0.0
 11
66.70000073635653
 21
19.50000023112187
 31
0.0
  0
LINE
  5
457
330
423
100
AcDbEntity
  8
0
100
AcDbLine
 10
64.7000007363565
 20
136.2500002311217
 30
0.0
 11
64.7000007363565
 21
189.5000002311219
 31
0.0
  0
LINE
  5
458
330
423
100
AcDbEntity
  8
0
100
AcDbLine
 10
66.70000073635653
 20
136.2500002311217
 30
0.0
 11
66.70000073635653
 21
189.5000002311219
 31
0.0
  0
LINE
  5
459
330
423
100
AcDbEntity
  8
0
100
AcDbLine
 10
71.70000073635652
 20
187.5000002311218
 30
0.0
 11
73.70000073635651
 21
187.5000002311218
 31
0.0
  0
LINE
  5
45A
330
423
100
AcDbEntity
  8
0
100
AcDbLine
 10
71.70000073635652
 20
17.50000023112187
 30
0.0
 11
71.70000073635652
 21
70.75000023112187
 31
0.0
  0
LINE
  5
45B
330
423
100
AcDbEntity
  8
0
100
AcDbLine
 10
73.70000073635651
 20
17.50000023112187
 30
0.0
 11
73.70000073635651
 21
70.75000023112187
 31
0.0
  0
LINE
  5
45C
330
423
100
AcDbEntity
  8
0
100
AcDbLine
 10
71.70000073635652
 20
136.2500002311217
 30
0.0
 11
73.70000073635651
 21
136.2500002311217
 31
0.0
  0
LINE
  5
45D
330
423
100
AcDbEntity
  8
0
100
AcDbLine
 10
71.70000073635652
 20
70.75000023112187
 30
0.0
 11
73.70000073635651
 21
70.75000023112187
 31
0.0
  0
LINE
  5
45E
330
423
100
AcDbEntity
  8
0
100
AcDbLine
 10
71.70000073635652
 20
19.50000023112187
 30
0.0
 11
73.70000073635651
 21
19.50000023112187
 31
0.0
  0
LINE
  5
45F
330
423
100
AcDbEntity
  8
0
100
AcDbLine
 10
71.70000073635652
 20
136.2500002311217
 30
0.0
 11
71.70000073635652
 21
189.5000002311219
 31
0.0
  0
LINE
  5
460
330
423
100
AcDbEntity
  8
0
100
AcDbLine
 10
73.70000073635651
 20
136.2500002311217
 30
0.0
 11
73.70000073635651
 21
189.5000002311219
 31
0.0
  0
LINE
  5
461
330
423
100
AcDbEntity
  8
0
100
AcDbLine
 10
78.70000073635651
 20
187.5000002311218
 30
0.0
 11
80.70000073635652
 21
187.5000002311218
 31
0.0
  0
LINE
  5
462
330
423
100
AcDbEntity
  8
0
100
AcDbLine
 10
78.70000073635651
 20
17.50000023112187
 30
0.0
 11
78.70000073635651
 21
70.75000023112187
 31
0.0
  0
LINE
  5
463
330
423
100
AcDbEntity
  8
0
100
AcDbLine
 10
80.70000073635652
 20
17.50000023112187
 30
0.0
 11
80.70000073635652
 21
70.75000023112187
 31
0.0
  0
LINE
  5
464
330
423
100
AcDbEntity
  8
0
100
AcDbLine
 10
78.70000073635651
 20
136.2500002311217
 30
0.0
 11
80.70000073635652
 21
136.2500002311217
 31
0.0
  0
LINE
  5
465
330
423
100
AcDbEntity
  8
0
100
AcDbLine
 10
78.70000073635651
 20
70.75000023112187
 30
0.0
 11
80.70000073635652
 21
70.75000023112187
 31
0.0
  0
LINE
  5
466
330
423
100
AcDbEntity
  8
0
100
AcDbLine
 10
78.70000073635651
 20
19.50000023112187
 30
0.0
 11
80.70000073635652
 21
19.50000023112187
 31
0.0
  0
LINE
  5
467
330
423
100
AcDbEntity
  8
0
100
AcDbLine
 10
78.70000073635651
 20
136.2500002311217
 30
0.0
 11
78.70000073635651
 21
189.5000002311219
 31
0.0
  0
LINE
  5
468
330
423
100
AcDbEntity
  8
0
100
AcDbLine
 10
80.70000073635652
 20
136.2500002311217
 30
0.0
 11
80.70000073635652
 21
189.5000002311219
 31
0.0
  0
LINE
  5
469
330
423
100
AcDbEntity
  8
0
100
AcDbLine
 10
85.70000073635652
 20
187.5000002311218
 30
0.0
 11
87.7000007363565
 21
187.5000002311218
 31
0.0
  0
LINE
  5
46A
330
423
100
AcDbEntity
  8
0
100
AcDbLine
 10
85.70000073635652
 20
17.50000023112187
 30
0.0
 11
85.70000073635652
 21
70.75000023112187
 31
0.0
  0
LINE
  5
46B
330
423
100
AcDbEntity
  8
0
100
AcDbLine
 10
87.7000007363565
 20
17.50000023112187
 30
0.0
 11
87.7000007363565
 21
70.75000023112187
 31
0.0
  0
LINE
  5
46C
330
423
100
AcDbEntity
  8
0
100
AcDbLine
 10
85.70000073635652
 20
136.2500002311217
 30
0.0
 11
87.7000007363565
 21
136.2500002311217
 31
0.0
  0
LINE
  5
46D
330
423
100
AcDbEntity
  8
0
100
AcDbLine
 10
85.70000073635652
 20
70.75000023112187
 30
0.0
 11
87.7000007363565
 21
70.75000023112187
 31
0.0
  0
LINE
  5
46E
330
423
100
AcDbEntity
  8
0
100
AcDbLine
 10
85.70000073635652
 20
19.50000023112187
 30
0.0
 11
87.7000007363565
 21
19.50000023112187
 31
0.0
  0
LINE
  5
46F
330
423
100
AcDbEntity
  8
0
100
AcDbLine
 10
85.70000073635652
 20
136.2500002311217
 30
0.0
 11
85.70000073635652
 21
189.5000002311219
 31
0.0
  0
LINE
  5
470
330
423
100
AcDbEntity
  8
0
100
AcDbLine
 10
87.7000007363565
 20
136.2500002311217
 30
0.0
 11
87.7000007363565
 21
189.5000002311219
 31
0.0
  0
LINE
  5
471
330
423
100
AcDbEntity
  8
0
100
AcDbLine
 10
92.7000007363565
 20
187.5000002311218
 30
0.0
 11
94.70000073635651
 21
187.5000002311218
 31
0.0
  0
LINE
  5
472
330
423
100
AcDbEntity
  8
0
100
AcDbLine
 10
92.7000007363565
 20
17.50000023112187
 30
0.0
 11
92.7000007363565
 21
70.75000023112187
 31
0.0
  0
LINE
  5
473
330
423
100
AcDbEntity
  8
0
100
AcDbLine
 10
94.70000073635651
 20
17.50000023112187
 30
0.0
 11
94.70000073635651
 21
70.75000023112187
 31
0.0
  0
LINE
  5
474
330
423
100
AcDbEntity
  8
0
100
AcDbLine
 10
92.7000007363565
 20
136.2500002311217
 30
0.0
 11
94.70000073635651
 21
136.2500002311217
 31
0.0
  0
LINE
  5
475
330
423
100
AcDbEntity
  8
0
100
AcDbLine
 10
92.7000007363565
 20
70.75000023112187
 30
0.0
 11
94.70000073635651
 21
70.75000023112187
 31
0.0
  0
LINE
  5
476
330
423
100
AcDbEntity
  8
0
100
AcDbLine
 10
92.7000007363565
 20
19.50000023112187
 30
0.0
 11
94.70000073635651
 21
19.50000023112187
 31
0.0
  0
LINE
  5
477
330
423
100
AcDbEntity
  8
0
100
AcDbLine
 10
92.7000007363565
 20
136.2500002311217
 30
0.0
 11
92.7000007363565
 21
189.5000002311219
 31
0.0
  0
LINE
  5
478
330
423
100
AcDbEntity
  8
0
100
AcDbLine
 10
94.70000073635651
 20
136.2500002311217
 30
0.0
 11
94.70000073635651
 21
189.5000002311219
 31
0.0
  0
LINE
  5
479
330
423
100
AcDbEntity
  8
0
100
AcDbLine
 10
99.70000073635651
 20
187.5000002311218
 30
0.0
 11
101.7000007363564
 21
187.5000002311218
 31
0.0
  0
LINE
  5
47A
330
423
100
AcDbEntity
  8
0
100
AcDbLine
 10
99.70000073635651
 20
17.50000023112187
 30
0.0
 11
99.70000073635651
 21
70.75000023112187
 31
0.0
  0
LINE
  5
47B
330
423
100
AcDbEntity
  8
0
100
AcDbLine
 10
101.7000007363564
 20
17.50000023112187
 30
0.0
 11
101.7000007363564
 21
70.75000023112187
 31
0.0
  0
LINE
  5
47C
330
423
100
AcDbEntity
  8
0
100
AcDbLine
 10
99.70000073635651
 20
136.2500002311217
 30
0.0
 11
101.7000007363564
 21
136.2500002311217
 31
0.0
  0
LINE
  5
47D
330
423
100
AcDbEntity
  8
0
100
AcDbLine
 10
99.70000073635651
 20
70.75000023112187
 30
0.0
 11
101.7000007363564
 21
70.75000023112187
 31
0.0
  0
LINE
  5
47E
330
423
100
AcDbEntity
  8
0
100
AcDbLine
 10
99.70000073635651
 20
19.50000023112187
 30
0.0
 11
101.7000007363564
 21
19.50000023112187
 31
0.0
  0
LINE
  5
47F
330
423
100
AcDbEntity
  8
0
100
AcDbLine
 10
99.70000073635651
 20
136.2500002311217
 30
0.0
 11
99.70000073635651
 21
189.5000002311219
 31
0.0
  0
LINE
  5
480
330
423
100
AcDbEntity
  8
0
100
AcDbLine
 10
101.7000007363564
 20
136.2500002311217
 30
0.0
 11
101.7000007363564
 21
189.5000002311219
 31
0.0
  0
LINE
  5
481
330
423
100
AcDbEntity
  8
0
100
AcDbLine
 10
106.7000007363565
 20
187.5000002311218
 30
0.0
 11
108.7000007363565
 21
187.5000002311218
 31
0.0
  0
LINE
  5
482
330
423
100
AcDbEntity
  8
0
100
AcDbLine
 10
106.7000007363565
 20
17.50000023112187
 30
0.0
 11
106.7000007363565
 21
70.75000023112187
 31
0.0
  0
LINE
  5
483
330
423
100
AcDbEntity
  8
0
100
AcDbLine
 10
108.7000007363565
 20
17.50000023112187
 30
0.0
 11
108.7000007363565
 21
70.75000023112187
 31
0.0
  0
LINE
  5
484
330
423
100
AcDbEntity
  8
0
100
AcDbLine
 10
106.7000007363565
 20
136.2500002311217
 30
0.0
 11
108.7000007363565
 21
136.2500002311217
 31
0.0
  0
LINE
  5
485
330
423
100
AcDbEntity
  8
0
100
AcDbLine
 10
106.7000007363565
 20
70.75000023112187
 30
0.0
 11
108.7000007363565
 21
70.75000023112187
 31
0.0
  0
LINE
  5
486
330
423
100
AcDbEntity
  8
0
100
AcDbLine
 10
106.7000007363565
 20
19.50000023112187
 30
0.0
 11
108.7000007363565
 21
19.50000023112187
 31
0.0
  0
LINE
  5
487
330
423
100
AcDbEntity
  8
0
100
AcDbLine
 10
106.7000007363565
 20
136.2500002311217
 30
0.0
 11
106.7000007363565
 21
189.5000002311219
 31
0.0
  0
LINE
  5
488
330
423
100
AcDbEntity
  8
0
100
AcDbLine
 10
108.7000007363565
 20
136.2500002311217
 30
0.0
 11
108.7000007363565
 21
189.5000002311219
 31
0.0
  0
LINE
  5
489
330
423
100
AcDbEntity
  8
0
100
AcDbLine
 10
36.7000007363565
 20
165.0000002311219
 30
0.0
 11
38.70000073635651
 21
165.0000002311219
 31
0.0
  0
LINE
  5
48A
330
423
100
AcDbEntity
  8
0
100
AcDbLine
 10
36.7000007363565
 20
162.0000002311219
 30
0.0
 11
38.70000073635651
 21
162.0000002311219
 31
0.0
  0
LINE
  5
48B
330
423
100
AcDbEntity
  8
0
100
AcDbLine
 10
36.7000007363565
 20
45.00000023112185
 30
0.0
 11
38.70000073635651
 21
45.00000023112185
 31
0.0
  0
LINE
  5
48C
330
423
100
AcDbEntity
  8
0
100
AcDbLine
 10
36.7000007363565
 20
42.00000023112187
 30
0.0
 11
38.70000073635651
 21
42.00000023112187
 31
0.0
  0
LINE
  5
48D
330
423
100
AcDbEntity
  8
0
100
AcDbLine
 10
43.70000073635649
 20
165.0000002311219
 30
0.0
 11
45.70000073635649
 21
165.0000002311219
 31
0.0
  0
LINE
  5
48E
330
423
100
AcDbEntity
  8
0
100
AcDbLine
 10
43.70000073635649
 20
162.0000002311219
 30
0.0
 11
45.70000073635649
 21
162.0000002311219
 31
0.0
  0
LINE
  5
48F
330
423
100
AcDbEntity
  8
0
100
AcDbLine
 10
43.70000073635649
 20
45.00000023112185
 30
0.0
 11
45.70000073635649
 21
45.00000023112185
 31
0.0
  0
LINE
  5
490
330
423
100
AcDbEntity
  8
0
100
AcDbLine
 10
43.70000073635649
 20
42.00000023112187
 30
0.0
 11
45.70000073635649
 21
42.00000023112187
 31
0.0
  0
LINE
  5
491
330
423
100
AcDbEntity
  8
0
100
AcDbLine
 10
50.70000073635649
 20
165.0000002311219
 30
0.0
 11
52.7000007363565
 21
165.0000002311219
 31
0.0
  0
LINE
  5
492
330
423
100
AcDbEntity
  8
0
100
AcDbLine
 10
50.70000073635649
 20
162.0000002311219
 30
0.0
 11
52.7000007363565
 21
162.0000002311219
 31
0.0
  0
LINE
  5
493
330
423
100
AcDbEntity
  8
0
100
AcDbLine
 10
50.70000073635649
 20
45.00000023112185
 30
0.0
 11
52.7000007363565
 21
45.00000023112185
 31
0.0
  0
LINE
  5
494
330
423
100
AcDbEntity
  8
0
100
AcDbLine
 10
50.70000073635649
 20
42.00000023112187
 30
0.0
 11
52.7000007363565
 21
42.00000023112187
 31
0.0
  0
LINE
  5
495
330
423
100
AcDbEntity
  8
0
100
AcDbLine
 10
57.7000007363565
 20
165.0000002311219
 30
0.0
 11
59.70000073635651
 21
165.0000002311219
 31
0.0
  0
LINE
  5
496
330
423
100
AcDbEntity
  8
0
100
AcDbLine
 10
57.7000007363565
 20
162.0000002311219
 30
0.0
 11
59.70000073635651
 21
162.0000002311219
 31
0.0
  0
LINE
  5
497
330
423
100
AcDbEntity
  8
0
100
AcDbLine
 10
57.7000007363565
 20
45.00000023112185
 30
0.0
 11
59.70000073635651
 21
45.00000023112185
 31
0.0
  0
LINE
  5
498
330
423
100
AcDbEntity
  8
0
100
AcDbLine
 10
57.7000007363565
 20
42.00000023112187
 30
0.0
 11
59.70000073635651
 21
42.00000023112187
 31
0.0
  0
LINE
  5
499
330
423
100
AcDbEntity
  8
0
100
AcDbLine
 10
64.7000007363565
 20
165.0000002311219
 30
0.0
 11
66.70000073635653
 21
165.0000002311219
 31
0.0
  0
LINE
  5
49A
330
423
100
AcDbEntity
  8
0
100
AcDbLine
 10
64.7000007363565
 20
162.0000002311219
 30
0.0
 11
66.70000073635653
 21
162.0000002311219
 31
0.0
  0
LINE
  5
49B
330
423
100
AcDbEntity
  8
0
100
AcDbLine
 10
64.7000007363565
 20
45.00000023112185
 30
0.0
 11
66.70000073635653
 21
45.00000023112185
 31
0.0
  0
LINE
  5
49C
330
423
100
AcDbEntity
  8
0
100
AcDbLine
 10
64.7000007363565
 20
42.00000023112187
 30
0.0
 11
66.70000073635653
 21
42.00000023112187
 31
0.0
  0
LINE
  5
49D
330
423
100
AcDbEntity
  8
0
100
AcDbLine
 10
71.70000073635652
 20
165.0000002311219
 30
0.0
 11
73.70000073635651
 21
165.0000002311219
 31
0.0
  0
LINE
  5
49E
330
423
100
AcDbEntity
  8
0
100
AcDbLine
 10
71.70000073635652
 20
162.0000002311219
 30
0.0
 11
73.70000073635651
 21
162.0000002311219
 31
0.0
  0
LINE
  5
49F
330
423
100
AcDbEntity
  8
0
100
AcDbLine
 10
71.70000073635652
 20
45.00000023112185
 30
0.0
 11
73.70000073635651
 21
45.00000023112185
 31
0.0
  0
LINE
  5
4A0
330
423
100
AcDbEntity
  8
0
100
AcDbLine
 10
71.70000073635652
 20
42.00000023112187
 30
0.0
 11
73.70000073635651
 21
42.00000023112187
 31
0.0
  0
LINE
  5
4A1
330
423
100
AcDbEntity
  8
0
100
AcDbLine
 10
78.70000073635651
 20
165.0000002311219
 30
0.0
 11
80.70000073635652
 21
165.0000002311219
 31
0.0
  0
LINE
  5
4A2
330
423
100
AcDbEntity
  8
0
100
AcDbLine
 10
78.70000073635651
 20
162.0000002311219
 30
0.0
 11
80.70000073635652
 21
162.0000002311219
 31
0.0
  0
LINE
  5
4A3
330
423
100
AcDbEntity
  8
0
100
AcDbLine
 10
78.70000073635651
 20
45.00000023112185
 30
0.0
 11
80.70000073635652
 21
45.00000023112185
 31
0.0
  0
LINE
  5
4A4
330
423
100
AcDbEntity
  8
0
100
AcDbLine
 10
78.70000073635651
 20
42.00000023112187
 30
0.0
 11
80.70000073635652
 21
42.00000023112187
 31
0.0
  0
LINE
  5
4A5
330
423
100
AcDbEntity
  8
0
100
AcDbLine
 10
85.70000073635652
 20
165.0000002311219
 30
0.0
 11
87.7000007363565
 21
165.0000002311219
 31
0.0
  0
LINE
  5
4A6
330
423
100
AcDbEntity
  8
0
100
AcDbLine
 10
85.70000073635652
 20
162.0000002311219
 30
0.0
 11
87.7000007363565
 21
162.0000002311219
 31
0.0
  0
LINE
  5
4A7
330
423
100
AcDbEntity
  8
0
100
AcDbLine
 10
85.70000073635652
 20
45.00000023112185
 30
0.0
 11
87.7000007363565
 21
45.00000023112185
 31
0.0
  0
LINE
  5
4A8
330
423
100
AcDbEntity
  8
0
100
AcDbLine
 10
85.70000073635652
 20
42.00000023112187
 30
0.0
 11
87.7000007363565
 21
42.00000023112187
 31
0.0
  0
LINE
  5
4A9
330
423
100
AcDbEntity
  8
0
100
AcDbLine
 10
92.7000007363565
 20
165.0000002311219
 30
0.0
 11
94.70000073635651
 21
165.0000002311219
 31
0.0
  0
LINE
  5
4AA
330
423
100
AcDbEntity
  8
0
100
AcDbLine
 10
92.7000007363565
 20
162.0000002311219
 30
0.0
 11
94.70000073635651
 21
162.0000002311219
 31
0.0
  0
LINE
  5
4AB
330
423
100
AcDbEntity
  8
0
100
AcDbLine
 10
92.7000007363565
 20
45.00000023112185
 30
0.0
 11
94.70000073635651
 21
45.00000023112185
 31
0.0
  0
LINE
  5
4AC
330
423
100
AcDbEntity
  8
0
100
AcDbLine
 10
92.7000007363565
 20
42.00000023112187
 30
0.0
 11
94.70000073635651
 21
42.00000023112187
 31
0.0
  0
LINE
  5
4AD
330
423
100
AcDbEntity
  8
0
100
AcDbLine
 10
99.70000073635651
 20
165.0000002311219
 30
0.0
 11
101.7000007363564
 21
165.0000002311219
 31
0.0
  0
LINE
  5
4AE
330
423
100
AcDbEntity
  8
0
100
AcDbLine
 10
99.70000073635651
 20
162.0000002311219
 30
0.0
 11
101.7000007363564
 21
162.0000002311219
 31
0.0
  0
LINE
  5
4AF
330
423
100
AcDbEntity
  8
0
100
AcDbLine
 10
99.70000073635651
 20
45.00000023112185
 30
0.0
 11
101.7000007363564
 21
45.00000023112185
 31
0.0
  0
LINE
  5
4B0
330
423
100
AcDbEntity
  8
0
100
AcDbLine
 10
99.70000073635651
 20
42.00000023112187
 30
0.0
 11
101.7000007363564
 21
42.00000023112187
 31
0.0
  0
LINE
  5
4B1
330
423
100
AcDbEntity
  8
0
100
AcDbLine
 10
106.7000007363565
 20
165.0000002311219
 30
0.0
 11
108.7000007363565
 21
165.0000002311219
 31
0.0
  0
LINE
  5
4B2
330
423
100
AcDbEntity
  8
0
100
AcDbLine
 10
106.7000007363565
 20
162.0000002311219
 30
0.0
 11
108.7000007363565
 21
162.0000002311219
 31
0.0
  0
LINE
  5
4B3
330
423
100
AcDbEntity
  8
0
100
AcDbLine
 10
106.7000007363565
 20
45.00000023112185
 30
0.0
 11
108.7000007363565
 21
45.00000023112185
 31
0.0
  0
LINE
  5
4B4
330
423
100
AcDbEntity
  8
0
100
AcDbLine
 10
106.7000007363565
 20
42.00000023112187
 30
0.0
 11
108.7000007363565
 21
42.00000023112187
 31
0.0
  0
LINE
  5
4B5
330
423
100
AcDbEntity
  8
0
100
AcDbLine
 10
86.7000007363565
 20
17.50000023112187
 30
0.0
 11
86.70000073635547
 21
17.00000023112187
 31
0.0
  0
LINE
  5
4B6
330
423
100
AcDbEntity
  8
0
100
AcDbLine
 10
31.70000073635651
 20
17.00000023112187
 30
0.0
 11
86.7000007363565
 21
17.00000023112187
 31
0.0
  0
LINE
  5
4B7
330
423
100
AcDbEntity
  8
0
100
AcDbLine
 10
132.0878545795234
 20
16.50000023112187
 30
0.0
 11
132.0878545795242
 21
190.5000002311219
 31
0.0
  0
LINE
  5
4B8
330
423
100
AcDbEntity
  8
0
100
AcDbLine
 10
12.20000073635659
 20
161.0000009648119
 30
0.0
 11
11.70000073635659
 21
161.5000009648118
 31
0.0
  0
LINE
  5
4B9
330
423
100
AcDbEntity
  8
0
100
AcDbLine
 10
11.70000073635671
 20
162.400000964812
 30
0.0
 11
11.70000073635659
 21
161.5000009648118
 31
0.0
  0
LINE
  5
4BA
330
423
100
AcDbEntity
  8
0
100
AcDbLine
 10
13.00000073635676
 20
161.0000009648119
 30
0.0
 11
12.20000073635659
 21
161.0000009648119
 31
0.0
  0
ARC
  5
4BB
330
423
100
AcDbEntity
  8
0
100
AcDbCircle
 10
12.70000073635671
 20
162.400000964812
 30
0.0
 40
1.0
100
AcDbArc
 50
90.0
 51
180.0
  0
LINE
  5
4BC
330
423
100
AcDbEntity
  8
0
100
AcDbLine
 10
14.70000073635648
 20
163.4000009648119
 30
0.0
 11
12.70000073635671
 21
163.4000009648119
 31
0.0
  0
LINE
  5
4BD
330
423
100
AcDbEntity
  8
0
100
AcDbLine
 10
14.70000073635648
 20
162.200000964812
 30
0.0
 11
13.00000073635689
 21
162.200000964812
 31
0.0
  0
LINE
  5
4BE
330
423
100
AcDbEntity
  8
0
100
AcDbLine
 10
13.00000073635676
 20
161.0000009648119
 30
0.0
 11
13.00000073635676
 21
162.200000964812
 31
0.0
  0
LINE
  5
4BF
330
423
100
AcDbEntity
  8
0
100
AcDbLine
 10
12.20000073635682
 20
180.5000009648122
 30
0.0
 11
11.70000073635682
 21
180.0000009648122
 31
0.0
  0
LINE
  5
4C0
330
423
100
AcDbEntity
  8
0
100
AcDbLine
 10
11.70000073635682
 20
180.0000009648122
 30
0.0
 11
11.70000073635682
 21
179.100000964812
 31
0.0
  0
LINE
  5
4C1
330
423
100
AcDbEntity
  8
0
100
AcDbLine
 10
13.00000073635676
 20
180.5000009648122
 30
0.0
 11
12.20000073635682
 21
180.5000009648122
 31
0.0
  0
ARC
  5
4C2
330
423
100
AcDbEntity
  8
0
100
AcDbCircle
 10
12.70000073635682
 20
179.100000964812
 30
0.0
 40
1.0
100
AcDbArc
 50
180.0
 51
270.0
  0
LINE
  5
4C3
330
423
100
AcDbEntity
  8
0
100
AcDbLine
 10
14.70000073635648
 20
178.1000009648122
 30
0.0
 11
12.70000073635682
 21
178.1000009648121
 31
0.0
  0
LINE
  5
4C4
330
423
100
AcDbEntity
  8
0
100
AcDbLine
 10
14.70000073635648
 20
179.3000009648118
 30
0.0
 11
13.00000073635666
 21
179.3000009648118
 31
0.0
  0
LINE
  5
4C5
330
423
100
AcDbEntity
  8
0
100
AcDbLine
 10
13.00000073635676
 20
179.3000009648118
 30
0.0
 11
13.00000073635676
 21
180.5000009648122
 31
0.0
  0
LINE
  5
4C6
330
423
100
AcDbEntity
  8
0
100
AcDbLine
 10
9.200000736356939
 20
143.150000964812
 30
0.0
 11
13.19009659197442
 21
141.8059686766043
 31
0.0
  0
LINE
  5
4C7
330
423
100
AcDbEntity
  8
0
100
AcDbLine
 10
9.200000736356939
 20
111.7000009648122
 30
0.0
 11
13.19009659197442
 21
113.0440332530203
 31
0.0
  0
LINE
  5
4C8
330
423
100
AcDbEntity
  8
0
100
AcDbLine
 10
9.200000736356939
 20
146.0500009648123
 30
0.0
 11
14.70000073635648
 21
147.9026325437595
 31
0.0
  0
LINE
  5
4C9
330
423
100
AcDbEntity
  8
0
100
AcDbLine
 10
9.200000736356939
 20
108.8000009648123
 30
0.0
 11
14.70000073635648
 21
106.9473693858651
 31
0.0
  0
LINE
  5
4CA
330
423
100
AcDbEntity
  8
0
100
AcDbLine
 10
13.19009659197442
 20
141.8059686766043
 30
0.0
 11
13.19009659197442
 21
113.0440332530203
 31
0.0
  0
LINE
  5
4CB
330
423
100
AcDbEntity
  8
0
100
AcDbLine
 10
4.830255207105068
 20
111.7000009648122
 30
0.0
 11
4.830255207105068
 21
113.7399893136859
 31
0.0
  0
LINE
  5
4CC
330
423
100
AcDbEntity
  8
0
100
AcDbLine
 10
0.0000007363570091
 20
108.8000009648123
 30
0.0
 11
3.702476728995491
 21
113.7399893136859
 31
0.0
  0
LINE
  5
4CD
330
423
100
AcDbEntity
  8
0
100
AcDbLine
 10
0.0000007363570091
 20
108.8000009648123
 30
0.0
 11
9.200000736356939
 21
108.8000009648123
 31
0.0
  0
LINE
  5
4CE
330
423
100
AcDbEntity
  8
0
100
AcDbLine
 10
9.200000736356939
 20
111.7000009648122
 30
0.0
 11
4.830255207105068
 21
111.7000009648122
 31
0.0
  0
LINE
  5
4CF
330
423
100
AcDbEntity
  8
0
100
AcDbLine
 10
9.200000736356939
 20
108.8000009648123
 30
0.0
 11
9.200000736356939
 21
111.7000009648122
 31
0.0
  0
LINE
  5
4D0
330
423
100
AcDbEntity
  8
0
100
AcDbLine
 10
4.830255207105068
 20
113.7399893136859
 30
0.0
 11
3.702476728995491
 21
113.7399893136859
 31
0.0
  0
LINE
  5
4D1
330
423
100
AcDbEntity
  8
0
100
AcDbLine
 10
4.830255207105068
 20
143.150000964812
 30
0.0
 11
4.830255207105068
 21
141.1100126159384
 31
0.0
  0
LINE
  5
4D2
330
423
100
AcDbEntity
  8
0
100
AcDbLine
 10
0.0000007363570091
 20
146.0500009648123
 30
0.0
 11
3.702476728995491
 21
141.1100126159384
 31
0.0
  0
LINE
  5
4D3
330
423
100
AcDbEntity
  8
0
100
AcDbLine
 10
4.830255207105068
 20
141.1100126159384
 30
0.0
 11
3.702476728995491
 21
141.1100126159384
 31
0.0
  0
LINE
  5
4D4
330
423
100
AcDbEntity
  8
0
100
AcDbLine
 10
0.0000007363570091
 20
146.0500009648123
 30
0.0
 11
9.200000736356939
 21
146.0500009648123
 31
0.0
  0
LINE
  5
4D5
330
423
100
AcDbEntity
  8
0
100
AcDbLine
 10
9.200000736356939
 20
143.150000964812
 30
0.0
 11
4.830255207105068
 21
143.150000964812
 31
0.0
  0
LINE
  5
4D6
330
423
100
AcDbEntity
  8
0
100
AcDbLine
 10
9.190096591974423
 20
146.0500009648123
 30
0.0
 11
9.190096591974423
 21
143.150000964812
 31
0.0
  0
LINE
  5
4D7
330
423
100
AcDbEntity
  8
0
100
AcDbLine
 10
11.30000073635659
 20
57.2000009648122
 30
0.0
 11
11.30000073635659
 21
37.00000096481215
 31
0.0
  0
LINE
  5
4D8
330
423
100
AcDbEntity
  8
0
100
AcDbLine
 10
12.20000073635648
 20
33.50000096481215
 30
0.0
 11
11.70000073635648
 21
34.00000096481216
 31
0.0
  0
LINE
  5
4D9
330
423
100
AcDbEntity
  8
0
100
AcDbLine
 10
11.70000073635659
 20
34.90000096481225
 30
0.0
 11
11.70000073635648
 21
34.00000096481216
 31
0.0
  0
LINE
  5
4DA
330
423
100
AcDbEntity
  8
0
100
AcDbLine
 10
13.00000073635666
 20
33.50000096481215
 30
0.0
 11
12.20000073635648
 21
33.50000096481215
 31
0.0
  0
ARC
  5
4DB
330
423
100
AcDbEntity
  8
0
100
AcDbCircle
 10
12.7000007363566
 20
34.90000096481213
 30
0.0
 40
1.0
100
AcDbArc
 50
90.0
 51
180.0
  0
LINE
  5
4DC
330
423
100
AcDbEntity
  8
0
100
AcDbLine
 10
14.70000073635648
 20
35.90000096481217
 30
0.0
 11
12.7000007363566
 21
35.90000096481213
 31
0.0
  0
LINE
  5
4DD
330
423
100
AcDbEntity
  8
0
100
AcDbLine
 10
14.70000073635648
 20
34.7000009648122
 30
0.0
 11
13.00000073635676
 21
34.7000009648122
 31
0.0
  0
LINE
  5
4DE
330
423
100
AcDbEntity
  8
0
100
AcDbLine
 10
14.70000073635648
 20
37.0000009648121
 30
0.0
 11
11.30000073635659
 21
37.00000096481215
 31
0.0
  0
LINE
  5
4DF
330
423
100
AcDbEntity
  8
0
100
AcDbLine
 10
13.00000073635666
 20
33.50000096481215
 30
0.0
 11
13.00000073635666
 21
34.7000009648122
 31
0.0
  0
LINE
  5
4E0
330
423
100
AcDbEntity
  8
0
100
AcDbLine
 10
12.20000073635671
 20
60.7000009648122
 30
0.0
 11
11.70000073635671
 21
60.2000009648122
 31
0.0
  0
LINE
  5
4E1
330
423
100
AcDbEntity
  8
0
100
AcDbLine
 10
11.70000073635671
 20
60.2000009648122
 30
0.0
 11
11.70000073635671
 21
59.30000096481212
 31
0.0
  0
LINE
  5
4E2
330
423
100
AcDbEntity
  8
0
100
AcDbLine
 10
13.00000073635666
 20
60.7000009648122
 30
0.0
 11
12.20000073635671
 21
60.7000009648122
 31
0.0
  0
ARC
  5
4E3
330
423
100
AcDbEntity
  8
0
100
AcDbCircle
 10
12.70000073635671
 20
59.30000096481222
 30
0.0
 40
1.0
100
AcDbArc
 50
180.0
 51
270.0
  0
LINE
  5
4E4
330
423
100
AcDbEntity
  8
0
100
AcDbLine
 10
14.70000073635648
 20
58.30000096481223
 30
0.0
 11
12.70000073635671
 21
58.30000096481223
 31
0.0
  0
LINE
  5
4E5
330
423
100
AcDbEntity
  8
0
100
AcDbLine
 10
11.30000073635659
 20
57.2000009648122
 30
0.0
 11
14.70000073635648
 21
57.20000096481214
 31
0.0
  0
LINE
  5
4E6
330
423
100
AcDbEntity
  8
0
100
AcDbLine
 10
14.70000073635648
 20
59.50000096481227
 30
0.0
 11
13.00000073635655
 21
59.50000096481227
 31
0.0
  0
LINE
  5
4E7
330
423
100
AcDbEntity
  8
0
100
AcDbLine
 10
13.00000073635666
 20
59.50000096481215
 30
0.0
 11
13.00000073635666
 21
60.7000009648122
 31
0.0
  0
LINE
  5
4E8
330
423
100
AcDbEntity
  8
0
100
AcDbLine
 10
14.70000073635648
 20
21.50000096481214
 30
0.0
 11
12.20000073635643
 21
21.50000096481214
 31
0.0
  0
LINE
  5
4E9
330
423
100
AcDbEntity
  8
0
100
AcDbLine
 10
12.20000073635643
 20
21.50000096481214
 30
0.0
 11
12.20000073635643
 21
27.00000096481216
 31
0.0
  0
LINE
  5
4EA
330
423
100
AcDbEntity
  8
0
100
AcDbLine
 10
12.20000073635643
 20
27.00000096481216
 30
0.0
 11
14.70000073635648
 21
27.00000096481216
 31
0.0
  0
LINE
  5
4EB
330
423
100
AcDbEntity
  8
0
100
AcDbLine
 10
14.70000073635651
 20
62.14000023112197
 30
0.0
 11
13.70000073635648
 21
62.14000023112197
 31
0.0
  0
LINE
  5
4EC
330
423
100
AcDbEntity
  8
0
100
AcDbLine
 10
13.70000073635648
 20
62.14000023112197
 30
0.0
 11
13.70000073635648
 21
59.50000096481232
 31
0.0
  0
LINE
  5
4ED
330
423
100
AcDbEntity
  8
0
100
AcDbLine
 10
8.10000073635649
 20
112.5000002311217
 30
0.0
 11
11.57499855821348
 21
112.5000002311217
 31
0.0
  0
LINE
  5
4EE
330
423
100
AcDbEntity
  8
0
100
AcDbLine
 10
13.19009659197442
 20
136.6600002311219
 30
0.0
 11
8.10000073635649
 21
136.6600002311219
 31
0.0
  0
LINE
  5
4EF
330
423
100
AcDbEntity
  8
0
100
AcDbLine
 10
8.10000073635649
 20
136.6600002311219
 30
0.0
 11
8.10000073635649
 21
112.5000002311217
 31
0.0
  0
LINE
  5
4F0
330
423
100
AcDbEntity
  8
0
100
AcDbLine
 10
9.400000736356503
 20
71.3400002311219
 30
0.0
 11
9.400000736356503
 21
99.80000023112197
 31
0.0
  0
LINE
  5
4F1
330
423
100
AcDbEntity
  8
0
100
AcDbLine
 10
9.400000736356503
 20
75.45000023112192
 30
0.0
 11
13.7000007363564
 21
75.45000023112192
 31
0.0
  0
LINE
  5
4F2
330
423
100
AcDbEntity
  8
0
100
AcDbLine
 10
13.70000073635645
 20
71.3400002311219
 30
0.0
 11
9.400000736356503
 21
71.3400002311219
 31
0.0
  0
LINE
  5
4F3
330
423
100
AcDbEntity
  8
0
100
AcDbLine
 10
9.400000736356503
 20
95.69000023112193
 30
0.0
 11
14.70000073635651
 21
95.69000023112193
 31
0.0
  0
LINE
  5
4F4
330
423
100
AcDbEntity
  8
0
100
AcDbLine
 10
9.400000736356503
 20
90.69000023112193
 30
0.0
 11
14.70000073635651
 21
90.69000023112186
 31
0.0
  0
LINE
  5
4F5
330
423
100
AcDbEntity
  8
0
100
AcDbLine
 10
9.400000736356503
 20
83.07000023112193
 30
0.0
 11
14.70000073635651
 21
83.07000023112193
 31
0.0
  0
LINE
  5
4F6
330
423
100
AcDbEntity
  8
0
100
AcDbLine
 10
9.400000736356503
 20
88.07000023112193
 30
0.0
 11
14.70000073635651
 21
88.07000023112186
 31
0.0
  0
LINE
  5
4F7
330
423
100
AcDbEntity
  8
0
100
AcDbLine
 10
9.400000736356503
 20
80.45000023112192
 30
0.0
 11
13.90000073635675
 21
80.45000023112192
 31
0.0
  0
LINE
  5
4F8
330
423
100
AcDbEntity
  8
0
100
AcDbLine
 10
13.90000073635675
 20
99.80000023112197
 30
0.0
 11
9.400000736356503
 21
99.80000023112197
 31
0.0
  0
LINE
  5
4F9
330
423
100
AcDbEntity
  8
0
100
AcDbLine
 10
57.7000007363565
 20
187.5000002311218
 30
0.0
 11
59.70000073635651
 21
187.5000002311218
 31
0.0
  0
LINE
  5
4FA
330
423
100
AcDbEntity
  8
0
100
AcDbLine
 10
130.7000007363555
 20
190.5000002311219
 30
0.0
 11
130.7000007363555
 21
200.5000002311219
 31
0.0
  0
LINE
  5
4FB
330
423
100
AcDbEntity
  8
0
100
AcDbLine
 10
14.70000073635644
 20
16.50000023112187
 30
0.0
 11
132.0878545795242
 21
16.50000023112187
 31
0.0
  0
LINE
  5
4FC
330
423
100
AcDbEntity
  8
0
100
AcDbLine
 10
33.70000073635651
 20
0.0000002311218736
 30
0.0
 11
33.70000073635651
 21
8.500000231121871
 31
0.0
  0
LINE
  5
4FD
330
423
100
AcDbEntity
  8
0
100
AcDbLine
 10
85.70000073635549
 20
0.0000002311218736
 30
0.0
 11
85.70000073635549
 21
16.50000023112187
 31
0.0
  0
LINE
  5
4FE
330
423
100
AcDbEntity
  8
0
100
AcDbLine
 10
33.70000073635651
 20
0.0000002311218736
 30
0.0
 11
85.70000073635549
 21
0.0000002311218736
 31
0.0
  0
LINE
  5
4FF
330
423
100
AcDbEntity
  8
0
100
AcDbLine
 10
43.70000073635649
 20
0.0000002311218736
 30
0.0
 11
43.70000073635649
 21
16.50000023112187
 31
0.0
  0
LINE
  5
500
330
423
100
AcDbEntity
  8
0
100
AcDbLine
 10
33.70000073635651
 20
8.500000231121871
 30
0.0
 11
43.70000073635649
 21
8.500000231121871
 31
0.0
  0
LINE
  5
501
330
423
100
AcDbEntity
  8
0
100
AcDbLine
 10
45.70000073635649
 20
9.500000231121871
 30
0.0
 11
45.70000073635649
 21
0.0000002311218736
 31
0.0
  0
LINE
  5
502
330
423
100
AcDbEntity
  8
0
100
AcDbLine
 10
83.7000007363555
 20
9.500000231121871
 30
0.0
 11
83.7000007363555
 21
0.0000002311218736
 31
0.0
  0
LINE
  5
503
330
423
100
AcDbEntity
  8
0
100
AcDbLine
 10
13.70000073635648
 20
58.30000096481223
 30
0.0
 11
13.70000073635648
 21
57.20000096481214
 31
0.0
  0
LINE
  5
504
330
423
100
AcDbEntity
  8
0
100
AcDbLine
 10
13.70000073635648
 20
37.00000096481215
 30
0.0
 11
13.70000073635648
 21
35.90000096481217
 31
0.0
  0
LINE
  5
505
330
423
100
AcDbEntity
  8
0
100
AcDbLine
 10
13.70000073635645
 20
34.7000009648122
 30
0.0
 11
13.70000073635651
 21
27.00000096481216
 31
0.0
  0
LINE
  5
506
330
423
100
AcDbEntity
  8
0
100
AcDbLine
 10
14.70000073635648
 20
157.9400002311219
 30
0.0
 11
13.69563879550548
 21
157.9400002311219
 31
0.0
  0
LINE
  5
507
330
423
100
AcDbEntity
  8
0
100
AcDbLine
 10
13.69563879550548
 20
157.9400002311219
 30
0.0
 11
13.69563879550548
 21
147.564321153157
 31
0.0
  0
LINE
  5
508
330
423
100
AcDbEntity
  8
0
100
AcDbLine
 10
14.70000073635648
 20
68.7000009648122
 30
0.0
 11
13.70000073635648
 21
68.7000009648122
 31
0.0
  0
LINE
  5
509
330
423
100
AcDbEntity
  8
0
100
AcDbLine
 10
13.70000073635648
 20
68.7000009648122
 30
0.0
 11
13.70000073635637
 21
77.1000009648123
 31
0.0
  0
LINE
  5
50A
330
423
100
AcDbEntity
  8
0
100
AcDbLine
 10
13.70000073635637
 20
77.1000009648123
 30
0.0
 11
14.70000073635648
 21
77.1000009648123
 31
0.0
  0
LINE
  5
50B
330
423
100
AcDbEntity
  8
0
100
AcDbLine
 10
14.70000073635648
 20
78.60000096481229
 30
0.0
 11
13.90000073635675
 21
78.60000096481229
 31
0.0
  0
LINE
  5
50C
330
423
100
AcDbEntity
  8
0
100
AcDbLine
 10
13.90000073635675
 20
78.60000096481229
 30
0.0
 11
13.90000073635675
 21
81.6000009648123
 31
0.0
  0
LINE
  5
50D
330
423
100
AcDbEntity
  8
0
100
AcDbLine
 10
13.90000073635675
 20
81.6000009648123
 30
0.0
 11
14.70000073635648
 21
81.6000009648123
 31
0.0
  0
LINE
  5
50E
330
423
100
AcDbEntity
  8
0
100
AcDbLine
 10
14.70000073635648
 20
98.60000096481229
 30
0.0
 11
13.90000073635675
 21
98.60000096481229
 31
0.0
  0
LINE
  5
50F
330
423
100
AcDbEntity
  8
0
100
AcDbLine
 10
13.90000073635675
 20
98.60000096481229
 30
0.0
 11
13.90000073635675
 21
101.600000964812
 31
0.0
  0
LINE
  5
510
330
423
100
AcDbEntity
  8
0
100
AcDbLine
 10
13.90000073635675
 20
101.600000964812
 30
0.0
 11
14.70000073635648
 21
101.600000964812
 31
0.0
  0
LINE
  5
511
330
423
100
AcDbEntity
  8
0
100
AcDbLine
 10
14.70000073635648
 20
164.450000964812
 30
0.0
 11
11.30000073635659
 21
164.450000964812
 31
0.0
  0
LINE
  5
512
330
423
100
AcDbEntity
  8
0
100
AcDbLine
 10
11.30000073635659
 20
164.450000964812
 30
0.0
 11
11.30000073635659
 21
177.0500009648118
 31
0.0
  0
LINE
  5
513
330
423
100
AcDbEntity
  8
0
100
AcDbLine
 10
11.30000073635659
 20
177.0500009648118
 30
0.0
 11
14.70000073635648
 21
177.0500009648118
 31
0.0
  0
ENDBLK
  5
515
330
423
100
AcDbEntity
  8
0
100
AcDbBlockEnd
  0
ENDSEC
  0
SECTION
  2
ENTITIES
  0
INSERT
  5
542
330
1F
100
AcDbEntity
  8
0
100
AcDbBlockReference
  2
A$C58867D70
 10
37.18454876268754
 20
-0.0000006044626844
 30
0.0
  0
LINE
  5
544
330
1F
100
AcDbEntity
  8
1
100
AcDbLine
 10
72.68454962301518
 20
175.9738137437265
 30
0.0
 11
87.6845496230152
 21
175.9738137437265
 31
0.0
  0
LINE
  5
545
330
1F
100
AcDbEntity
  8
1
100
AcDbLine
 10
80.18454962301518
 20
168.4738137437266
 30
0.0
 11
80.18454962301518
 21
183.4738137437265
 31
0.0
  0
LINE
  5
546
330
1F
100
AcDbEntity
  8
1
100
AcDbLine
 10
80.18454962301508
 20
352.4738137437267
 30
0.0
 11
80.18454962301508
 21
367.4738137437266
 31
0.0
  0
LINE
  5
547
330
1F
100
AcDbEntity
  8
1
100
AcDbLine
 10
72.68454962301518
 20
359.9738137437261
 30
0.0
 11
87.6845496230152
 21
359.9738137437261
 31
0.0
  0
INSERT
  5
548
330
1F
100
AcDbEntity
  8
0
100
AcDbBlockReference
  2
A$C0FFD32B7
 10
37.18455098174445
 20
164.4738127319689
 30
0.0
  0
INSERT
  5
549
330
1F
100
AcDbEntity
  8
0
100
AcDbBlockReference
  2
A$C2F474FB8
 10
194.4845488866585
 20
164.4738135126047
 30
0.0
  0
MTEXT
  5
67D
330
1F
100
AcDbEntity
  8
0
100
AcDbMText
 10
36.4634921854431
 20
404.1166386890083
 30
0.0
 40
10.0
 41
0.0
 71
     1
 72
     5
  1
SCON-CA-400A~750A-NP/PN-*-1/2\PSCON-CA-100SA~750SA-NP/PN-*-1/2
1001
ACAD
1000
MTEXTBEGIN
1070
    73
1070
     1
1070
    44
1040
1.0
1070
    74
1070
     0
1000
MTEXTEND
1000
MTEXTBEGIN
1070
    73
1070
     1
1070
    44
1040
1.0
1070
    74
1070
     0
1000
MTEXTEND
1000
MTEXTBEGIN
1070
    73
1070
     1
1070
    44
1040
1.0
1070
    74
1070
     0
1000
MTEXTEND
1000
MTEXTBEGIN
1070
    73
1070
     1
1070
    44
1040
1.0
1070
    74
1070
     0
1000
MTEXTEND
1000
MTEXTBEGIN
1070
    73
1070
     1
1070
    44
1040
1.0
1070
    74
1070
     0
1000
MTEXTEND
  0
ENDSEC
  0
SECTION
  2
OBJECTS
  0
DICTIONARY
  5
C
330
0
100
AcDbDictionary
  3
ACAD_GROUP
350
D
  3
ACAD_LAYOUT
350
1A
  3
ACAD_MLINESTYLE
350
17
  3
ACAD_PLOTSETTINGS
350
19
  3
ACAD_PLOTSTYLENAME
350
E
  3
ACDBHEADERROUNDTRIPXREC
350
723
  3
ACDBVARIABLEDICTIONARY
350
61F
  0
DICTIONARY
  5
527
330
2
100
AcDbDictionary
280
     1
  3
ACAD_LAYERSTATES
360
528
  0
DICTIONARY
  5
645
330
1F
100
AcDbDictionary
280
     1
  3
ACAD_LAYOUTSELFREF
360
744
  0
DICTIONARY
  5
643
330
1B
100
AcDbDictionary
280
     1
  3
ACAD_LAYOUTSELFREF
360
743
  0
DICTIONARY
  5
D
102
{ACAD_REACTORS
330
C
102
}
330
C
100
AcDbDictionary
  0
DICTIONARY
  5
1A
102
{ACAD_REACTORS
330
C
102
}
330
C
100
AcDbDictionary
  0
DICTIONARY
  5
17
102
{ACAD_REACTORS
330
C
102
}
330
C
100
AcDbDictionary
  3
STANDARD
350
18
  0
DICTIONARY
  5
19
102
{ACAD_REACTORS
330
C
102
}
330
C
100
AcDbDictionary
  0
ACDBDICTIONARYWDFLT
  5
E
102
{ACAD_REACTORS
330
C
102
}
330
C
100
AcDbDictionary
281
     1
  3
Normal
350
F
100
AcDbDictionaryWithDefault
340
F
  0
DICTIONARY
  5
723
102
{ACAD_REACTORS
330
C
102
}
330
C
100
AcDbDictionary
  3
CEPSNTYPE
350
72D
  3
FINGERPRINTGUID
350
72E
  3
HYPERLINKBASE
350
726
  3
INSUNITS
350
72C
  3
LAYOUTDICT
350
728
  3
LWETCUNION
350
72B
  3
PLOTSETDICT
350
729
  3
PLOTSTYLNAMDICT
350
72A
  3
PSVPSCALE
350
730
  3
PUCSBASE
350
733
  3
PUCSORGBACK
350
739
  3
PUCSORGBOTTOM
350
735
  3
PUCSORGFRONT
350
738
  3
PUCSORGLEFT
350
736
  3
PUCSORGRIGHT
350
737
  3
PUCSORGTOP
350
734
  3
PUCSORTHOREF
350
731
  3
PUCSORTHOVIEW
350
732
  3
STYLESHEET
350
727
  3
TSTACKALIGN
350
724
  3
TSTACKSIZE
350
725
  3
UCSBASE
350
73C
  3
UCSORGBACK
350
742
  3
UCSORGBOTTOM
350
73E
  3
UCSORGFRONT
350
741
  3
UCSORGLEFT
350
73F
  3
UCSORGRIGHT
350
740
  3
UCSORGTOP
350
73D
  3
UCSORTHOREF
350
73A
  3
UCSORTHOVIEW
350
73B
  3
VERSIONGUID
350
72F
  0
DICTIONARY
  5
61F
102
{ACAD_REACTORS
330
C
102
}
330
C
100
AcDbDictionary
  3
DIMASSOC
350
621
  3
HIDETEXT
350
620
  0
DICTIONARY
  5
528
102
{ACAD_REACTORS
330
527
102
}
330
527
100
AcDbDictionary
  0
XRECORD
  5
744
102
{ACAD_REACTORS
330
645
102
}
330
645
100
AcDbXrecord
340
1F
  0
XRECORD
  5
743
102
{ACAD_REACTORS
330
643
102
}
330
643
100
AcDbXrecord
340
1B
  0
MLINESTYLE
  5
18
102
{ACAD_REACTORS
330
17
102
}
330
17
100
AcDbMlineStyle
  2
STANDARD
 70
     0
  3

 62
   256
 51
90.0
 52
90.0
 71
     2
 49
0.5
 62
   256
  6
BYLAYER
 49
-0.5
 62
   256
  6
BYLAYER
  0
ACDBPLACEHOLDER
  5
F
102
{ACAD_REACTORS
330
E
102
}
330
E
100
AcDbPlaceHolder
280
     0
  0
XRECORD
  5
72D
102
{ACAD_REACTORS
330
723
102
}
330
723
100
AcDbXrecord
 90
        0
  0
XRECORD
  5
72E
102
{ACAD_REACTORS
330
723
102
}
330
723
100
AcDbXrecord
  1
{AF26B096-30B6-4602-97C0-3B1933EC3A2B}
  0
XRECORD
  5
726
102
{ACAD_REACTORS
330
723
102
}
330
723
100
AcDbXrecord
  1

  0
XRECORD
  5
72C
102
{ACAD_REACTORS
330
723
102
}
330
723
100
AcDbXrecord
 90
        4
  0
XRECORD
  5
728
102
{ACAD_REACTORS
330
723
102
}
330
723
100
AcDbXrecord
340
1A
  0
XRECORD
  5
72B
102
{ACAD_REACTORS
330
723
102
}
330
723
100
AcDbXrecord
 90
    10781
  0
XRECORD
  5
729
102
{ACAD_REACTORS
330
723
102
}
330
723
100
AcDbXrecord
340
19
  0
XRECORD
  5
72A
102
{ACAD_REACTORS
330
723
102
}
330
723
100
AcDbXrecord
340
E
  0
XRECORD
  5
730
102
{ACAD_REACTORS
330
723
102
}
330
723
100
AcDbXrecord
 40
0.0
  0
XRECORD
  5
733
102
{ACAD_REACTORS
330
723
102
}
330
723
100
AcDbXrecord
340
0
  0
XRECORD
  5
739
102
{ACAD_REACTORS
330
723
102
}
330
723
100
AcDbXrecord
 10
0.0
 20
0.0
 30
0.0
  0
XRECORD
  5
735
102
{ACAD_REACTORS
330
723
102
}
330
723
100
AcDbXrecord
 10
0.0
 20
0.0
 30
0.0
  0
XRECORD
  5
738
102
{ACAD_REACTORS
330
723
102
}
330
723
100
AcDbXrecord
 10
0.0
 20
0.0
 30
0.0
  0
XRECORD
  5
736
102
{ACAD_REACTORS
330
723
102
}
330
723
100
AcDbXrecord
 10
0.0
 20
0.0
 30
0.0
  0
XRECORD
  5
737
102
{ACAD_REACTORS
330
723
102
}
330
723
100
AcDbXrecord
 10
0.0
 20
0.0
 30
0.0
  0
XRECORD
  5
734
102
{ACAD_REACTORS
330
723
102
}
330
723
100
AcDbXrecord
 10
0.0
 20
0.0
 30
0.0
  0
XRECORD
  5
731
102
{ACAD_REACTORS
330
723
102
}
330
723
100
AcDbXrecord
340
0
  0
XRECORD
  5
732
102
{ACAD_REACTORS
330
723
102
}
330
723
100
AcDbXrecord
 70
     0
  0
XRECORD
  5
727
102
{ACAD_REACTORS
330
723
102
}
330
723
100
AcDbXrecord
  1

  0
XRECORD
  5
724
102
{ACAD_REACTORS
330
723
102
}
330
723
100
AcDbXrecord
 90
        1
  0
XRECORD
  5
725
102
{ACAD_REACTORS
330
723
102
}
330
723
100
AcDbXrecord
 90
       70
  0
XRECORD
  5
73C
102
{ACAD_REACTORS
330
723
102
}
330
723
100
AcDbXrecord
340
0
  0
XRECORD
  5
742
102
{ACAD_REACTORS
330
723
102
}
330
723
100
AcDbXrecord
 10
0.0
 20
0.0
 30
0.0
  0
XRECORD
  5
73E
102
{ACAD_REACTORS
330
723
102
}
330
723
100
AcDbXrecord
 10
0.0
 20
0.0
 30
0.0
  0
XRECORD
  5
741
102
{ACAD_REACTORS
330
723
102
}
330
723
100
AcDbXrecord
 10
0.0
 20
0.0
 30
0.0
  0
XRECORD
  5
73F
102
{ACAD_REACTORS
330
723
102
}
330
723
100
AcDbXrecord
 10
0.0
 20
0.0
 30
0.0
  0
XRECORD
  5
740
102
{ACAD_REACTORS
330
723
102
}
330
723
100
AcDbXrecord
 10
0.0
 20
0.0
 30
0.0
  0
XRECORD
  5
73D
102
{ACAD_REACTORS
330
723
102
}
330
723
100
AcDbXrecord
 10
0.0
 20
0.0
 30
0.0
  0
XRECORD
  5
73A
102
{ACAD_REACTORS
330
723
102
}
330
723
100
AcDbXrecord
340
0
  0
XRECORD
  5
73B
102
{ACAD_REACTORS
330
723
102
}
330
723
100
AcDbXrecord
 70
     0
  0
XRECORD
  5
72F
102
{ACAD_REACTORS
330
723
102
}
330
723
100
AcDbXrecord
  1
{EEF81B54-0D51-4A95-80B4-1176366F3A57}
  0
DICTIONARYVAR
  5
621
102
{ACAD_REACTORS
330
61F
102
}
330
61F
100
DictionaryVariables
280
     0
  1
2
  0
DICTIONARYVAR
  5
620
102
{ACAD_REACTORS
330
61F
102
}
330
61F
100
DictionaryVariables
280
     0
  1
1
  0
ENDSEC
  0
EOF
