  0
SECTION
  2
HEADER
  9
$ACADVER
  1
AC1015
  9
$ACADMAINTVER
 70
     6
  9
$DWGCODEPAGE
  3
ANSI_932
  9
$INSBASE
 10
0.0
 20
0.0
 30
0.0
  9
$EXTMIN
 10
-3.386655965644195
 20
-0.0244106094943391
 30
-0.0000000349181948
  9
$EXTMAX
 10
279.0196990936189
 20
399.9808427084227
 30
0.0000000814935747
  9
$LIMMIN
 10
0.0
 20
0.0
  9
$LIMMAX
 10
420.0
 20
297.0
  9
$ORTHOMODE
 70
     0
  9
$REGENMODE
 70
     1
  9
$FILLMODE
 70
     1
  9
$QTEXTMODE
 70
     0
  9
$MIRRTEXT
 70
     1
  9
$LTSCALE
 40
1.0
  9
$ATTMODE
 70
     1
  9
$TEXTSIZE
 40
2.5
  9
$TRACEWID
 40
1.0
  9
$TEXTSTYLE
  7
STANDARD
  9
$CLAYER
  8
0
  9
$CELTYPE
  6
BYLAYER
  9
$CECOLOR
 62
   256
  9
$CELTSCALE
 40
1.0
  9
$DISPSILH
 70
     0
  9
$DIMSCALE
 40
1.0
  9
$DIMASZ
 40
2.5
  9
$DIMEXO
 40
0.625
  9
$DIMDLI
 40
3.75
  9
$DIMRND
 40
0.0
  9
$DIMDLE
 40
0.0
  9
$DIMEXE
 40
1.25
  9
$DIMTP
 40
0.0
  9
$DIMTM
 40
0.0
  9
$DIMTXT
 40
2.5
  9
$DIMCEN
 40
2.5
  9
$DIMTSZ
 40
0.0
  9
$DIMTOL
 70
     0
  9
$DIMLIM
 70
     0
  9
$DIMTIH
 70
     0
  9
$DIMTOH
 70
     0
  9
$DIMSE1
 70
     0
  9
$DIMSE2
 70
     0
  9
$DIMTAD
 70
     1
  9
$DIMZIN
 70
     8
  9
$DIMBLK
  1

  9
$DIMASO
 70
     1
  9
$DIMSHO
 70
     1
  9
$DIMPOST
  1

  9
$DIMAPOST
  1

  9
$DIMALT
 70
     0
  9
$DIMALTD
 70
     3
  9
$DIMALTF
 40
0.03937007874016
  9
$DIMLFAC
 40
1.0
  9
$DIMTOFL
 70
     1
  9
$DIMTVP
 40
0.0
  9
$DIMTIX
 70
     0
  9
$DIMSOXD
 70
     0
  9
$DIMSAH
 70
     0
  9
$DIMBLK1
  1

  9
$DIMBLK2
  1

  9
$DIMSTYLE
  2
ISO-25
  9
$DIMCLRD
 70
     0
  9
$DIMCLRE
 70
     0
  9
$DIMCLRT
 70
     0
  9
$DIMTFAC
 40
1.0
  9
$DIMGAP
 40
0.625
  9
$DIMJUST
 70
     0
  9
$DIMSD1
 70
     0
  9
$DIMSD2
 70
     0
  9
$DIMTOLJ
 70
     0
  9
$DIMTZIN
 70
     8
  9
$DIMALTZ
 70
     0
  9
$DIMALTTZ
 70
     0
  9
$DIMUPT
 70
     0
  9
$DIMDEC
 70
     2
  9
$DIMTDEC
 70
     2
  9
$DIMALTU
 70
     2
  9
$DIMALTTD
 70
     3
  9
$DIMTXSTY
  7
STANDARD
  9
$DIMAUNIT
 70
     0
  9
$DIMADEC
 70
     0
  9
$DIMALTRND
 40
0.0
  9
$DIMAZIN
 70
     0
  9
$DIMDSEP
 70
    46
  9
$DIMATFIT
 70
     3
  9
$DIMFRAC
 70
     0
  9
$DIMLDRBLK
  1

  9
$DIMLUNIT
 70
     2
  9
$DIMLWD
 70
    -2
  9
$DIMLWE
 70
    -2
  9
$DIMTMOVE
 70
     0
  9
$LUNITS
 70
     2
  9
$LUPREC
 70
     4
  9
$SKETCHINC
 40
1.0
  9
$FILLETRAD
 40
10.0
  9
$AUNITS
 70
     0
  9
$AUPREC
 70
     0
  9
$MENU
  1
.
  9
$ELEVATION
 40
0.0
  9
$PELEVATION
 40
0.0
  9
$THICKNESS
 40
0.0
  9
$LIMCHECK
 70
     0
  9
$CHAMFERA
 40
10.0
  9
$CHAMFERB
 40
10.0
  9
$CHAMFERC
 40
20.0
  9
$CHAMFERD
 40
0.0
  9
$SKPOLY
 70
     0
  9
$TDCREATE
 40
2455874.790112083
  9
$TDUCREATE
 40
2455874.415112083
  9
$TDUPDATE
 40
2456843.671407535
  9
$TDUUPDATE
 40
2456843.296407534
  9
$TDINDWG
 40
0.0177540278
  9
$TDUSRTIMER
 40
0.0177532639
  9
$USRTIMER
 70
     1
  9
$ANGBASE
 50
0.0
  9
$ANGDIR
 70
     0
  9
$PDMODE
 70
     0
  9
$PDSIZE
 40
0.0
  9
$PLINEWID
 40
0.0
  9
$SPLFRAME
 70
     0
  9
$SPLINETYPE
 70
     6
  9
$SPLINESEGS
 70
     8
  9
$HANDSEED
  5
23C3
  9
$SURFTAB1
 70
     6
  9
$SURFTAB2
 70
     6
  9
$SURFTYPE
 70
     6
  9
$SURFU
 70
     6
  9
$SURFV
 70
     6
  9
$UCSBASE
  2

  9
$UCSNAME
  2

  9
$UCSORG
 10
0.0
 20
0.0
 30
0.0
  9
$UCSXDIR
 10
1.0
 20
0.0
 30
0.0
  9
$UCSYDIR
 10
0.0
 20
1.0
 30
0.0
  9
$UCSORTHOREF
  2

  9
$UCSORTHOVIEW
 70
     0
  9
$UCSORGTOP
 10
0.0
 20
0.0
 30
0.0
  9
$UCSORGBOTTOM
 10
0.0
 20
0.0
 30
0.0
  9
$UCSORGLEFT
 10
0.0
 20
0.0
 30
0.0
  9
$UCSORGRIGHT
 10
0.0
 20
0.0
 30
0.0
  9
$UCSORGFRONT
 10
0.0
 20
0.0
 30
0.0
  9
$UCSORGBACK
 10
0.0
 20
0.0
 30
0.0
  9
$PUCSBASE
  2

  9
$PUCSNAME
  2

  9
$PUCSORG
 10
0.0
 20
0.0
 30
0.0
  9
$PUCSXDIR
 10
1.0
 20
0.0
 30
0.0
  9
$PUCSYDIR
 10
0.0
 20
1.0
 30
0.0
  9
$PUCSORTHOREF
  2

  9
$PUCSORTHOVIEW
 70
     0
  9
$PUCSORGTOP
 10
0.0
 20
0.0
 30
0.0
  9
$PUCSORGBOTTOM
 10
0.0
 20
0.0
 30
0.0
  9
$PUCSORGLEFT
 10
0.0
 20
0.0
 30
0.0
  9
$PUCSORGRIGHT
 10
0.0
 20
0.0
 30
0.0
  9
$PUCSORGFRONT
 10
0.0
 20
0.0
 30
0.0
  9
$PUCSORGBACK
 10
0.0
 20
0.0
 30
0.0
  9
$USERI1
 70
     0
  9
$USERI2
 70
     0
  9
$USERI3
 70
     0
  9
$USERI4
 70
     0
  9
$USERI5
 70
     0
  9
$USERR1
 40
0.0
  9
$USERR2
 40
0.0
  9
$USERR3
 40
0.0
  9
$USERR4
 40
0.0
  9
$USERR5
 40
0.0
  9
$WORLDVIEW
 70
     1
  9
$SHADEDGE
 70
     3
  9
$SHADEDIF
 70
    70
  9
$TILEMODE
 70
     1
  9
$MAXACTVP
 70
    64
  9
$PINSBASE
 10
0.0
 20
0.0
 30
0.0
  9
$PLIMCHECK
 70
     0
  9
$PEXTMIN
 10
1.000000000000000E+20
 20
1.000000000000000E+20
 30
1.000000000000000E+20
  9
$PEXTMAX
 10
-1.000000000000000E+20
 20
-1.000000000000000E+20
 30
-1.000000000000000E+20
  9
$PLIMMIN
 10
0.0
 20
0.0
  9
$PLIMMAX
 10
420.0
 20
297.0
  9
$UNITMODE
 70
     0
  9
$VISRETAIN
 70
     1
  9
$PLINEGEN
 70
     0
  9
$PSLTSCALE
 70
     1
  9
$TREEDEPTH
 70
  3020
  9
$CMLSTYLE
  2
STANDARD
  9
$CMLJUST
 70
     0
  9
$CMLSCALE
 40
20.0
  9
$PROXYGRAPHICS
 70
     1
  9
$MEASUREMENT
 70
     1
  9
$CELWEIGHT
370
    -1
  9
$ENDCAPS
280
     0
  9
$JOINSTYLE
280
     0
  9
$LWDISPLAY
290
     0
  9
$INSUNITS
 70
     4
  9
$HYPERLINKBASE
  1

  9
$STYLESHEET
  1

  9
$XEDIT
290
     1
  9
$CEPSNTYPE
380
     0
  9
$PSTYLEMODE
290
     1
  9
$FINGERPRINTGUID
  2
{DFE87AFF-CEDA-490C-9593-3352DB0660B4}
  9
$VERSIONGUID
  2
{8C1845D4-D767-4FF1-94AE-D2F9ED1D77ED}
  9
$EXTNAMES
290
     1
  9
$PSVPSCALE
 40
0.0
  9
$OLESTARTUP
290
     0
  0
ENDSEC
  0
SECTION
  2
CLASSES
  0
CLASS
  1
ACDBDICTIONARYWDFLT
  2
AcDbDictionaryWithDefault
  3
AutoCAD 2000
 90
        0
280
     0
281
     0
  0
CLASS
  1
ACDBPLACEHOLDER
  2
AcDbPlaceHolder
  3
AutoCAD 2000
 90
        0
280
     0
281
     0
  0
CLASS
  1
LAYOUT
  2
AcDbLayout
  3
AutoCAD 2000
 90
        0
280
     0
281
     0
  0
CLASS
  1
DICTIONARYVAR
  2
AcDbDictionaryVar
  3
AutoCAD 2000
 90
        0
280
     0
281
     0
  0
CLASS
  1
LONG_TRANSACTION
  2
AcDbLongTransaction
  3
AutoCAD 2000
 90
    32768
280
     0
281
     0
  0
CLASS
  1
LWPOLYLINE
  2
AcDbPolyline
  3
AutoCAD 2000
 90
    32768
280
     0
281
     1
  0
CLASS
  1
HATCH
  2
AcDbHatch
  3
AutoCAD 2000
 90
    32768
280
     0
281
     1
  0
CLASS
  1
XRECORD
  2
AcDbXrecord
  3
AutoCAD 2000
 90
    32768
280
     0
281
     0
  0
CLASS
  1
LONG_TRANSACTION
  2
AcDbLongTransaction
  3
AutoCAD 2000
 90
    32768
280
     0
281
     0
  0
CLASS
  1
LWPOLYLINE
  2
AcDbPolyline
  3
AutoCAD 2000
 90
    32768
280
     0
281
     1
  0
CLASS
  1
HATCH
  2
AcDbHatch
  3
AutoCAD 2000
 90
    32768
280
     0
281
     1
  0
CLASS
  1
XRECORD
  2
AcDbXrecord
  3
AutoCAD 2000
 90
    32768
280
     0
281
     0
  0
CLASS
  1
LONG_TRANSACTION
  2
AcDbLongTransaction
  3
AutoCAD 2000
 90
    32768
280
     0
281
     0
  0
CLASS
  1
LWPOLYLINE
  2
AcDbPolyline
  3
AutoCAD 2000
 90
    32768
280
     0
281
     1
  0
CLASS
  1
HATCH
  2
AcDbHatch
  3
AutoCAD 2000
 90
    32768
280
     0
281
     1
  0
CLASS
  1
XRECORD
  2
AcDbXrecord
  3
AutoCAD 2000
 90
    32768
280
     0
281
     0
  0
CLASS
  1
LONG_TRANSACTION
  2
AcDbLongTransaction
  3
AutoCAD 2000
 90
    32768
280
     0
281
     0
  0
CLASS
  1
LWPOLYLINE
  2
AcDbPolyline
  3
AutoCAD 2000
 90
    32768
280
     0
281
     1
  0
CLASS
  1
HATCH
  2
AcDbHatch
  3
AutoCAD 2000
 90
    32768
280
     0
281
     1
  0
CLASS
  1
XRECORD
  2
AcDbXrecord
  3
AutoCAD 2000
 90
    32768
280
     0
281
     0
  0
CLASS
  1
LONG_TRANSACTION
  2
AcDbLongTransaction
  3
AutoCAD 2000
 90
    32768
280
     0
281
     0
  0
CLASS
  1
LWPOLYLINE
  2
AcDbPolyline
  3
AutoCAD 2000
 90
    32768
280
     0
281
     1
  0
CLASS
  1
HATCH
  2
AcDbHatch
  3
AutoCAD 2000
 90
    32768
280
     0
281
     1
  0
CLASS
  1
XRECORD
  2
AcDbXrecord
  3
AutoCAD 2000
 90
    32768
280
     0
281
     0
  0
CLASS
  1
LONG_TRANSACTION
  2
AcDbLongTransaction
  3
AutoCAD 2000
 90
    32768
280
     0
281
     0
  0
CLASS
  1
LWPOLYLINE
  2
AcDbPolyline
  3
AutoCAD 2000
 90
    32768
280
     0
281
     1
  0
CLASS
  1
HATCH
  2
AcDbHatch
  3
AutoCAD 2000
 90
    32768
280
     0
281
     1
  0
CLASS
  1
XRECORD
  2
AcDbXrecord
  3
AutoCAD 2000
 90
    32768
280
     0
281
     0
  0
CLASS
  1
LONG_TRANSACTION
  2
AcDbLongTransaction
  3
AutoCAD 2000
 90
    32768
280
     0
281
     0
  0
CLASS
  1
LWPOLYLINE
  2
AcDbPolyline
  3
AutoCAD 2000
 90
    32768
280
     0
281
     1
  0
CLASS
  1
HATCH
  2
AcDbHatch
  3
AutoCAD 2000
 90
    32768
280
     0
281
     1
  0
CLASS
  1
XRECORD
  2
AcDbXrecord
  3
AutoCAD 2000
 90
    32768
280
     0
281
     0
  0
ENDSEC
  0
SECTION
  2
TABLES
  0
TABLE
  2
VPORT
  5
8
330
0
100
AcDbSymbolTable
 70
     2
  0
VPORT
  5
23A2
330
8
100
AcDbSymbolTableRecord
100
AcDbViewportTableRecord
  2
*Active
 70
     0
 10
0.0
 20
0.0
 11
1.0
 21
1.0
 12
137.8165215639874
 22
199.9782160494641
 13
0.0
 23
0.0
 14
10.0
 24
10.0
 15
10.0
 25
10.0
 16
0.0
 26
0.0
 36
1.0
 17
0.0
 27
0.0
 37
0.0
 40
403.6527176338859
 41
2.319634703196347
 42
50.0
 43
0.0
 44
0.0
 50
0.0
 51
0.0
 71
     0
 72
   100
 73
     1
 74
     3
 75
     0
 76
     0
 77
     0
 78
     0
281
     0
 65
     1
110
0.0
120
0.0
130
0.0
111
1.0
121
0.0
131
0.0
112
0.0
122
1.0
132
0.0
 79
     0
146
0.0
  0
ENDTAB
  0
TABLE
  2
LTYPE
  5
5
330
0
100
AcDbSymbolTable
 70
     3
  0
LTYPE
  5
14
330
5
100
AcDbSymbolTableRecord
100
AcDbLinetypeTableRecord
  2
BYBLOCK
 70
     0
  3

 72
    65
 73
     0
 40
0.0
  0
LTYPE
  5
15
330
5
100
AcDbSymbolTableRecord
100
AcDbLinetypeTableRecord
  2
BYLAYER
 70
     0
  3

 72
    65
 73
     0
 40
0.0
  0
LTYPE
  5
16
330
5
100
AcDbSymbolTableRecord
100
AcDbLinetypeTableRecord
  2
CONTINUOUS
 70
     0
  3
Solid line
 72
    65
 73
     0
 40
0.0
  0
LTYPE
  5
2AC
330
5
100
AcDbSymbolTableRecord
100
AcDbLinetypeTableRecord
  2
CENTER
 70
     0
  3
__ . __ . __ . __ . __ . __ . __ . __ . __ . __
 72
    65
 73
     4
 40
1.0
 49
0.5
 74
     0
 49
-0.25
 74
     0
 49
0.0
 74
     0
 49
-0.25
 74
     0
  0
LTYPE
  5
226B
330
5
100
AcDbSymbolTableRecord
100
AcDbLinetypeTableRecord
  2
DASHDOT
 70
     0
  3
__ . __ . __ . __ . __ . __ . __ . __ . __ . __
 72
    65
 73
     4
 40
7.5
 49
6.0
 74
     0
 49
-0.5
 74
     0
 49
0.5
 74
     0
 49
-0.5
 74
     0
  0
ENDTAB
  0
TABLE
  2
LAYER
  5
2
102
{ACAD_XDICTIONARY
360
2B2
102
}
330
0
100
AcDbSymbolTable
 70
     4
  0
LAYER
  5
10
330
2
100
AcDbSymbolTableRecord
100
AcDbLayerTableRecord
  2
0
 70
     0
 62
     7
  6
CONTINUOUS
370
    -3
390
F
  0
LAYER
  5
2AE
330
2
100
AcDbSymbolTableRecord
100
AcDbLayerTableRecord
  2
DEFPOINTS
 70
     0
 62
    -7
  6
CONTINUOUS
290
     0
370
    -3
390
F
  0
LAYER
  5
2AF
330
2
100
AcDbSymbolTableRecord
100
AcDbLayerTableRecord
  2
1
 70
     0
 62
     3
  6
CONTINUOUS
370
    -3
390
F
  0
LAYER
  5
226C
330
2
100
AcDbSymbolTableRecord
100
AcDbLayerTableRecord
  2
2_カバ_
 70
     0
 62
     7
  6
CONTINUOUS
370
    -3
390
F
  0
ENDTAB
  0
TABLE
  2
STYLE
  5
3
330
0
100
AcDbSymbolTable
 70
     1
  0
STYLE
  5
11
330
3
100
AcDbSymbolTableRecord
100
AcDbTextStyleTableRecord
  2
STANDARD
 70
     0
 40
0.0
 41
1.0
 50
0.0
 71
     0
 42
2.5
  3
txt
  4

  0
ENDTAB
  0
TABLE
  2
VIEW
  5
6
330
0
100
AcDbSymbolTable
 70
     0
  0
ENDTAB
  0
TABLE
  2
UCS
  5
7
330
0
100
AcDbSymbolTable
 70
     0
  0
ENDTAB
  0
TABLE
  2
APPID
  5
9
330
0
100
AcDbSymbolTable
 70
     1
  0
APPID
  5
12
330
9
100
AcDbSymbolTableRecord
100
AcDbRegAppTableRecord
  2
ACAD
 70
     0
  0
ENDTAB
  0
TABLE
  2
DIMSTYLE
  5
A
330
0
100
AcDbSymbolTable
 70
     2
100
AcDbDimStyleTable
 71
     0
  0
DIMSTYLE
105
27
330
A
100
AcDbSymbolTableRecord
100
AcDbDimStyleTableRecord
  2
ISO-25
 70
     0
 41
2.5
 42
0.625
 43
3.75
 44
1.25
 73
     0
 74
     0
 77
     1
 78
     8
140
2.5
141
2.5
143
0.03937007874016
147
0.625
171
     3
172
     1
271
     2
272
     2
274
     3
283
     0
284
     8
340
11
  0
DIMSTYLE
105
2B1
330
A
100
AcDbSymbolTableRecord
100
AcDbDimStyleTableRecord
  2
STANDARD
 70
     0
 41
2.5
 42
0.625
 43
3.75
 44
1.25
 73
     0
 74
     0
 77
     1
 78
     8
140
2.5
141
2.5
143
0.0394
147
0.625
171
     4
172
     1
273
     8
274
     4
340
11
  0
ENDTAB
  0
TABLE
  2
BLOCK_RECORD
  5
1
330
0
100
AcDbSymbolTable
 70
     2
  0
BLOCK_RECORD
  5
1F
102
{ACAD_XDICTIONARY
360
B0E
102
}
330
1
100
AcDbSymbolTableRecord
100
AcDbBlockTableRecord
  2
*MODEL_SPACE
340
239F
  0
BLOCK_RECORD
  5
1B
102
{ACAD_XDICTIONARY
360
B0C
102
}
330
1
100
AcDbSymbolTableRecord
100
AcDbBlockTableRecord
  2
*PAPER_SPACE
340
23A0
  0
BLOCK_RECORD
  5
236
330
1
100
AcDbSymbolTableRecord
100
AcDbBlockTableRecord
  2
A$C5CFD6E8C
340
0
102
{BLKREFS
331
1E9D
331
1E9E
102
}
  0
BLOCK_RECORD
  5
17FA
330
1
100
AcDbSymbolTableRecord
100
AcDbBlockTableRecord
  2
A$C57E26210
340
0
102
{BLKREFS
331
1E98
102
}
  0
ENDTAB
  0
ENDSEC
  0
SECTION
  2
BLOCKS
  0
BLOCK
  5
20
330
1F
100
AcDbEntity
  8
0
100
AcDbBlockBegin
  2
*MODEL_SPACE
 70
     0
 10
0.0
 20
0.0
 30
0.0
  3
*MODEL_SPACE
  1

  0
ENDBLK
  5
21
330
1F
100
AcDbEntity
  8
0
100
AcDbBlockEnd
  0
BLOCK
  5
1C
330
1B
100
AcDbEntity
 67
     1
  8
0
100
AcDbBlockBegin
  2
*PAPER_SPACE
 70
     0
 10
0.0
 20
0.0
 30
0.0
  3
*PAPER_SPACE
  1

  0
ENDBLK
  5
1D
330
1B
100
AcDbEntity
 67
     1
  8
0
100
AcDbBlockEnd
  0
BLOCK
  5
23B
330
236
100
AcDbEntity
  8
0
 48
5.0
100
AcDbBlockBegin
  2
A$C5CFD6E8C
 70
     0
 10
0.0
 20
0.0
 30
0.0
  3
A$C5CFD6E8C
  1

  0
LINE
  5
237
330
236
100
AcDbEntity
  8
0
 62
     0
100
AcDbLine
 10
1.599997211020308
 20
2.70000247964549
 30
0.0
 11
1.599997211020308
 21
0.0000024796447633
 31
0.0
  0
LINE
  5
238
330
236
100
AcDbEntity
  8
0
 62
     0
100
AcDbLine
 10
-0.0000027889800549
 20
0.0000024796447633
 30
0.0
 11
-0.0000027889800549
 21
2.70000247964549
 31
0.0
  0
LINE
  5
239
330
236
100
AcDbEntity
  8
0
  6
CENTER
 62
     0
100
AcDbLine
 10
1.599997211020308
 20
2.70000247964549
 30
0.0
 11
-0.0000027889800549
 21
2.70000247964549
 31
0.0
  0
LINE
  5
23A
330
236
100
AcDbEntity
  8
0
  6
CENTER
 62
     0
100
AcDbLine
 10
1.599997211020308
 20
0.0000024796447633
 30
0.0
 11
-0.0000027889800549
 21
0.0000024796447633
 31
0.0
  0
ENDBLK
  5
23C
330
236
100
AcDbEntity
  8
0
 48
5.0
100
AcDbBlockEnd
  0
BLOCK
  5
1926
330
17FA
100
AcDbEntity
  8
0
100
AcDbBlockBegin
  2
A$C57E26210
 70
     0
 10
0.0
 20
0.0
 30
0.0
  3
A$C57E26210
  1

  0
LWPOLYLINE
  5
17FB
330
17FA
100
AcDbEntity
  8
0
  6
Continuous
 62
     7
100
AcDbPolyline
 90
        6
 70
   128
 43
0.0
 10
14.01098777450738
 20
13.70000042456694
 10
14.01101385153947
 20
13.73618789452621
 10
14.01103899724899
 20
13.84311397064038
 10
14.01106181465206
 20
14.01594182911821
 10
14.01108113959549
 20
14.24685348260709
 10
14.01109627358732
 20
14.52540368277141
  0
LINE
  5
17FC
330
17FA
100
AcDbEntity
  8
0
  6
Continuous
 62
     7
100
AcDbLine
 10
12.60161499403533
 20
16.4000004946024
 30
0.0
 11
12.60161499403533
 21
11.05000050242551
 31
0.0
  0
LINE
  5
17FD
330
17FA
100
AcDbEntity
  8
0
  6
Continuous
 62
     7
100
AcDbLine
 10
9.84153018243728
 20
15.02000023114987
 30
0.0
 11
9.84153018243728
 21
12.82000047590144
 31
0.0
  0
LINE
  5
17FE
330
17FA
100
AcDbEntity
  8
0
  6
Continuous
 62
     7
100
AcDbLine
 10
9.84094903715072
 20
12.82000047590144
 30
0.0
 11
9.84094903715072
 21
15.02000023114987
 31
0.0
  0
LINE
  5
17FF
330
17FA
100
AcDbEntity
  8
0
  6
Continuous
 62
     7
100
AcDbLine
 10
8.440949087069611
 20
12.82000047590144
 30
0.0
 11
8.440949087069611
 21
15.02000023114987
 31
0.0
  0
LINE
  5
1800
330
17FA
100
AcDbEntity
  8
0
  6
Continuous
 62
     7
100
AcDbLine
 10
10.10161504991468
 20
11.5314819334776
 30
0.0
 11
10.10161504991468
 21
15.10000037464806
 31
0.0
  0
LWPOLYLINE
  5
1801
330
17FA
100
AcDbEntity
  8
0
  6
Continuous
 62
     7
100
AcDbPolyline
 90
        9
 70
   128
 43
0.0
 10
5.2715680273634
 20
15.04331449482151
 10
5.271541950331311
 20
14.85185645956107
 10
5.271514010654072
 20
14.69383197340675
 10
5.27148607097683
 20
14.57070600676843
 10
5.271456268654445
 20
14.48361896413871
 10
5.271426466332058
 20
14.43337783652848
 10
5.271395732687096
 20
14.4204487508864
 10
5.271365930364709
 20
14.44495091650196
 10
5.271336128042321
 20
14.50665755632826
  0
LINE
  5
1802
330
17FA
100
AcDbEntity
  8
0
  6
Continuous
 62
     7
100
AcDbLine
 10
7.501344260798077
 20
14.397877216968
 30
0.0
 11
7.501602237151246
 21
15.0676578699381
 31
0.0
  0
LWPOLYLINE
  5
1803
330
17FA
100
AcDbEntity
  8
0
  6
Continuous
 62
     7
100
AcDbPolyline
 90
        7
 70
   128
 43
0.0
 10
7.241400954352003
 20
14.42000031906673
 10
7.241426100061516
 20
14.43337783652848
 10
7.241455902383902
 20
14.48361896413871
 10
7.241485704706293
 20
14.57070600676843
 10
7.241514575706105
 20
14.69383197340675
 10
7.241541584060769
 20
14.85185645956107
 10
7.241555553899386
 20
14.94534448224612
  0
LINE
  5
1804
330
17FA
100
AcDbEntity
  8
0
100
AcDbLine
 10
0.000000310167934
 20
18.10000062051676
 30
0.0
 11
0.0000003101688435
 21
0.0000001943440111
 31
0.0
  0
LINE
  5
1805
330
17FA
100
AcDbEntity
  8
0
100
AcDbLine
 10
14.30159928746593
 20
18.10000062051721
 30
0.0
 11
14.30159928746673
 21
0.0000001943440111
 31
0.0
  0
LINE
  5
1806
330
17FA
100
AcDbEntity
  8
0
  6
Continuous
 62
     7
100
AcDbLine
 10
3.001614538059807
 20
15.10000037464806
 30
0.0
 11
3.001614538059807
 21
3.000000440213169
 31
0.0
  0
LINE
  5
1807
330
17FA
100
AcDbEntity
  8
0
  6
Continuous
 62
     7
100
AcDbLine
 10
1.701614883766751
 20
1.700000320258823
 30
0.0
 11
1.701614883766751
 21
16.4000004946024
 31
0.0
  0
LINE
  5
1808
330
17FA
100
AcDbEntity
  8
0
  6
Continuous
 62
     7
100
AcDbLine
 10
1.501599391029458
 20
1.50000019434401
 30
0.0
 11
1.501599391029458
 21
16.60000062051722
 31
0.0
  0
LINE
  5
1809
330
17FA
100
AcDbEntity
  8
0
  6
Continuous
 62
     7
100
AcDbLine
 10
12.80159928746638
 20
1.50000019434401
 30
0.0
 11
12.80159928746638
 21
16.60000062051722
 31
0.0
  0
LINE
  5
180A
330
17FA
100
AcDbEntity
  8
0
  6
Continuous
 62
     7
100
AcDbLine
 10
1.500000310168843
 20
16.60000062051722
 30
0.0
 11
1.500000310168843
 21
1.50000019434401
 31
0.0
  0
LINE
  5
180B
330
17FA
100
AcDbEntity
  8
0
100
AcDbLine
 10
14.30159928746673
 20
0.0000001943440111
 30
0.0
 11
0.0000003101688435
 21
0.0000001943440111
 31
0.0
  0
LWPOLYLINE
  5
180C
330
17FA
100
AcDbEntity
  8
0
  6
Continuous
 62
     7
100
AcDbPolyline
 90
        8
 70
   128
 43
0.0
 10
12.86098786540446
 20
1.957631152752128
 10
12.86099997259793
 20
1.96641212764689
 10
12.86102372132359
 20
2.036008001002755
 10
12.86104560740408
 20
2.171743609640087
 10
12.86106469951683
 20
2.366876178118673
 10
12.86108006633934
 20
2.61171436372706
 10
12.86109077654896
 20
2.894097421947208
 10
12.86109636448441
 20
3.200000566127982
  0
LWPOLYLINE
  5
180D
330
17FA
100
AcDbEntity
  8
0
  6
Continuous
 62
     7
100
AcDbPolyline
 90
       11
 70
   128
 43
0.0
 10
12.86093757398544
 20
1.957631152752128
 10
12.86094036795316
 20
1.938643813762155
 10
12.86096365101752
 20
1.835101232561554
 10
12.86098786540446
 20
1.80000061604687
 10
12.8610120797914
 20
1.835101232561554
 10
12.86103489719448
 20
1.938643813762155
 10
12.86105538629112
 20
2.105436236295188
 10
12.86107261575875
 20
2.327114757779326
 10
12.8610856542748
 20
2.592563111963951
 10
12.86109357051667
 20
2.888471302273956
 10
12.86109636448441
 20
3.200000566127982
  0
LWPOLYLINE
  5
180E
330
17FA
100
AcDbEntity
  8
0
  6
Continuous
 62
     7
100
AcDbPolyline
 90
        8
 70
   128
 43
0.0
 10
13.31098779946683
 20
1.80000061604687
 10
13.3110117810231
 20
1.835101232561554
 10
13.31103483125684
 20
1.938643813762155
 10
13.31105555318413
 20
2.105436236295188
 10
13.31107254982112
 20
2.327114757779326
 10
13.31108558833715
 20
2.592563111963951
 10
13.31109373740969
 20
2.888471302273956
 10
13.31109629854677
 20
3.200000566127982
  0
LINE
  5
180F
330
17FA
100
AcDbEntity
  8
0
  6
Continuous
 62
     7
100
AcDbLine
 10
12.60161499403533
 20
7.050000312435712
 30
0.0
 11
12.60161499403533
 21
1.700000320258823
 31
0.0
  0
LINE
  5
1810
330
17FA
100
AcDbEntity
  8
0
  6
Continuous
 62
     7
100
AcDbLine
 10
7.753813703582864
 20
2.805033647152868
 30
0.0
 11
7.753813703582864
 21
3.000000440213169
 31
0.0
  0
LWPOLYLINE
  5
1811
330
17FA
100
AcDbEntity
  8
0
  6
Continuous
 62
     7
100
AcDbPolyline
 90
        9
 70
   128
 43
0.0
 10
7.501602237151246
 20
3.032342944923128
 10
7.50160503111897
 20
3.022724245372501
 10
7.501607825086692
 20
3.007636354002443
 10
7.501609687731843
 20
2.987521183374608
 10
7.501611550376992
 20
2.962968726340021
 10
7.501613413022141
 20
2.934700292232718
 10
7.501614344344716
 20
2.903544292482818
 10
7.501614344344716
 20
2.870414820197311
 10
7.501615275667289
 20
2.836284176144089
  0
LINE
  5
1812
330
17FA
100
AcDbEntity
  8
0
  6
Continuous
 62
     7
100
AcDbLine
 10
7.75377458803473
 20
2.805033647152868
 30
0.0
 11
7.75377458803473
 21
3.000000440213169
 31
0.0
  0
LWPOLYLINE
  5
1813
330
17FA
100
AcDbEntity
  8
0
  6
Continuous
 62
     7
100
AcDbPolyline
 90
        5
 70
   128
 43
0.0
 10
5.271576409266572
 20
2.971513145300831
 10
5.271576409266572
 20
2.970420703920805
 10
5.271579203234296
 20
2.918112040194952
 10
5.271581997202018
 20
2.860760730388846
 10
5.271584791169741
 20
2.805033647152868
  0
LWPOLYLINE
  5
1814
330
17FA
100
AcDbEntity
  8
0
  6
Continuous
 62
     7
100
AcDbPolyline
 90
        9
 70
   128
 43
0.0
 10
5.351602164135556
 20
3.032342944923128
 10
5.35160495810328
 20
3.022724245372501
 10
5.351607752071004
 20
3.007636354002443
 10
5.351609614716153
 20
2.987521183374608
 10
5.351611477361299
 20
2.962968726340021
 10
5.35161334000645
 20
2.934700292232718
 10
5.351614271329026
 20
2.903544292482818
 10
5.351615202651601
 20
2.870414820197311
 10
5.351615202651601
 20
2.836284176144089
  0
LINE
  5
1815
330
17FA
100
AcDbEntity
  8
0
  6
Continuous
 62
     7
100
AcDbLine
 10
5.099416774736027
 20
3.000000440213169
 30
0.0
 11
5.099416774736027
 21
2.805033647152868
 31
0.0
  0
LINE
  5
1816
330
17FA
100
AcDbEntity
  8
0
  6
Continuous
 62
     7
100
AcDbLine
 10
14.30159928746661
 20
1.520000346633878
 30
0.0
 11
13.71073077343521
 21
1.520000346633878
 31
0.0
  0
LINE
  5
1817
330
17FA
100
AcDbEntity
  8
0
  6
Continuous
 62
     7
100
AcDbLine
 10
14.30159928746661
 20
1.760000311467138
 30
0.0
 11
13.71073077343521
 21
1.760000311467138
 31
0.0
  0
LINE
  5
1818
330
17FA
100
AcDbEntity
  8
0
  6
Continuous
 62
     7
100
AcDbLine
 10
13.31098779946683
 20
1.80000061604687
 30
0.0
 11
14.30159928746661
 21
2.196245026731048
 31
0.0
  0
LINE
  5
1819
330
17FA
100
AcDbEntity
  8
0
  6
Continuous
 62
     7
100
AcDbLine
 10
5.351615202651601
 20
2.836284176144089
 30
0.0
 11
7.501615275667289
 21
2.836284176144089
 31
0.0
  0
LINE
  5
181A
330
17FA
100
AcDbEntity
  8
0
  6
Continuous
 62
     7
100
AcDbLine
 10
12.60161499403533
 20
1.700000320258823
 30
0.0
 11
1.701614883766751
 21
1.700000320258823
 31
0.0
  0
LINE
  5
181B
330
17FA
100
AcDbEntity
  8
0
  6
Continuous
 62
     7
100
AcDbLine
 10
1.501599391029458
 20
1.50000019434401
 30
0.0
 11
12.80159928746638
 21
1.50000019434401
 31
0.0
  0
LINE
  5
181C
330
17FA
100
AcDbEntity
  8
0
  6
Continuous
 62
     7
100
AcDbLine
 10
5.351615202651601
 20
2.836284176144089
 30
0.0
 11
5.351615202651601
 21
2.805033647152868
 31
0.0
  0
LINE
  5
181D
330
17FA
100
AcDbEntity
  8
0
  6
Continuous
 62
     7
100
AcDbLine
 10
5.099416774736027
 20
2.805033647152868
 30
0.0
 11
5.351615202651601
 21
2.805033647152868
 31
0.0
  0
LINE
  5
181E
330
17FA
100
AcDbEntity
  8
0
  6
Continuous
 62
     7
100
AcDbLine
 10
2.611246024296856
 20
1.50000019434401
 30
0.0
 11
3.536772978530506
 21
1.42997963789412
 31
0.0
  0
LINE
  5
181F
330
17FA
100
AcDbEntity
  8
0
  6
Continuous
 62
     7
100
AcDbLine
 10
3.536772978530506
 20
1.229979977640595
 30
0.0
 11
2.346888248847105
 21
1.320000220719063
 31
0.0
  0
LINE
  5
1820
330
17FA
100
AcDbEntity
  8
0
  6
Continuous
 62
     7
100
AcDbLine
 10
1.919974637256244
 20
1.50000019434401
 30
0.0
 11
1.919974637256244
 21
1.320000220719063
 31
0.0
  0
LINE
  5
1821
330
17FA
100
AcDbEntity
  8
0
  6
Continuous
 62
     7
100
AcDbLine
 10
1.919974637256244
 20
1.320000220719063
 30
0.0
 11
2.346888248847105
 21
1.320000220719063
 31
0.0
  0
LINE
  5
1822
330
17FA
100
AcDbEntity
  8
0
  6
Continuous
 62
     7
100
AcDbLine
 10
3.536772978530506
 20
1.229979977640595
 30
0.0
 11
3.536772978530506
 21
1.42997963789412
 31
0.0
  0
LINE
  5
1823
330
17FA
100
AcDbEntity
  8
0
  6
Continuous
 62
     7
100
AcDbLine
 10
4.060192097948172
 20
1.45373581412741
 30
0.0
 11
3.536772978530506
 21
1.42997963789412
 31
0.0
  0
LINE
  5
1824
330
17FA
100
AcDbEntity
  8
0
  6
Continuous
 62
     7
100
AcDbLine
 10
3.536772978530506
 20
1.229979977640595
 30
0.0
 11
4.060192097948172
 21
1.253736153873886
 31
0.0
  0
LWPOLYLINE
  5
1825
330
17FA
100
AcDbEntity
  8
0
  6
Continuous
 62
     7
100
AcDbPolyline
 90
       10
 70
   128
 43
0.0
 10
1.701614883766751
 20
1.700000320258823
 10
1.666884933636764
 20
1.665270835790123
 10
1.633210171983819
 20
1.631596539798465
 10
1.601613190994839
 20
1.60000049013206
 10
1.573054184244254
 20
1.571442880365339
 10
1.548400213049034
 20
1.54679170313784
 10
1.528401923404316
 20
1.526795276138273
 10
1.513666537628751
 20
1.512061753007855
 10
1.504640159235574
 20
1.503038634243693
 10
1.501599391029458
 20
1.50000019434401
  0
LINE
  5
1826
330
17FA
100
AcDbEntity
  8
0
  6
Continuous
 62
     7
100
AcDbLine
 10
1.500000310168843
 20
1.50000019434401
 30
0.0
 11
1.501599391029458
 21
1.50000019434401
 31
0.0
  0
LINE
  5
1827
330
17FA
100
AcDbEntity
  8
0
  6
Continuous
 62
     7
100
AcDbLine
 10
11.06027566738543
 20
1.320000220719063
 30
0.0
 11
11.06027549334089
 21
0.0000001943440111
 31
0.0
  0
LINE
  5
1828
330
17FA
100
AcDbEntity
  8
0
  6
Continuous
 62
     7
100
AcDbLine
 10
11.06131595470124
 20
1.50000019434401
 30
0.0
 11
11.06131595470124
 21
0.0000001943440111
 31
0.0
  0
LINE
  5
1829
330
17FA
100
AcDbEntity
  8
0
  6
Continuous
 62
     7
100
AcDbLine
 10
9.120715380684712
 20
1.320000220719063
 30
0.0
 11
11.06071525164065
 21
1.320000220719063
 31
0.0
  0
LINE
  5
182A
330
17FA
100
AcDbEntity
  8
0
  6
Continuous
 62
     7
100
AcDbLine
 10
8.820692141578772
 20
1.50000019434401
 30
0.0
 11
8.820692141578772
 21
1.320000220719063
 31
0.0
  0
LINE
  5
182B
330
17FA
100
AcDbEntity
  8
0
  6
Continuous
 62
     7
100
AcDbLine
 10
9.120715380684712
 20
1.320000220719063
 30
0.0
 11
8.820692141578772
 21
1.320000220719063
 31
0.0
  0
LINE
  5
182C
330
17FA
100
AcDbEntity
  8
0
  6
Continuous
 62
     7
100
AcDbLine
 10
9.120715380684712
 20
1.50000019434401
 30
0.0
 11
9.120715380684712
 21
1.320000220719063
 31
0.0
  0
LINE
  5
182D
330
17FA
100
AcDbEntity
  8
0
  6
Continuous
 62
     7
100
AcDbLine
 10
12.7603389034432
 20
0.0000001943440111
 30
0.0
 11
12.7603389034432
 21
0.1890975466699274
 31
0.0
  0
LINE
  5
182E
330
17FA
100
AcDbEntity
  8
0
  6
Continuous
 62
     7
100
AcDbLine
 10
12.6613160306972
 20
0.0000001943440111
 30
0.0
 11
12.6613160306972
 21
1.50000019434401
 31
0.0
  0
LINE
  5
182F
330
17FA
100
AcDbEntity
  8
0
  6
Continuous
 62
     7
100
AcDbLine
 10
12.80159928746638
 20
1.957631152752128
 30
0.0
 11
12.86098786540446
 21
1.957631152752128
 31
0.0
  0
LINE
  5
1830
330
17FA
100
AcDbEntity
  8
0
  6
Continuous
 62
     7
100
AcDbLine
 10
12.86098786540446
 20
1.80000061604687
 30
0.0
 11
13.31098779946683
 21
1.80000061604687
 31
0.0
  0
LINE
  5
1831
330
17FA
100
AcDbEntity
  8
0
  6
Continuous
 62
     7
100
AcDbLine
 10
13.61069206059096
 20
1.320000220719063
 30
0.0
 11
13.61069206059096
 21
1.520000346633878
 31
0.0
  0
LINE
  5
1832
330
17FA
100
AcDbEntity
  8
0
  6
Continuous
 62
     7
100
AcDbLine
 10
13.71073077343521
 20
1.520000346633878
 30
0.0
 11
13.71073077343521
 21
1.760000311467138
 31
0.0
  0
LINE
  5
1833
330
17FA
100
AcDbEntity
  8
0
  6
Continuous
 62
     7
100
AcDbLine
 10
13.71073077343521
 20
1.760000311467138
 30
0.0
 11
12.80159928746638
 21
1.760000311467138
 31
0.0
  0
LINE
  5
1834
330
17FA
100
AcDbEntity
  8
0
  6
Continuous
 62
     7
100
AcDbLine
 10
13.71073077343521
 20
1.520000346633878
 30
0.0
 11
12.80159928746638
 21
1.520000346633878
 31
0.0
  0
LINE
  5
1835
330
17FA
100
AcDbEntity
  8
0
  6
Continuous
 62
     7
100
AcDbLine
 10
13.31071538761374
 20
1.520000346633878
 30
0.0
 11
13.31071538761374
 21
1.320000220719063
 31
0.0
  0
LINE
  5
1836
330
17FA
100
AcDbEntity
  8
0
  6
Continuous
 62
     7
100
AcDbLine
 10
12.6613160306972
 20
1.320000220719063
 30
0.0
 11
13.31071538761374
 21
1.320000220719063
 31
0.0
  0
LINE
  5
1837
330
17FA
100
AcDbEntity
  8
0
  6
Continuous
 62
     7
100
AcDbLine
 10
13.31071538761374
 20
1.320000220719063
 30
0.0
 11
13.61069206059096
 21
1.320000220719063
 31
0.0
  0
LINE
  5
1838
330
17FA
100
AcDbEntity
  8
0
  6
Continuous
 62
     7
100
AcDbLine
 10
12.6613160306972
 20
0.1890975466699274
 30
0.0
 11
12.7603389034432
 21
0.1890975466699274
 31
0.0
  0
LINE
  5
1839
330
17FA
100
AcDbEntity
  8
0
  6
Continuous
 62
     7
100
AcDbLine
 10
12.6613160306972
 20
0.5318168035478266
 30
0.0
 11
12.76031468905626
 21
0.5318168035478266
 31
0.0
  0
LWPOLYLINE
  5
183A
330
17FA
100
AcDbEntity
  8
0
  6
Continuous
 62
     7
100
AcDbPolyline
 90
        9
 70
   128
 43
0.0
 10
12.7603389034432
 20
0.1890975466699274
 10
12.76033424683032
 20
0.197316468390909
 10
12.76032912455616
 20
0.2181734374494226
 10
12.76032493360458
 20
0.2508293322057398
 10
12.76032120831428
 20
0.2939672625393541
 10
12.76031841434655
 20
0.3458503118486078
 10
12.76031608604012
 20
0.4043867296309145
 10
12.76031515471752
 20
0.4672202697724971
 10
12.76031468905626
 20
0.5318168035478266
  0
LINE
  5
183B
330
17FA
100
AcDbEntity
  8
0
  6
Continuous
 62
     7
100
AcDbLine
 10
12.76031468905626
 20
0.5318168035478266
 30
0.0
 11
12.76031468905626
 21
0.9427368125648172
 31
0.0
  0
LINE
  5
183C
330
17FA
100
AcDbEntity
  8
0
  6
Continuous
 62
     7
100
AcDbLine
 10
12.76030304752407
 20
1.092736557754959
 30
0.0
 11
12.6613160306972
 21
1.092736557754959
 31
0.0
  0
LWPOLYLINE
  5
183D
330
17FA
100
AcDbEntity
  8
0
  6
Continuous
 62
     7
100
AcDbPolyline
 90
        9
 70
   128
 43
0.0
 10
12.76031468905626
 20
0.9427368125648172
 10
12.76031468905626
 20
0.97199989918181
 10
12.76031375773367
 20
1.000138879451242
 10
12.76031282641111
 20
1.02607155654141
 10
12.76031142942724
 20
1.04880234662005
 10
12.76030956678209
 20
1.067456737789598
 10
12.76030770413695
 20
1.081318542990175
 10
12.76030537583051
 20
1.089854114386525
 10
12.76030304752407
 20
1.092736557754959
  0
LWPOLYLINE
  5
183E
330
17FA
100
AcDbEntity
  8
0
  6
Continuous
 62
     7
100
AcDbPolyline
 90
        9
 70
   128
 43
0.0
 10
12.80159928746638
 20
1.50000019434401
 10
12.79775944449125
 20
1.503843296948159
 10
12.78638147659717
 20
1.515224524471249
 10
12.76790217407165
 20
1.533706620964494
 10
12.74303167037783
 20
1.558578987303462
 10
12.71272643379983
 20
1.588886552187885
 10
12.67815061755594
 20
1.623463765415635
 10
12.64063275329886
 20
1.660982560995307
 10
12.60161499403533
 20
1.700000320258823
  0
LINE
  5
183F
330
17FA
100
AcDbEntity
  8
0
  6
Continuous
 62
     7
100
AcDbLine
 10
12.76031468905626
 20
0.9427368125648172
 30
0.0
 11
12.6613160306972
 21
0.9427368125648172
 31
0.0
  0
LINE
  5
1840
330
17FA
100
AcDbEntity
  8
0
  6
Continuous
 62
     7
100
AcDbLine
 10
7.501615275667289
 20
2.836284176144089
 30
0.0
 11
7.501615275667289
 21
2.805033647152868
 31
0.0
  0
LINE
  5
1841
330
17FA
100
AcDbEntity
  8
0
  6
Continuous
 62
     7
100
AcDbLine
 10
7.501615275667289
 20
2.805033647152868
 30
0.0
 11
7.753813703582864
 21
2.805033647152868
 31
0.0
  0
LINE
  5
1842
330
17FA
100
AcDbEntity
  8
0
  6
Continuous
 62
     7
100
AcDbLine
 10
14.26027558654664
 20
1.092736557754959
 30
0.0
 11
14.30159928746673
 21
1.092736557754959
 31
0.0
  0
LINE
  5
1843
330
17FA
100
AcDbEntity
  8
0
  6
Continuous
 62
     7
100
AcDbLine
 10
14.26027558654664
 20
1.520000346633878
 30
0.0
 11
14.26027544037424
 21
0.0000001944299584
 31
0.0
  0
LINE
  5
1844
330
17FA
100
AcDbEntity
  8
0
  6
Continuous
 62
     7
100
AcDbLine
 10
14.26027558654664
 20
2.179715730878793
 30
0.0
 11
14.26027558654664
 21
1.760000311467138
 31
0.0
  0
LINE
  5
1845
330
17FA
100
AcDbEntity
  8
0
  6
Continuous
 62
     7
100
AcDbLine
 10
13.46080779940007
 20
9.435000399523687
 30
0.0
 11
14.30159928746626
 21
9.435000399523687
 31
0.0
  0
LINE
  5
1846
330
17FA
100
AcDbEntity
  8
0
  6
Continuous
 62
     7
100
AcDbLine
 10
14.30159928746626
 20
9.935000394168582
 30
0.0
 11
13.46080779940007
 21
9.935000394168582
 31
0.0
  0
LINE
  5
1847
330
17FA
100
AcDbEntity
  8
0
  6
Continuous
 62
     7
100
AcDbLine
 10
12.80159928746638
 20
11.97500032808193
 30
0.0
 11
14.30159928746616
 21
11.97500032808193
 31
0.0
  0
LINE
  5
1848
330
17FA
100
AcDbEntity
  8
0
  6
Continuous
 62
     7
100
AcDbLine
 10
14.30159928746616
 20
12.47500041003831
 30
0.0
 11
12.80159928746638
 21
12.47500041003831
 31
0.0
  0
LINE
  5
1849
330
17FA
100
AcDbEntity
  8
0
  6
Continuous
 62
     7
100
AcDbLine
 10
14.01098777450738
 20
13.70000042456694
 30
0.0
 11
14.30159928746603
 21
13.99061193752547
 31
0.0
  0
LINE
  5
184A
330
17FA
100
AcDbEntity
  8
0
  6
Continuous
 62
     7
100
AcDbLine
 10
14.30159928746661
 20
3.200000566127982
 30
0.0
 11
13.31109629854677
 21
3.200000566127982
 31
0.0
  0
LINE
  5
184B
330
17FA
100
AcDbEntity
  8
0
  6
Continuous
 62
     7
100
AcDbLine
 10
14.01109627358732
 20
3.574597132089817
 30
0.0
 11
14.30159928746661
 21
3.574597132089817
 31
0.0
  0
LINE
  5
184C
330
17FA
100
AcDbEntity
  8
0
  6
Continuous
 62
     7
100
AcDbLine
 10
14.30159928746661
 20
4.109388877334819
 30
0.0
 11
14.01098777450738
 21
4.400000390294278
 31
0.0
  0
LINE
  5
184D
330
17FA
100
AcDbEntity
  8
0
  6
Continuous
 62
     7
100
AcDbLine
 10
12.80159928746638
 20
4.855000362429108
 30
0.0
 11
14.30159928746649
 21
4.855000362429108
 31
0.0
  0
LINE
  5
184E
330
17FA
100
AcDbEntity
  8
0
  6
Continuous
 62
     7
100
AcDbLine
 10
14.30159928746638
 20
6.895000296342457
 30
0.0
 11
13.36083241649089
 21
6.895000296342457
 31
0.0
  0
LINE
  5
184F
330
17FA
100
AcDbEntity
  8
0
  6
Continuous
 62
     7
100
AcDbLine
 10
14.30159928746638
 20
7.395000378298846
 30
0.0
 11
13.36083241649089
 21
7.395000378298846
 31
0.0
  0
LINE
  5
1850
330
17FA
100
AcDbEntity
  8
0
  6
Continuous
 62
     7
100
AcDbLine
 10
3.472384129689316
 20
8.15000042289057
 30
0.0
 11
3.472384129689316
 21
8.850000412483041
 31
0.0
  0
LINE
  5
1851
330
17FA
100
AcDbEntity
  8
0
  6
Continuous
 62
     7
100
AcDbLine
 10
12.46080786831794
 20
10.70057968113133
 30
0.0
 11
12.46080786831794
 21
7.399421133729902
 31
0.0
  0
LINE
  5
1852
330
17FA
100
AcDbEntity
  8
0
  6
Continuous
 62
     7
100
AcDbLine
 10
12.46076130218921
 20
7.399421133729902
 30
0.0
 11
12.46076130218921
 21
10.70057968113133
 31
0.0
  0
LINE
  5
1853
330
17FA
100
AcDbEntity
  8
0
  6
Continuous
 62
     7
100
AcDbLine
 10
13.46080779940007
 20
7.399421133729902
 30
0.0
 11
13.46080779940007
 21
10.70057968113133
 31
0.0
  0
LINE
  5
1854
330
17FA
100
AcDbEntity
  8
0
  6
Continuous
 62
     7
100
AcDbLine
 10
12.60161499403533
 20
11.05000050242551
 30
0.0
 11
12.60161499403533
 21
7.050000312435712
 31
0.0
  0
LINE
  5
1855
330
17FA
100
AcDbEntity
  8
0
  6
Continuous
 62
     7
100
AcDbLine
 10
13.36083241649089
 20
11.55000035155126
 30
0.0
 11
13.36083241649089
 21
6.550000463309967
 31
0.0
  0
LINE
  5
1856
330
17FA
100
AcDbEntity
  8
0
  6
Continuous
 62
     7
100
AcDbLine
 10
7.501602237151246
 20
3.032342944923128
 30
0.0
 11
5.351602164135556
 21
3.032342944923128
 31
0.0
  0
LINE
  5
1857
330
17FA
100
AcDbEntity
  8
0
  6
Continuous
 62
     7
100
AcDbLine
 10
5.351344187782386
 20
3.702123597893205
 30
0.0
 11
7.501344260798077
 21
3.702123597893205
 31
0.0
  0
LINE
  5
1858
330
17FA
100
AcDbEntity
  8
0
  6
Continuous
 62
     7
100
AcDbLine
 10
3.472384129689316
 20
8.15000042289057
 30
0.0
 11
3.00145900718985
 21
8.15000042289057
 31
0.0
  0
LWPOLYLINE
  5
1859
330
17FA
100
AcDbEntity
  8
0
  6
Continuous
 62
     7
100
AcDbPolyline
 90
        7
 70
   128
 43
0.0
 10
7.241555553899386
 20
3.154656332615103
 10
7.241541584060769
 20
3.248144355300154
 10
7.241514575706105
 20
3.406168841454473
 10
7.241485704706293
 20
3.529294808092798
 10
7.241455902383902
 20
3.616381850722517
 10
7.241426100061516
 20
3.666622978332725
 10
7.241400954352003
 20
3.680000495794502
  0
LINE
  5
185A
330
17FA
100
AcDbEntity
  8
0
  6
Continuous
 62
     7
100
AcDbLine
 10
7.241400954352003
 20
3.680000495794502
 30
0.0
 11
5.271400389299968
 21
3.680000495794502
 31
0.0
  0
LINE
  5
185B
330
17FA
100
AcDbEntity
  8
0
  6
Continuous
 62
     7
100
AcDbLine
 10
3.00145900718985
 20
7.750000403891588
 30
0.0
 11
3.472384129689316
 21
7.750000403891588
 31
0.0
  0
LINE
  5
185C
330
17FA
100
AcDbEntity
  8
0
  6
Continuous
 62
     7
100
AcDbLine
 10
3.472384129689316
 20
7.050000312435712
 30
0.0
 11
3.00145900718985
 21
7.050000312435712
 31
0.0
  0
LINE
  5
185D
330
17FA
100
AcDbEntity
  8
0
  6
Continuous
 62
     7
100
AcDbLine
 10
3.472384129689316
 20
5.950000318396177
 30
0.0
 11
3.00145900718985
 21
5.950000318396177
 31
0.0
  0
LINE
  5
185E
330
17FA
100
AcDbEntity
  8
0
  6
Continuous
 62
     7
100
AcDbLine
 10
3.00145900718985
 20
6.650000293436732
 30
0.0
 11
3.472384129689316
 21
6.650000293436732
 31
0.0
  0
LINE
  5
185F
330
17FA
100
AcDbEntity
  8
0
  6
Continuous
 62
     7
100
AcDbLine
 10
3.00145900718985
 20
5.550000299397196
 30
0.0
 11
3.472384129689316
 21
5.550000299397196
 31
0.0
  0
LINE
  5
1860
330
17FA
100
AcDbEntity
  8
0
  6
Continuous
 62
     7
100
AcDbLine
 10
3.00145900718985
 20
4.850000557187286
 30
0.0
 11
3.472384129689316
 21
4.850000557187286
 31
0.0
  0
LINE
  5
1861
330
17FA
100
AcDbEntity
  8
0
  6
Continuous
 62
     7
100
AcDbLine
 10
3.472384129689316
 20
7.050000312435712
 30
0.0
 11
3.472384129689316
 21
7.750000403891588
 31
0.0
  0
LINE
  5
1862
330
17FA
100
AcDbEntity
  8
0
  6
Continuous
 62
     7
100
AcDbLine
 10
3.472384129689316
 20
5.950000318396177
 30
0.0
 11
3.472384129689316
 21
6.650000293436732
 31
0.0
  0
LINE
  5
1863
330
17FA
100
AcDbEntity
  8
0
  6
Continuous
 62
     7
100
AcDbLine
 10
3.472384129689316
 20
4.850000557187286
 30
0.0
 11
3.472384129689316
 21
5.550000299397196
 31
0.0
  0
LWPOLYLINE
  5
1864
330
17FA
100
AcDbEntity
  8
0
  6
Continuous
 62
     7
100
AcDbPolyline
 90
        9
 70
   128
 43
0.0
 10
5.271538225041011
 20
3.000000440213169
 10
5.271532637105565
 20
3.036639601621118
 10
5.271506560073476
 20
3.186994180712189
 10
5.271479551718811
 20
3.303336393717017
 10
5.271450680718999
 20
3.384550516191211
 10
5.271422741041758
 20
3.429857962462391
 10
5.271393870041947
 20
3.438823804888214
 10
5.27136499904213
 20
3.411362827453102
 10
5.271336128042321
 20
3.347738128784383
  0
LINE
  5
1865
330
17FA
100
AcDbEntity
  8
0
  6
Continuous
 62
     7
100
AcDbLine
 10
5.271336128042321
 20
3.347738128784383
 30
0.0
 11
5.271336128042321
 21
3.593343258532968
 31
0.0
  0
LWPOLYLINE
  5
1866
330
17FA
100
AcDbEntity
  8
0
  6
Continuous
 62
     7
100
AcDbPolyline
 90
        9
 70
   128
 43
0.0
 10
5.271336128042321
 20
3.593343258532968
 10
5.271365930364709
 20
3.655049898359266
 10
5.271395732687096
 20
3.679552063974823
 10
5.271426466332058
 20
3.666622978332725
 10
5.271456268654445
 20
3.616381850722517
 10
5.27148607097683
 20
3.529294808092798
 10
5.271514010654072
 20
3.406168841454473
 10
5.271541950331311
 20
3.248144355300154
 10
5.2715680273634
 20
3.056686320039716
  0
LWPOLYLINE
  5
1867
330
17FA
100
AcDbEntity
  8
0
  6
Continuous
 62
     7
100
AcDbPolyline
 90
        3
 70
   128
 43
0.0
 10
5.2715680273634
 20
3.056686320039716
 10
5.271572683976273
 20
3.01685737881371
 10
5.271573615298846
 20
3.000000440213169
  0
LINE
  5
1868
330
17FA
100
AcDbEntity
  8
0
  6
Continuous
 62
     7
100
AcDbLine
 10
5.271465581880191
 20
3.347738128784383
 30
0.0
 11
5.271336128042321
 21
3.347738128784383
 31
0.0
  0
LINE
  5
1869
330
17FA
100
AcDbEntity
  8
0
  6
Continuous
 62
     7
100
AcDbLine
 10
5.351576087103467
 20
2.971513145300831
 30
0.0
 11
5.351576087103467
 21
3.000000440213169
 31
0.0
  0
LINE
  5
186A
330
17FA
100
AcDbEntity
  8
0
  6
Continuous
 62
     7
100
AcDbLine
 10
5.351602164135556
 20
3.032342944923128
 30
0.0
 11
5.351555598006825
 21
3.154656332615103
 31
0.0
  0
LINE
  5
186B
330
17FA
100
AcDbEntity
  8
0
  6
Continuous
 62
     7
100
AcDbLine
 10
5.351567705200293
 20
3.056686320039716
 30
0.0
 11
5.2715680273634
 21
3.056686320039716
 31
0.0
  0
LINE
  5
186C
330
17FA
100
AcDbEntity
  8
0
  6
Continuous
 62
     7
100
AcDbLine
 10
5.351257574782948
 20
3.680000495794502
 30
0.0
 11
5.351257574782948
 21
3.702123597893205
 31
0.0
  0
LINE
  5
186D
330
17FA
100
AcDbEntity
  8
0
  6
Continuous
 62
     7
100
AcDbLine
 10
5.351257574782948
 20
3.702123597893205
 30
0.0
 11
5.351344187782386
 21
3.702123597893205
 31
0.0
  0
LINE
  5
186E
330
17FA
100
AcDbEntity
  8
0
  6
Continuous
 62
     7
100
AcDbLine
 10
5.351353501008134
 20
3.680000495794502
 30
0.0
 11
5.351344187782386
 21
3.702123597893205
 31
0.0
  0
LINE
  5
186F
330
17FA
100
AcDbEntity
  8
0
  6
Continuous
 62
     7
100
AcDbLine
 10
4.671529931054691
 20
3.080000583711353
 30
0.0
 11
3.001614538059807
 21
3.080000583711353
 31
0.0
  0
LINE
  5
1870
330
17FA
100
AcDbEntity
  8
0
  6
Continuous
 62
     7
100
AcDbLine
 10
3.001614538059807
 20
3.000000440213169
 30
0.0
 11
5.099416774736027
 21
3.000000440213169
 31
0.0
  0
LINE
  5
1871
330
17FA
100
AcDbEntity
  8
0
  6
Continuous
 62
     7
100
AcDbLine
 10
4.671529931054691
 20
3.000000440213169
 30
0.0
 11
4.671529931054691
 21
3.080000583711353
 31
0.0
  0
LINE
  5
1872
330
17FA
100
AcDbEntity
  8
0
  6
Continuous
 62
     7
100
AcDbLine
 10
5.351576087103467
 20
3.000000440213169
 30
0.0
 11
5.099416774736027
 21
3.000000440213169
 31
0.0
  0
LINE
  5
1873
330
17FA
100
AcDbEntity
  8
0
  6
Continuous
 62
     7
100
AcDbLine
 10
11.0607613521081
 20
7.399421133729902
 30
0.0
 11
11.76075504072126
 21
7.399421133729902
 31
0.0
  0
LINE
  5
1874
330
17FA
100
AcDbEntity
  8
0
  6
Continuous
 62
     7
100
AcDbLine
 10
10.10076102711374
 20
5.28000033895978
 30
0.0
 11
10.10076102711374
 21
6.56851888138362
 31
0.0
  0
LINE
  5
1875
330
17FA
100
AcDbEntity
  8
0
  6
Continuous
 62
     7
100
AcDbLine
 10
10.10161504991468
 20
6.56851888138362
 30
0.0
 11
10.10076102711374
 21
6.56851888138362
 31
0.0
  0
LINE
  5
1876
330
17FA
100
AcDbEntity
  8
0
  6
Continuous
 62
     7
100
AcDbLine
 10
11.76083234049497
 20
6.56851888138362
 30
0.0
 11
11.76083234049497
 21
7.550000394392098
 31
0.0
  0
LINE
  5
1877
330
17FA
100
AcDbEntity
  8
0
  6
Continuous
 62
     7
100
AcDbLine
 10
11.76075504072126
 20
6.56851888138362
 30
0.0
 11
11.76075504072126
 21
7.399421133729902
 31
0.0
  0
LINE
  5
1878
330
17FA
100
AcDbEntity
  8
0
  6
Continuous
 62
     7
100
AcDbLine
 10
11.0607613521081
 20
6.56851888138362
 30
0.0
 11
11.0607613521081
 21
7.399421133729902
 31
0.0
  0
LINE
  5
1879
330
17FA
100
AcDbEntity
  8
0
  6
Continuous
 62
     7
100
AcDbLine
 10
9.84153018243728
 20
5.28000033895978
 30
0.0
 11
9.84153018243728
 21
3.080000583711353
 31
0.0
  0
LINE
  5
187A
330
17FA
100
AcDbEntity
  8
0
  6
Continuous
 62
     7
100
AcDbLine
 10
9.84094903715072
 20
3.080000583711353
 30
0.0
 11
9.84094903715072
 21
5.28000033895978
 31
0.0
  0
LINE
  5
187B
330
17FA
100
AcDbEntity
  8
0
  6
Continuous
 62
     7
100
AcDbLine
 10
8.440949087069611
 20
3.080000583711353
 30
0.0
 11
8.440949087069611
 21
5.28000033895978
 31
0.0
  0
LINE
  5
187C
330
17FA
100
AcDbEntity
  8
0
  6
Continuous
 62
     7
100
AcDbLine
 10
10.10161504991468
 20
3.000000440213169
 30
0.0
 11
10.10161504991468
 21
6.56851888138362
 31
0.0
  0
LINE
  5
187D
330
17FA
100
AcDbEntity
  8
0
  6
Continuous
 62
     7
100
AcDbLine
 10
11.76083234049497
 20
7.550000394392098
 30
0.0
 11
12.01083238147315
 21
7.550000394392098
 31
0.0
  0
LINE
  5
187E
330
17FA
100
AcDbEntity
  8
0
  6
Continuous
 62
     7
100
AcDbLine
 10
10.10161504991468
 20
6.56851888138362
 30
0.0
 11
11.90161478616414
 21
6.56851888138362
 31
0.0
  0
LINE
  5
187F
330
17FA
100
AcDbEntity
  8
0
  6
Continuous
 62
     7
100
AcDbLine
 10
12.16082095079241
 20
7.550000394392098
 30
0.0
 11
12.16082095079241
 21
7.050000312435712
 31
0.0
  0
LINE
  5
1880
330
17FA
100
AcDbEntity
  8
0
  6
Continuous
 62
     7
100
AcDbLine
 10
12.52222579814611
 20
7.550000394392098
 30
0.0
 11
12.60081591926631
 21
7.550000394392098
 31
0.0
  0
LINE
  5
1881
330
17FA
100
AcDbEntity
  8
0
  6
Continuous
 62
     7
100
AcDbLine
 10
12.60078471996006
 20
7.050000312435712
 30
0.0
 11
12.60078471996006
 21
7.399421133729902
 31
0.0
  0
LINE
  5
1882
330
17FA
100
AcDbEntity
  8
0
  6
Continuous
 62
     7
100
AcDbLine
 10
12.60080800302444
 20
7.399421133729902
 30
0.0
 11
12.60080800302444
 21
7.550000394392098
 31
0.0
  0
LINE
  5
1883
330
17FA
100
AcDbEntity
  8
0
  6
Continuous
 62
     7
100
AcDbLine
 10
12.46080786831794
 20
7.399421133729902
 30
0.0
 11
12.60080800302444
 21
7.399421133729902
 31
0.0
  0
LINE
  5
1884
330
17FA
100
AcDbEntity
  8
0
  6
Continuous
 62
     7
100
AcDbLine
 10
12.46076130218921
 20
7.399421133729902
 30
0.0
 11
12.46080786831794
 21
7.399421133729902
 31
0.0
  0
LINE
  5
1885
330
17FA
100
AcDbEntity
  8
0
  6
Continuous
 62
     7
100
AcDbLine
 10
13.36083241649089
 20
7.399421133729902
 30
0.0
 11
13.46080779940007
 21
7.399421133729902
 31
0.0
  0
LINE
  5
1886
330
17FA
100
AcDbEntity
  8
0
  6
Continuous
 62
     7
100
AcDbLine
 10
12.16082095079241
 20
7.399421133729902
 30
0.0
 11
12.46076130218921
 21
7.399421133729902
 31
0.0
  0
LINE
  5
1887
330
17FA
100
AcDbEntity
  8
0
  6
Continuous
 62
     7
100
AcDbLine
 10
12.80159928746638
 20
6.550000463309967
 30
0.0
 11
13.36083241649089
 21
6.550000463309967
 31
0.0
  0
LINE
  5
1888
330
17FA
100
AcDbEntity
  8
0
  6
Continuous
 62
     7
100
AcDbLine
 10
12.86109636448441
 20
3.200000566127982
 30
0.0
 11
12.80159928746638
 21
3.200000566127982
 31
0.0
  0
LINE
  5
1889
330
17FA
100
AcDbEntity
  8
0
  6
Continuous
 62
     7
100
AcDbLine
 10
13.31109629854677
 20
3.200000566127982
 30
0.0
 11
12.86109636448441
 21
3.200000566127982
 31
0.0
  0
LINE
  5
188A
330
17FA
100
AcDbEntity
  8
0
  6
Continuous
 62
     7
100
AcDbLine
 10
14.01098777450738
 20
4.400000390294278
 30
0.0
 11
12.80159928746638
 21
4.400000390294278
 31
0.0
  0
LWPOLYLINE
  5
188B
330
17FA
100
AcDbEntity
  8
0
  6
Continuous
 62
     7
100
AcDbPolyline
 90
        6
 70
   128
 43
0.0
 10
14.01098777450738
 20
4.400000390294278
 10
14.01101385153947
 20
4.363812920335021
 10
14.01103899724899
 20
4.256886844220844
 10
14.01106181465206
 20
4.084058985743013
 10
14.01108113959549
 20
3.853147332254136
 10
14.01109627358732
 20
3.574597132089817
  0
LINE
  5
188C
330
17FA
100
AcDbEntity
  8
0
  6
Continuous
 62
     7
100
AcDbLine
 10
12.80159928746638
 20
3.574597132089817
 30
0.0
 11
14.01109627358732
 21
3.574597132089817
 31
0.0
  0
LINE
  5
188D
330
17FA
100
AcDbEntity
  8
0
  6
Continuous
 62
     7
100
AcDbLine
 10
12.01083238147315
 20
7.550000394392098
 30
0.0
 11
12.16082095079241
 21
7.550000394392098
 31
0.0
  0
LINE
  5
188E
330
17FA
100
AcDbEntity
  8
0
  6
Continuous
 62
     7
100
AcDbLine
 10
12.60161499403533
 20
7.050000312435712
 30
0.0
 11
11.90161478616414
 21
7.050000312435712
 31
0.0
  0
LINE
  5
188F
330
17FA
100
AcDbEntity
  8
0
  6
Continuous
 62
     7
100
AcDbLine
 10
12.01083238147315
 20
7.050000312435712
 30
0.0
 11
12.01083238147315
 21
7.550000394392098
 31
0.0
  0
LINE
  5
1890
330
17FA
100
AcDbEntity
  8
0
  6
Continuous
 62
     7
100
AcDbLine
 10
11.90140523858485
 20
7.050000312435712
 30
0.0
 11
11.90161478616414
 21
7.050000312435712
 31
0.0
  0
LINE
  5
1891
330
17FA
100
AcDbEntity
  8
0
  6
Continuous
 62
     7
100
AcDbLine
 10
11.90161478616414
 20
7.050000312435712
 30
0.0
 11
11.90161478616414
 21
6.56851888138362
 31
0.0
  0
LINE
  5
1892
330
17FA
100
AcDbEntity
  8
0
  6
Continuous
 62
     7
100
AcDbLine
 10
11.90140523858485
 20
6.56851888138362
 30
0.0
 11
11.90140523858485
 21
7.050000312435712
 31
0.0
  0
LINE
  5
1893
330
17FA
100
AcDbEntity
  8
0
  6
Continuous
 62
     7
100
AcDbLine
 10
10.10153029956039
 20
5.28000033895978
 30
0.0
 11
9.84153018243728
 21
5.28000033895978
 31
0.0
  0
LINE
  5
1894
330
17FA
100
AcDbEntity
  8
0
  6
Continuous
 62
     7
100
AcDbLine
 10
9.84153018243728
 20
5.28000033895978
 30
0.0
 11
9.84094903715072
 21
5.28000033895978
 31
0.0
  0
LINE
  5
1895
330
17FA
100
AcDbEntity
  8
0
  6
Continuous
 62
     7
100
AcDbLine
 10
9.84094903715072
 20
5.28000033895978
 30
0.0
 11
8.440949087069611
 21
5.28000033895978
 31
0.0
  0
LINE
  5
1896
330
17FA
100
AcDbEntity
  8
0
  6
Continuous
 62
     7
100
AcDbLine
 10
8.440949087069611
 20
5.28000033895978
 30
0.0
 11
8.440760959909539
 21
5.28000033895978
 31
0.0
  0
LINE
  5
1897
330
17FA
100
AcDbEntity
  8
0
  6
Continuous
 62
     7
100
AcDbLine
 10
11.76076109431801
 20
7.550000394392098
 30
0.0
 11
11.76083234049497
 21
7.550000394392098
 31
0.0
  0
LINE
  5
1898
330
17FA
100
AcDbEntity
  8
0
  6
Continuous
 62
     7
100
AcDbLine
 10
7.501344260798077
 20
3.702123597893205
 30
0.0
 11
7.501602237151246
 21
3.032342944923128
 31
0.0
  0
LINE
  5
1899
330
17FA
100
AcDbEntity
  8
0
  6
Continuous
 62
     7
100
AcDbLine
 10
7.841530320273022
 20
3.080000583711353
 30
0.0
 11
7.841530320273022
 21
3.000000440213169
 31
0.0
  0
LINE
  5
189A
330
17FA
100
AcDbEntity
  8
0
  6
Continuous
 62
     7
100
AcDbLine
 10
7.841530320273022
 20
3.080000583711353
 30
0.0
 11
7.840761047826387
 21
3.080000583711353
 31
0.0
  0
LINE
  5
189B
330
17FA
100
AcDbEntity
  8
0
  6
Continuous
 62
     7
100
AcDbLine
 10
7.753813703582864
 20
3.000000440213169
 30
0.0
 11
7.75377458803473
 21
3.000000440213169
 31
0.0
  0
LINE
  5
189C
330
17FA
100
AcDbEntity
  8
0
  6
Continuous
 62
     7
100
AcDbLine
 10
7.75377458803473
 20
3.000000440213169
 30
0.0
 11
7.501608756409266
 21
3.000000440213169
 31
0.0
  0
LINE
  5
189D
330
17FA
100
AcDbEntity
  8
0
  6
Continuous
 62
     7
100
AcDbLine
 10
7.753813703582864
 20
3.000000440213169
 30
0.0
 11
10.10161504991468
 21
3.000000440213169
 31
0.0
  0
LINE
  5
189E
330
17FA
100
AcDbEntity
  8
0
  6
Continuous
 62
     7
100
AcDbLine
 10
9.84153018243728
 20
3.080000583711353
 30
0.0
 11
7.841530320273022
 21
3.080000583711353
 31
0.0
  0
LINE
  5
189F
330
17FA
100
AcDbEntity
  8
0
  6
Continuous
 62
     7
100
AcDbLine
 10
5.351344187782386
 20
14.397877216968
 30
0.0
 11
7.501344260798077
 21
14.397877216968
 31
0.0
  0
LINE
  5
18A0
330
17FA
100
AcDbEntity
  8
0
  6
Continuous
 62
     7
100
AcDbLine
 10
5.271400389299968
 20
14.42000031906673
 30
0.0
 11
7.241400954352003
 21
14.42000031906673
 31
0.0
  0
LINE
  5
18A1
330
17FA
100
AcDbEntity
  8
0
  6
Continuous
 62
     7
100
AcDbLine
 10
5.351353501008134
 20
14.42000031906673
 30
0.0
 11
5.351344187782386
 21
14.397877216968
 31
0.0
  0
LINE
  5
18A2
330
17FA
100
AcDbEntity
  8
0
  6
Continuous
 62
     7
100
AcDbLine
 10
5.351257574782948
 20
14.397877216968
 30
0.0
 11
5.351344187782386
 21
14.397877216968
 31
0.0
  0
LINE
  5
18A3
330
17FA
100
AcDbEntity
  8
0
  6
Continuous
 62
     7
100
AcDbLine
 10
5.351257574782948
 20
14.397877216968
 30
0.0
 11
5.351257574782948
 21
14.42000031906673
 31
0.0
  0
LINE
  5
18A4
330
17FA
100
AcDbEntity
  8
0
  6
Continuous
 62
     7
100
AcDbLine
 10
3.00145900718985
 20
13.25000025767391
 30
0.0
 11
3.472384129689316
 21
13.25000025767391
 31
0.0
  0
LINE
  5
18A5
330
17FA
100
AcDbEntity
  8
0
  6
Continuous
 62
     7
100
AcDbLine
 10
3.472384129689316
 20
12.55000051546403
 30
0.0
 11
3.00145900718985
 21
12.55000051546403
 31
0.0
  0
LINE
  5
18A6
330
17FA
100
AcDbEntity
  8
0
  6
Continuous
 62
     7
100
AcDbLine
 10
3.00145900718985
 20
11.05000050242551
 30
0.0
 11
3.472384129689316
 21
11.05000050242551
 31
0.0
  0
LINE
  5
18A7
330
17FA
100
AcDbEntity
  8
0
  6
Continuous
 62
     7
100
AcDbLine
 10
3.00145900718985
 20
12.15000049646505
 30
0.0
 11
3.472384129689316
 21
12.15000049646505
 31
0.0
  0
LINE
  5
18A8
330
17FA
100
AcDbEntity
  8
0
  6
Continuous
 62
     7
100
AcDbLine
 10
3.472384129689316
 20
11.45000052142449
 30
0.0
 11
3.00145900718985
 21
11.45000052142449
 31
0.0
  0
LINE
  5
18A9
330
17FA
100
AcDbEntity
  8
0
  6
Continuous
 62
     7
100
AcDbLine
 10
3.472384129689316
 20
12.55000051546403
 30
0.0
 11
3.472384129689316
 21
13.25000025767391
 31
0.0
  0
LINE
  5
18AA
330
17FA
100
AcDbEntity
  8
0
  6
Continuous
 62
     7
100
AcDbLine
 10
3.472384129689316
 20
11.45000052142449
 30
0.0
 11
3.472384129689316
 21
12.15000049646505
 31
0.0
  0
LINE
  5
18AB
330
17FA
100
AcDbEntity
  8
0
  6
Continuous
 62
     7
100
AcDbLine
 10
3.00145900718985
 20
8.850000412483041
 30
0.0
 11
3.472384129689316
 21
8.850000412483041
 31
0.0
  0
LINE
  5
18AC
330
17FA
100
AcDbEntity
  8
0
  6
Continuous
 62
     7
100
AcDbLine
 10
3.472384129689316
 20
9.250000402378192
 30
0.0
 11
3.00145900718985
 21
9.250000402378192
 31
0.0
  0
LINE
  5
18AD
330
17FA
100
AcDbEntity
  8
0
  6
Continuous
 62
     7
100
AcDbLine
 10
3.00145900718985
 20
9.950000391970661
 30
0.0
 11
3.472384129689316
 21
9.950000391970661
 31
0.0
  0
LINE
  5
18AE
330
17FA
100
AcDbEntity
  8
0
  6
Continuous
 62
     7
100
AcDbLine
 10
3.472384129689316
 20
10.35000041096964
 30
0.0
 11
3.00145900718985
 21
10.35000041096964
 31
0.0
  0
LINE
  5
18AF
330
17FA
100
AcDbEntity
  8
0
  6
Continuous
 62
     7
100
AcDbLine
 10
3.472384129689316
 20
9.250000402378192
 30
0.0
 11
3.472384129689316
 21
9.950000391970661
 31
0.0
  0
LINE
  5
18B0
330
17FA
100
AcDbEntity
  8
0
  6
Continuous
 62
     7
100
AcDbLine
 10
3.472384129689316
 20
10.35000041096964
 30
0.0
 11
3.472384129689316
 21
11.05000050242551
 31
0.0
  0
LINE
  5
18B1
330
17FA
100
AcDbEntity
  8
0
  6
Continuous
 62
     7
100
AcDbLine
 10
11.90161478616414
 20
11.05000050242551
 30
0.0
 11
12.60161499403533
 21
11.05000050242551
 31
0.0
  0
LINE
  5
18B2
330
17FA
100
AcDbEntity
  8
0
  6
Continuous
 62
     7
100
AcDbLine
 10
12.01083238147315
 20
10.55000042046913
 30
0.0
 11
12.16082095079241
 21
10.55000042046913
 31
0.0
  0
LINE
  5
18B3
330
17FA
100
AcDbEntity
  8
0
  6
Continuous
 62
     7
100
AcDbLine
 10
11.90161478616414
 20
11.5314819334776
 30
0.0
 11
11.90161478616414
 21
11.05000050242551
 31
0.0
  0
LINE
  5
18B4
330
17FA
100
AcDbEntity
  8
0
  6
Continuous
 62
     7
100
AcDbLine
 10
11.90140523858485
 20
11.05000050242551
 30
0.0
 11
11.90140523858485
 21
11.5314819334776
 31
0.0
  0
LINE
  5
18B5
330
17FA
100
AcDbEntity
  8
0
  6
Continuous
 62
     7
100
AcDbLine
 10
11.90161478616414
 20
11.05000050242551
 30
0.0
 11
11.90140523858485
 21
11.05000050242551
 31
0.0
  0
LINE
  5
18B6
330
17FA
100
AcDbEntity
  8
0
  6
Continuous
 62
     7
100
AcDbLine
 10
9.84153018243728
 20
12.82000047590144
 30
0.0
 11
10.10153029956039
 21
12.82000047590144
 31
0.0
  0
LINE
  5
18B7
330
17FA
100
AcDbEntity
  8
0
  6
Continuous
 62
     7
100
AcDbLine
 10
9.84094903715072
 20
12.82000047590144
 30
0.0
 11
9.84153018243728
 21
12.82000047590144
 31
0.0
  0
LINE
  5
18B8
330
17FA
100
AcDbEntity
  8
0
  6
Continuous
 62
     7
100
AcDbLine
 10
8.440949087069611
 20
12.82000047590144
 30
0.0
 11
9.84094903715072
 21
12.82000047590144
 31
0.0
  0
LINE
  5
18B9
330
17FA
100
AcDbEntity
  8
0
  6
Continuous
 62
     7
100
AcDbLine
 10
8.440760959909539
 20
12.82000047590144
 30
0.0
 11
8.440949087069611
 21
12.82000047590144
 31
0.0
  0
LINE
  5
18BA
330
17FA
100
AcDbEntity
  8
0
  6
Continuous
 62
     7
100
AcDbLine
 10
10.10076102711374
 20
11.5314819334776
 30
0.0
 11
10.10161504991468
 21
11.5314819334776
 31
0.0
  0
LINE
  5
18BB
330
17FA
100
AcDbEntity
  8
0
  6
Continuous
 62
     7
100
AcDbLine
 10
10.10076102711374
 20
11.5314819334776
 30
0.0
 11
10.10076102711374
 21
12.82000047590144
 31
0.0
  0
LINE
  5
18BC
330
17FA
100
AcDbEntity
  8
0
  6
Continuous
 62
     7
100
AcDbLine
 10
11.76075504072126
 20
10.70057968113133
 30
0.0
 11
11.0607613521081
 21
10.70057968113133
 31
0.0
  0
LINE
  5
18BD
330
17FA
100
AcDbEntity
  8
0
  6
Continuous
 62
     7
100
AcDbLine
 10
11.76075504072126
 20
10.70057968113133
 30
0.0
 11
11.76075504072126
 21
11.5314819334776
 31
0.0
  0
LINE
  5
18BE
330
17FA
100
AcDbEntity
  8
0
  6
Continuous
 62
     7
100
AcDbLine
 10
11.0607613521081
 20
10.70057968113133
 30
0.0
 11
11.0607613521081
 21
11.5314819334776
 31
0.0
  0
LINE
  5
18BF
330
17FA
100
AcDbEntity
  8
0
  6
Continuous
 62
     7
100
AcDbLine
 10
11.90161478616414
 20
11.5314819334776
 30
0.0
 11
10.10161504991468
 21
11.5314819334776
 31
0.0
  0
LINE
  5
18C0
330
17FA
100
AcDbEntity
  8
0
  6
Continuous
 62
     7
100
AcDbLine
 10
11.76076109431801
 20
10.55000042046913
 30
0.0
 11
11.76083234049497
 21
10.55000042046913
 31
0.0
  0
LINE
  5
18C1
330
17FA
100
AcDbEntity
  8
0
100
AcDbLine
 10
11.05892571531353
 20
9.050699830684152
 30
0.0
 11
11.55892571531353
 21
9.050699830684152
 31
0.0
  0
LINE
  5
18C2
330
17FA
100
AcDbEntity
  8
0
  6
Continuous
 62
     7
100
AcDbLine
 10
11.76083234049497
 20
10.55000042046913
 30
0.0
 11
12.01083238147315
 21
10.55000042046913
 31
0.0
  0
LINE
  5
18C3
330
17FA
100
AcDbEntity
  8
0
  6
Continuous
 62
     7
100
AcDbLine
 10
11.76083234049497
 20
10.55000042046913
 30
0.0
 11
11.76083234049497
 21
11.5314819334776
 31
0.0
  0
LINE
  5
18C4
330
17FA
100
AcDbEntity
  8
0
  6
Continuous
 62
     7
100
AcDbLine
 10
12.01083238147315
 20
11.05000050242551
 30
0.0
 11
12.01083238147315
 21
10.55000042046913
 31
0.0
  0
LINE
  5
18C5
330
17FA
100
AcDbEntity
  8
0
100
AcDbLine
 10
11.55892571531353
 20
9.050699830684152
 30
0.0
 11
11.05892571531353
 21
9.050699830684152
 31
0.0
  0
LINE
  5
18C6
330
17FA
100
AcDbEntity
  8
0
  6
Continuous
 62
     7
100
AcDbLine
 10
12.80159928746638
 20
13.70000042456694
 30
0.0
 11
14.01098777450738
 21
13.70000042456694
 31
0.0
  0
LINE
  5
18C7
330
17FA
100
AcDbEntity
  8
0
  6
Continuous
 62
     7
100
AcDbLine
 10
13.36083241649089
 20
11.55000035155126
 30
0.0
 11
12.80159928746638
 21
11.55000035155126
 31
0.0
  0
LINE
  5
18C8
330
17FA
100
AcDbEntity
  8
0
  6
Continuous
 62
     7
100
AcDbLine
 10
12.60080800302444
 20
10.70057968113133
 30
0.0
 11
12.46080786831794
 21
10.70057968113133
 31
0.0
  0
LINE
  5
18C9
330
17FA
100
AcDbEntity
  8
0
  6
Continuous
 62
     7
100
AcDbLine
 10
12.46080786831794
 20
10.70057968113133
 30
0.0
 11
12.46076130218921
 21
10.70057968113133
 31
0.0
  0
LINE
  5
18CA
330
17FA
100
AcDbEntity
  8
0
  6
Continuous
 62
     7
100
AcDbLine
 10
13.46080779940007
 20
10.70057968113133
 30
0.0
 11
13.36083241649089
 21
10.70057968113133
 31
0.0
  0
LINE
  5
18CB
330
17FA
100
AcDbEntity
  8
0
  6
Continuous
 62
     7
100
AcDbLine
 10
12.46076130218921
 20
10.70057968113133
 30
0.0
 11
12.16082095079241
 21
10.70057968113133
 31
0.0
  0
LINE
  5
18CC
330
17FA
100
AcDbEntity
  8
0
  6
Continuous
 62
     7
100
AcDbLine
 10
12.60078471996006
 20
10.70057968113133
 30
0.0
 11
12.60078471996006
 21
11.05000050242551
 31
0.0
  0
LINE
  5
18CD
330
17FA
100
AcDbEntity
  8
0
  6
Continuous
 62
     7
100
AcDbLine
 10
12.60081591926631
 20
10.55000042046913
 30
0.0
 11
12.52222579814611
 21
10.55000042046913
 31
0.0
  0
LINE
  5
18CE
330
17FA
100
AcDbEntity
  8
0
  6
Continuous
 62
     7
100
AcDbLine
 10
12.60080800302444
 20
10.55000042046913
 30
0.0
 11
12.60080800302444
 21
10.70057968113133
 31
0.0
  0
LINE
  5
18CF
330
17FA
100
AcDbEntity
  8
0
  6
Continuous
 62
     7
100
AcDbLine
 10
12.16082095079241
 20
11.05000050242551
 30
0.0
 11
12.16082095079241
 21
10.55000042046913
 31
0.0
  0
LINE
  5
18D0
330
17FA
100
AcDbEntity
  8
0
  6
Continuous
 62
     7
100
AcDbLine
 10
14.26027628503857
 20
9.435000399523687
 30
0.0
 11
14.26027605220792
 21
7.395000378298846
 31
0.0
  0
LINE
  5
18D1
330
17FA
100
AcDbEntity
  8
0
  6
Continuous
 62
     7
100
AcDbLine
 10
14.26027628503857
 20
8.165000420692649
 30
0.0
 11
14.30159928746638
 21
8.165000420692649
 31
0.0
  0
LINE
  5
18D2
330
17FA
100
AcDbEntity
  8
0
  6
Continuous
 62
     7
100
AcDbLine
 10
14.26027628503857
 20
8.665000415337543
 30
0.0
 11
14.30159928746638
 21
8.665000415337543
 31
0.0
  0
LINE
  5
18D3
330
17FA
100
AcDbEntity
  8
0
  6
Continuous
 62
     7
100
AcDbLine
 10
14.30159928746649
 20
4.355000280472721
 30
0.0
 11
14.0559876514983
 21
4.355000280472721
 31
0.0
  0
LINE
  5
18D4
330
17FA
100
AcDbEntity
  8
0
  6
Continuous
 62
     7
100
AcDbLine
 10
14.30159928746649
 20
5.625000404822912
 30
0.0
 11
14.26027605220792
 21
5.625000404822912
 31
0.0
  0
LINE
  5
18D5
330
17FA
100
AcDbEntity
  8
0
  6
Continuous
 62
     7
100
AcDbLine
 10
14.26027605220792
 20
6.125000486779297
 30
0.0
 11
14.30159928746638
 21
6.125000486779297
 31
0.0
  0
LINE
  5
18D6
330
17FA
100
AcDbEntity
  8
0
  6
Continuous
 62
     7
100
AcDbLine
 10
14.26027605220792
 20
6.895000296342457
 30
0.0
 11
14.26027581937727
 21
4.855000362429108
 31
0.0
  0
LINE
  5
18D7
330
17FA
100
AcDbEntity
  8
0
  6
Continuous
 62
     7
100
AcDbLine
 10
14.26027581937727
 20
3.574597132089817
 30
0.0
 11
14.26027581937727
 21
3.200000566127982
 31
0.0
  0
LINE
  5
18D8
330
17FA
100
AcDbEntity
  8
0
  6
Continuous
 62
     7
100
AcDbLine
 10
14.26027581937727
 20
4.355000280472721
 30
0.0
 11
14.26027581937727
 21
4.150712345424381
 31
0.0
  0
LINE
  5
18D9
330
17FA
100
AcDbEntity
  8
0
  6
Continuous
 62
     7
100
AcDbLine
 10
14.26027651786919
 20
10.70500043656238
 30
0.0
 11
14.30159928746616
 21
10.70500043656238
 31
0.0
  0
LINE
  5
18DA
330
17FA
100
AcDbEntity
  8
0
  6
Continuous
 62
     7
100
AcDbLine
 10
14.30159928746616
 20
11.20500051851877
 30
0.0
 11
14.26027651786919
 21
11.20500051851877
 31
0.0
  0
LINE
  5
18DB
330
17FA
100
AcDbEntity
  8
0
  6
Continuous
 62
     7
100
AcDbLine
 10
14.30159928746616
 20
13.24500045243212
 30
0.0
 11
14.26027675069986
 21
13.24500045243212
 31
0.0
  0
LINE
  5
18DC
330
17FA
100
AcDbEntity
  8
0
  6
Continuous
 62
     7
100
AcDbLine
 10
14.30159928746603
 20
13.7450005343885
 30
0.0
 11
14.26027675069986
 21
13.7450005343885
 31
0.0
  0
LINE
  5
18DD
330
17FA
100
AcDbEntity
  8
0
  6
Continuous
 62
     7
100
AcDbLine
 10
14.26027651786919
 20
11.97500032808193
 30
0.0
 11
14.26027628503857
 21
9.935000394168582
 31
0.0
  0
LINE
  5
18DE
330
17FA
100
AcDbEntity
  8
0
  6
Continuous
 62
     7
100
AcDbLine
 10
14.26027675069986
 20
13.94928940075942
 30
0.0
 11
14.26027651786919
 21
12.47500041003831
 31
0.0
  0
LINE
  5
18DF
330
17FA
100
AcDbEntity
  8
0
100
AcDbLine
 10
14.30159928746593
 20
18.10000062051721
 30
0.0
 11
0.000000310167934
 21
18.10000062051676
 31
0.0
  0
LINE
  5
18E0
330
17FA
100
AcDbEntity
  8
0
  6
Continuous
 62
     7
100
AcDbLine
 10
14.30159928746603
 20
14.52540368277141
 30
0.0
 11
14.01109627358732
 21
14.52540368277141
 31
0.0
  0
LINE
  5
18E1
330
17FA
100
AcDbEntity
  8
0
  6
Continuous
 62
     7
100
AcDbLine
 10
13.31109629854677
 20
14.90000024873324
 30
0.0
 11
14.30159928746603
 21
14.90000024873324
 31
0.0
  0
LINE
  5
18E2
330
17FA
100
AcDbEntity
  8
0
  6
Continuous
 62
     7
100
AcDbLine
 10
14.30159928746593
 20
15.90375578813018
 30
0.0
 11
13.31098779946683
 21
16.30000019881435
 31
0.0
  0
LINE
  5
18E3
330
17FA
100
AcDbEntity
  8
0
  6
Continuous
 62
     7
100
AcDbLine
 10
13.71073077343521
 20
16.34000050339408
 30
0.0
 11
14.30159928746593
 21
16.34000050339408
 31
0.0
  0
LINE
  5
18E4
330
17FA
100
AcDbEntity
  8
0
  6
Continuous
 62
     7
100
AcDbLine
 10
13.71073077343521
 20
16.58000046822735
 30
0.0
 11
14.30159928746593
 21
16.58000046822735
 31
0.0
  0
LINE
  5
18E5
330
17FA
100
AcDbEntity
  8
0
  6
Continuous
 62
     7
100
AcDbLine
 10
7.501615275667289
 20
15.26371663871714
 30
0.0
 11
5.351615202651601
 21
15.26371663871714
 31
0.0
  0
LINE
  5
18E6
330
17FA
100
AcDbEntity
  8
0
  6
Continuous
 62
     7
100
AcDbLine
 10
5.351602164135556
 20
15.0676578699381
 30
0.0
 11
7.501602237151246
 21
15.0676578699381
 31
0.0
  0
LINE
  5
18E7
330
17FA
100
AcDbEntity
  8
0
  6
Continuous
 62
     7
100
AcDbLine
 10
1.701614883766751
 20
16.4000004946024
 30
0.0
 11
12.60161499403533
 21
16.4000004946024
 31
0.0
  0
LINE
  5
18E8
330
17FA
100
AcDbEntity
  8
0
  6
Continuous
 62
     7
100
AcDbLine
 10
12.80159928746638
 20
16.60000062051722
 30
0.0
 11
1.501599391029458
 21
16.60000062051722
 31
0.0
  0
LINE
  5
18E9
330
17FA
100
AcDbEntity
  8
0
  6
Continuous
 62
     7
100
AcDbLine
 10
3.536772978530506
 20
16.8700208372206
 30
0.0
 11
2.346888248847105
 21
16.78000059414215
 31
0.0
  0
LINE
  5
18EA
330
17FA
100
AcDbEntity
  8
0
  6
Continuous
 62
     7
100
AcDbLine
 10
3.536772978530506
 20
16.67002117696709
 30
0.0
 11
2.611246024296856
 21
16.60000062051722
 31
0.0
  0
LINE
  5
18EB
330
17FA
100
AcDbEntity
  8
0
  6
Continuous
 62
     7
100
AcDbLine
 10
1.919974637256244
 20
16.78000059414215
 30
0.0
 11
1.919974637256244
 21
16.60000062051722
 31
0.0
  0
LINE
  5
18EC
330
17FA
100
AcDbEntity
  8
0
  6
Continuous
 62
     7
100
AcDbLine
 10
1.919974637256244
 20
16.78000059414215
 30
0.0
 11
2.346888248847105
 21
16.78000059414215
 31
0.0
  0
LINE
  5
18ED
330
17FA
100
AcDbEntity
  8
0
  6
Continuous
 62
     7
100
AcDbLine
 10
3.536772978530506
 20
16.8700208372206
 30
0.0
 11
3.536772978530506
 21
16.67002117696709
 31
0.0
  0
LINE
  5
18EE
330
17FA
100
AcDbEntity
  8
0
  6
Continuous
 62
     7
100
AcDbLine
 10
4.060192097948172
 20
16.64626500073381
 30
0.0
 11
3.536772978530506
 21
16.67002117696709
 31
0.0
  0
LINE
  5
18EF
330
17FA
100
AcDbEntity
  8
0
  6
Continuous
 62
     7
100
AcDbLine
 10
4.060192097948172
 20
16.84626466098733
 30
0.0
 11
3.536772978530506
 21
16.8700208372206
 31
0.0
  0
LINE
  5
18F0
330
17FA
100
AcDbEntity
  8
0
  6
Continuous
 62
     7
100
AcDbLine
 10
5.351602164135556
 20
15.0676578699381
 30
0.0
 11
5.351555598006825
 21
14.94534448224612
 31
0.0
  0
LWPOLYLINE
  5
18F1
330
17FA
100
AcDbEntity
  8
0
  6
Continuous
 62
     7
100
AcDbPolyline
 90
        9
 70
   128
 43
0.0
 10
5.271336128042321
 20
14.75226268607682
 10
5.27136499904213
 20
14.68863798740811
 10
5.271393870041947
 20
14.66117700997298
 10
5.271422741041758
 20
14.67014285239883
 10
5.271450680718999
 20
14.71545029867002
 10
5.271479551718811
 20
14.79666442114421
 10
5.271506560073476
 20
14.91300663414904
 10
5.271532637105565
 20
15.0633612132401
 10
5.271538225041011
 20
15.10000037464806
  0
LINE
  5
18F2
330
17FA
100
AcDbEntity
  8
0
  6
Continuous
 62
     7
100
AcDbLine
 10
5.271336128042321
 20
14.50665755632826
 30
0.0
 11
5.271336128042321
 21
14.75226268607682
 31
0.0
  0
LINE
  5
18F3
330
17FA
100
AcDbEntity
  8
0
  6
Continuous
 62
     7
100
AcDbLine
 10
5.271336128042321
 20
14.75226268607682
 30
0.0
 11
5.271465581880191
 21
14.75226268607682
 31
0.0
  0
LWPOLYLINE
  5
18F4
330
17FA
100
AcDbEntity
  8
0
  6
Continuous
 62
     7
100
AcDbPolyline
 90
        5
 70
   128
 43
0.0
 10
5.271584791169741
 20
15.29496716770835
 10
5.271581997202018
 20
15.23924008447238
 10
5.271579203234296
 20
15.18188877466625
 10
5.271576409266572
 20
15.12958011094042
 10
5.271576409266572
 20
15.12848766956039
  0
LWPOLYLINE
  5
18F5
330
17FA
100
AcDbEntity
  8
0
  6
Continuous
 62
     7
100
AcDbPolyline
 90
        3
 70
   128
 43
0.0
 10
5.271573615298846
 20
15.10000037464806
 10
5.271572683976273
 20
15.08314343604752
 10
5.2715680273634
 20
15.04331449482151
  0
LINE
  5
18F6
330
17FA
100
AcDbEntity
  8
0
  6
Continuous
 62
     7
100
AcDbLine
 10
5.351615202651601
 20
15.26371663871714
 30
0.0
 11
5.351615202651601
 21
15.29496716770835
 31
0.0
  0
LINE
  5
18F7
330
17FA
100
AcDbEntity
  8
0
  6
Continuous
 62
     7
100
AcDbLine
 10
5.351576087103467
 20
15.12848766956039
 30
0.0
 11
5.351576087103467
 21
15.10000037464806
 31
0.0
  0
LWPOLYLINE
  5
18F8
330
17FA
100
AcDbEntity
  8
0
  6
Continuous
 62
     7
100
AcDbPolyline
 90
        9
 70
   128
 43
0.0
 10
5.351602164135556
 20
15.0676578699381
 10
5.35160495810328
 20
15.07727656948873
 10
5.351607752071004
 20
15.09236446085878
 10
5.351609614716153
 20
15.11247963148661
 10
5.351611477361299
 20
15.1370320885212
 10
5.35161334000645
 20
15.16530052262851
 10
5.351614271329026
 20
15.19645652237841
 10
5.351615202651601
 20
15.22958599466392
 10
5.351615202651601
 20
15.26371663871714
  0
LINE
  5
18F9
330
17FA
100
AcDbEntity
  8
0
  6
Continuous
 62
     7
100
AcDbLine
 10
5.2715680273634
 20
15.04331449482151
 30
0.0
 11
5.351567705200293
 21
15.04331449482151
 31
0.0
  0
LINE
  5
18FA
330
17FA
100
AcDbEntity
  8
0
  6
Continuous
 62
     7
100
AcDbLine
 10
3.001614538059807
 20
15.02000023114987
 30
0.0
 11
4.671529931054691
 21
15.02000023114987
 31
0.0
  0
LINE
  5
18FB
330
17FA
100
AcDbEntity
  8
0
  6
Continuous
 62
     7
100
AcDbLine
 10
5.099416774736027
 20
15.10000037464806
 30
0.0
 11
3.001614538059807
 21
15.10000037464806
 31
0.0
  0
LINE
  5
18FC
330
17FA
100
AcDbEntity
  8
0
  6
Continuous
 62
     7
100
AcDbLine
 10
4.671529931054691
 20
15.02000023114987
 30
0.0
 11
4.671529931054691
 21
15.10000037464806
 31
0.0
  0
LINE
  5
18FD
330
17FA
100
AcDbEntity
  8
0
  6
Continuous
 62
     7
100
AcDbLine
 10
5.099416774736027
 20
15.29496716770835
 30
0.0
 11
5.099416774736027
 21
15.10000037464806
 31
0.0
  0
LINE
  5
18FE
330
17FA
100
AcDbEntity
  8
0
  6
Continuous
 62
     7
100
AcDbLine
 10
5.351615202651601
 20
15.29496716770835
 30
0.0
 11
5.099416774736027
 21
15.29496716770835
 31
0.0
  0
LINE
  5
18FF
330
17FA
100
AcDbEntity
  8
0
  6
Continuous
 62
     7
100
AcDbLine
 10
5.099416774736027
 20
15.10000037464806
 30
0.0
 11
5.351576087103467
 21
15.10000037464806
 31
0.0
  0
LWPOLYLINE
  5
1900
330
17FA
100
AcDbEntity
  8
0
  6
Continuous
 62
     7
100
AcDbPolyline
 90
       10
 70
   128
 43
0.0
 10
1.701614883766751
 20
16.4000004946024
 10
1.666884933636764
 20
16.4347299790711
 10
1.633210171983819
 20
16.46840427506274
 10
1.601613190994839
 20
16.50000032472917
 10
1.573054184244254
 20
16.52855793449589
 10
1.548400213049034
 20
16.55320911172339
 10
1.528401923404316
 20
16.57320553872295
 10
1.513666537628751
 20
16.58793906185334
 10
1.504640159235574
 20
16.59696218061753
 10
1.501599391029458
 20
16.60000062051722
  0
LINE
  5
1901
330
17FA
100
AcDbEntity
  8
0
  6
Continuous
 62
     7
100
AcDbLine
 10
1.501599391029458
 20
16.60000062051722
 30
0.0
 11
1.500000310168843
 21
16.60000062051722
 31
0.0
  0
LINE
  5
1902
330
17FA
100
AcDbEntity
  8
0
  6
Continuous
 62
     7
100
AcDbLine
 10
11.06131595470124
 20
18.10000062051721
 30
0.0
 11
11.06131595470124
 21
16.60000062051722
 31
0.0
  0
LINE
  5
1903
330
17FA
100
AcDbEntity
  8
0
  6
Continuous
 62
     7
100
AcDbLine
 10
11.06071525164065
 20
16.78000059414215
 30
0.0
 11
9.120715380684712
 21
16.78000059414215
 31
0.0
  0
LINE
  5
1904
330
17FA
100
AcDbEntity
  8
0
  6
Continuous
 62
     7
100
AcDbLine
 10
8.820692141578772
 20
16.78000059414215
 30
0.0
 11
8.820692141578772
 21
16.60000062051722
 31
0.0
  0
LINE
  5
1905
330
17FA
100
AcDbEntity
  8
0
  6
Continuous
 62
     7
100
AcDbLine
 10
9.120715380684712
 20
16.78000059414215
 30
0.0
 11
8.820692141578772
 21
16.78000059414215
 31
0.0
  0
LINE
  5
1906
330
17FA
100
AcDbEntity
  8
0
  6
Continuous
 62
     7
100
AcDbLine
 10
9.120715380684712
 20
16.60000062051722
 30
0.0
 11
9.120715380684712
 21
16.78000059414215
 31
0.0
  0
LINE
  5
1907
330
17FA
100
AcDbEntity
  8
0
  6
Continuous
 62
     7
100
AcDbLine
 10
12.6613160306972
 20
16.60000062051722
 30
0.0
 11
12.6613160306972
 21
18.10000062051721
 31
0.0
  0
LWPOLYLINE
  5
1908
330
17FA
100
AcDbEntity
  8
0
  6
Continuous
 62
     7
100
AcDbPolyline
 90
        9
 70
   128
 43
0.0
 10
12.80159928746638
 20
16.60000062051722
 10
12.79775944449125
 20
16.59615751791307
 10
12.78638147659717
 20
16.58477629038998
 10
12.76790217407165
 20
16.56629419389673
 10
12.74303167037783
 20
16.54142182755776
 10
12.71272643379983
 20
16.51111426267333
 10
12.67815061755594
 20
16.47653704944556
 10
12.64063275329886
 20
16.43901825386591
 10
12.60161499403533
 20
16.4000004946024
  0
LINE
  5
1909
330
17FA
100
AcDbEntity
  8
0
  6
Continuous
 62
     7
100
AcDbLine
 10
13.61069206059096
 20
16.58000046822735
 30
0.0
 11
13.61069206059096
 21
16.78000059414215
 31
0.0
  0
LINE
  5
190A
330
17FA
100
AcDbEntity
  8
0
  6
Continuous
 62
     7
100
AcDbLine
 10
12.80159928746638
 20
16.58000046822735
 30
0.0
 11
13.71073077343521
 21
16.58000046822735
 31
0.0
  0
LINE
  5
190B
330
17FA
100
AcDbEntity
  8
0
  6
Continuous
 62
     7
100
AcDbLine
 10
13.31071538761374
 20
16.58000046822735
 30
0.0
 11
13.31071538761374
 21
16.78000059414215
 31
0.0
  0
LINE
  5
190C
330
17FA
100
AcDbEntity
  8
0
  6
Continuous
 62
     7
100
AcDbLine
 10
13.31071538761374
 20
16.78000059414215
 30
0.0
 11
12.6613160306972
 21
16.78000059414215
 31
0.0
  0
LINE
  5
190D
330
17FA
100
AcDbEntity
  8
0
  6
Continuous
 62
     7
100
AcDbLine
 10
13.61069206059096
 20
16.78000059414215
 30
0.0
 11
13.31071538761374
 21
16.78000059414215
 31
0.0
  0
LWPOLYLINE
  5
190E
330
17FA
100
AcDbEntity
  8
0
  6
Continuous
 62
     7
100
AcDbPolyline
 90
        8
 70
   128
 43
0.0
 10
12.86109636448441
 20
14.90000024873324
 10
12.86109077654896
 20
15.20590339291401
 10
12.86108006633934
 20
15.48828645113417
 10
12.86106469951683
 20
15.73312463674255
 10
12.86104560740408
 20
15.92825720522114
 10
12.86102372132359
 20
16.06399281385846
 10
12.86099997259793
 20
16.13358868721434
 10
12.86098786540446
 20
16.14236966210909
  0
LWPOLYLINE
  5
190F
330
17FA
100
AcDbEntity
  8
0
  6
Continuous
 62
     7
100
AcDbPolyline
 90
        8
 70
   128
 43
0.0
 10
13.31109629854677
 20
14.90000024873324
 10
13.31109373740969
 20
15.21152951258724
 10
13.31108558833715
 20
15.50743770289727
 10
13.31107254982112
 20
15.7728860570819
 10
13.31105555318413
 20
15.99456457856603
 10
13.31103483125684
 20
16.16135700109905
 10
13.3110117810231
 20
16.26489958229965
 10
13.31098779946683
 20
16.30000019881435
  0
LWPOLYLINE
  5
1910
330
17FA
100
AcDbEntity
  8
0
  6
Continuous
 62
     7
100
AcDbPolyline
 90
       11
 70
   128
 43
0.0
 10
12.86109636448441
 20
14.90000024873324
 10
12.86109357051667
 20
15.21152951258724
 10
12.8610856542748
 20
15.50743770289727
 10
12.86107261575875
 20
15.7728860570819
 10
12.86105538629112
 20
15.99456457856603
 10
12.86103489719448
 20
16.16135700109905
 10
12.8610120797914
 20
16.26489958229965
 10
12.86098786540446
 20
16.30000019881435
 10
12.86096365101752
 20
16.26489958229965
 10
12.86094036795316
 20
16.16135700109905
 10
12.86093757398544
 20
16.14236966210909
  0
LINE
  5
1911
330
17FA
100
AcDbEntity
  8
0
  6
Continuous
 62
     7
100
AcDbLine
 10
14.01109627358732
 20
14.52540368277141
 30
0.0
 11
12.80159928746638
 21
14.52540368277141
 31
0.0
  0
LINE
  5
1912
330
17FA
100
AcDbEntity
  8
0
  6
Continuous
 62
     7
100
AcDbLine
 10
12.80159928746638
 20
14.90000024873324
 30
0.0
 11
12.86109636448441
 21
14.90000024873324
 31
0.0
  0
LINE
  5
1913
330
17FA
100
AcDbEntity
  8
0
  6
Continuous
 62
     7
100
AcDbLine
 10
12.86109636448441
 20
14.90000024873324
 30
0.0
 11
13.31109629854677
 21
14.90000024873324
 31
0.0
  0
LINE
  5
1914
330
17FA
100
AcDbEntity
  8
0
  6
Continuous
 62
     7
100
AcDbLine
 10
12.86098786540446
 20
16.14236966210909
 30
0.0
 11
12.80159928746638
 21
16.14236966210909
 31
0.0
  0
LINE
  5
1915
330
17FA
100
AcDbEntity
  8
0
  6
Continuous
 62
     7
100
AcDbLine
 10
13.31098779946683
 20
16.30000019881435
 30
0.0
 11
12.86098786540446
 21
16.30000019881435
 31
0.0
  0
LINE
  5
1916
330
17FA
100
AcDbEntity
  8
0
  6
Continuous
 62
     7
100
AcDbLine
 10
12.80159928746638
 20
16.34000050339408
 30
0.0
 11
13.71073077343521
 21
16.34000050339408
 31
0.0
  0
LINE
  5
1917
330
17FA
100
AcDbEntity
  8
0
  6
Continuous
 62
     7
100
AcDbLine
 10
13.71073077343521
 20
16.58000046822735
 30
0.0
 11
13.71073077343521
 21
16.34000050339408
 31
0.0
  0
LINE
  5
1918
330
17FA
100
AcDbEntity
  8
0
  6
Continuous
 62
     7
100
AcDbLine
 10
7.841530320273022
 20
15.10000037464806
 30
0.0
 11
7.841530320273022
 21
15.02000023114987
 31
0.0
  0
LINE
  5
1919
330
17FA
100
AcDbEntity
  8
0
  6
Continuous
 62
     7
100
AcDbLine
 10
7.840761047826387
 20
15.02000023114987
 30
0.0
 11
7.841530320273022
 21
15.02000023114987
 31
0.0
  0
LINE
  5
191A
330
17FA
100
AcDbEntity
  8
0
  6
Continuous
 62
     7
100
AcDbLine
 10
7.753813703582864
 20
15.10000037464806
 30
0.0
 11
7.753813703582864
 21
15.29496716770835
 31
0.0
  0
LINE
  5
191B
330
17FA
100
AcDbEntity
  8
0
  6
Continuous
 62
     7
100
AcDbLine
 10
7.753813703582864
 20
15.29496716770835
 30
0.0
 11
7.501615275667289
 21
15.29496716770835
 31
0.0
  0
LINE
  5
191C
330
17FA
100
AcDbEntity
  8
0
  6
Continuous
 62
     7
100
AcDbLine
 10
7.501615275667289
 20
15.26371663871714
 30
0.0
 11
7.501615275667289
 21
15.29496716770835
 31
0.0
  0
LWPOLYLINE
  5
191D
330
17FA
100
AcDbEntity
  8
0
  6
Continuous
 62
     7
100
AcDbPolyline
 90
        9
 70
   128
 43
0.0
 10
7.501602237151246
 20
15.0676578699381
 10
7.50160503111897
 20
15.07727656948873
 10
7.501607825086692
 20
15.09236446085878
 10
7.501609687731843
 20
15.11247963148661
 10
7.501611550376992
 20
15.1370320885212
 10
7.501613413022141
 20
15.16530052262851
 10
7.501614344344716
 20
15.19645652237841
 10
7.501614344344716
 20
15.22958599466392
 10
7.501615275667289
 20
15.26371663871714
  0
LINE
  5
191E
330
17FA
100
AcDbEntity
  8
0
  6
Continuous
 62
     7
100
AcDbLine
 10
7.75377458803473
 20
15.10000037464806
 30
0.0
 11
7.75377458803473
 21
15.29496716770835
 31
0.0
  0
LINE
  5
191F
330
17FA
100
AcDbEntity
  8
0
  6
Continuous
 62
     7
100
AcDbLine
 10
7.75377458803473
 20
15.10000037464806
 30
0.0
 11
7.753813703582864
 21
15.10000037464806
 31
0.0
  0
LINE
  5
1920
330
17FA
100
AcDbEntity
  8
0
  6
Continuous
 62
     7
100
AcDbLine
 10
7.501608756409266
 20
15.10000037464806
 30
0.0
 11
7.75377458803473
 21
15.10000037464806
 31
0.0
  0
LINE
  5
1921
330
17FA
100
AcDbEntity
  8
0
  6
Continuous
 62
     7
100
AcDbLine
 10
10.10161504991468
 20
15.10000037464806
 30
0.0
 11
7.753813703582864
 21
15.10000037464806
 31
0.0
  0
LINE
  5
1922
330
17FA
100
AcDbEntity
  8
0
  6
Continuous
 62
     7
100
AcDbLine
 10
7.841530320273022
 20
15.02000023114987
 30
0.0
 11
9.84153018243728
 21
15.02000023114987
 31
0.0
  0
LINE
  5
1923
330
17FA
100
AcDbEntity
  8
0
  6
Continuous
 62
     7
100
AcDbLine
 10
14.26027712916535
 20
18.10000062025346
 30
0.0
 11
14.2602769835305
 21
16.58000046822735
 31
0.0
  0
LINE
  5
1924
330
17FA
100
AcDbEntity
  8
0
  6
Continuous
 62
     7
100
AcDbLine
 10
14.2602769835305
 20
16.34000050339408
 30
0.0
 11
14.2602769835305
 21
15.92028461832114
 31
0.0
  0
LINE
  5
1925
330
17FA
100
AcDbEntity
  8
0
  6
Continuous
 62
     7
100
AcDbLine
 10
14.26027675069986
 20
14.90000024873324
 30
0.0
 11
14.26027675069986
 21
14.52540368277141
 31
0.0
  0
ENDBLK
  5
1927
330
17FA
100
AcDbEntity
  8
0
100
AcDbBlockEnd
  0
ENDSEC
  0
SECTION
  2
ENTITIES
  0
TEXT
  5
AE7
330
1F
100
AcDbEntity
  8
0
100
AcDbText
 10
-3.36081764916107
 20
389.9564286977794
 30
0.0
 40
10.0
  1
SCON-CA-12I~200I-EP/PRT-*-1/2
100
AcDbText
  0
LINE
  5
1DFF
330
1F
100
AcDbEntity
  8
0
100
AcDbLine
 10
49.0999997388784
 20
230.6738135952377
 30
0.0
 11
49.0999997388784
 21
185.1738135952377
 31
0.0
  0
LINE
  5
1E00
330
1F
100
AcDbEntity
  8
0
100
AcDbLine
 10
14.09999973887841
 20
185.1738135952377
 30
0.0
 11
14.09999973887841
 21
271.4738135952375
 31
0.0
  0
ARC
  5
1E01
330
1F
100
AcDbEntity
  8
0
100
AcDbCircle
 10
43.14999973887835
 20
219.6738137545815
 30
0.0
 40
2.0
100
AcDbArc
 50
75.00000000000555
 51
180.0
  0
LINE
  5
1E02
330
1F
100
AcDbEntity
  8
0
100
AcDbLine
 10
43.66763782908343
 20
221.6056654071594
 30
0.0
 11
45.96763782908339
 21
220.9893822645685
 31
0.0
  0
LINE
  5
1E03
330
1F
100
AcDbEntity
  8
0
100
AcDbLine
 10
48.79999973887844
 20
192.9738137545816
 30
0.0
 11
48.79999973887844
 21
230.1738137545815
 31
0.0
  0
LINE
  5
1E04
330
1F
100
AcDbEntity
  8
0
100
AcDbLine
 10
39.69999973887832
 20
229.1738137545817
 30
0.0
 11
39.69999973887832
 21
193.9738137545816
 31
0.0
  0
LINE
  5
1E05
330
1F
100
AcDbEntity
  8
0
100
AcDbLine
 10
14.0999997388775
 20
226.6138137545814
 30
0.0
 11
14.0999997388775
 21
185.9738137545819
 31
0.0
  0
LINE
  5
1E06
330
1F
100
AcDbEntity
  8
0
100
AcDbLine
 10
22.69999973887739
 20
185.9738137545819
 30
0.0
 11
22.69999973887739
 21
226.6138137545814
 31
0.0
  0
LINE
  5
1E07
330
1F
100
AcDbEntity
  8
0
100
AcDbLine
 10
38.59999986079525
 20
230.6738135952377
 30
0.0
 11
38.59999986079525
 21
185.1738135952377
 31
0.0
  0
LINE
  5
1E08
330
1F
100
AcDbEntity
  8
0
100
AcDbLine
 10
49.99999986079625
 20
230.6738135952377
 30
0.0
 11
49.99999986079625
 21
185.1738135952377
 31
0.0
  0
LINE
  5
1E09
330
1F
100
AcDbEntity
  8
0
100
AcDbLine
 10
12.99999986079535
 20
271.4738135952375
 30
0.0
 11
12.99999986079535
 21
185.1738135952377
 31
0.0
  0
LINE
  5
1E0A
330
1F
100
AcDbEntity
  8
0
100
AcDbLine
 10
23.59999986079526
 20
239.5738135952377
 30
0.0
 11
23.59999986079526
 21
185.1738135952377
 31
0.0
  0
LINE
  5
1E0B
330
1F
100
AcDbEntity
  8
0
100
AcDbLine
 10
8.0999997388775
 20
352.7738137545816
 30
0.0
 11
8.0999997388775
 21
203.6659135428808
 31
0.0
  0
LINE
  5
1E0C
330
1F
100
AcDbEntity
  8
0
100
AcDbLine
 10
55.69999973887741
 20
352.7738137545816
 30
0.0
 11
55.69999973887741
 21
183.1738137545816
 31
0.0
  0
LINE
  5
1E0D
330
1F
100
AcDbEntity
  8
0
100
AcDbLine
 10
4.999999738878443
 20
201.6069941794958
 30
0.0
 11
4.999999738878443
 21
354.4738137545818
 31
0.0
  0
LINE
  5
1E0E
330
1F
100
AcDbEntity
  8
0
100
AcDbLine
 10
57.99999973887826
 20
180.9738137545819
 30
0.0
 11
57.99999973887826
 21
354.9738137545819
 31
0.0
  0
LINE
  5
1E0F
330
1F
100
AcDbEntity
  8
0
100
AcDbLine
 10
7.99999973887844
 20
352.9738137545819
 30
0.0
 11
7.99999973887736
 21
203.5595097720857
 31
0.0
  0
LINE
  5
1E10
330
1F
100
AcDbEntity
  8
0
100
AcDbLine
 10
55.99999973887825
 20
182.9738137545819
 30
0.0
 11
55.99999973887825
 21
352.9738137545819
 31
0.0
  0
LINE
  5
1E11
330
1F
100
AcDbEntity
  8
0
100
AcDbLine
 10
5.9999997388785
 20
354.9738137545819
 30
0.0
 11
5.99999973887736
 21
202.3555942146193
 31
0.0
  0
LINE
  5
1E12
330
1F
100
AcDbEntity
  8
0
100
AcDbLine
 10
4.999999738878443
 20
201.6069941794949
 30
0.0
 11
4.999999738878443
 21
354.9476278330128
 31
0.0
  0
LINE
  5
1E13
330
1F
100
AcDbEntity
  8
0
100
AcDbLine
 10
57.99999973887826
 20
363.9738137545819
 30
0.0
 11
57.99999973887826
 21
171.9738137545816
 31
0.0
  0
LINE
  5
1E14
330
1F
100
AcDbEntity
  8
0
100
AcDbLine
 10
-0.0000002611214995
 20
363.8949131973836
 30
0.0
 11
-0.0000002611214995
 21
172.0527143117795
 31
0.0
  0
LINE
  5
1E16
330
1F
100
AcDbEntity
  8
0
100
AcDbLine
 10
42.59999973887727
 20
185.9738137545819
 30
0.0
 11
49.09999973887728
 21
185.9738137545819
 31
0.0
  0
LINE
  5
1E17
330
1F
100
AcDbEntity
  8
0
100
AcDbLine
 10
49.09999973887728
 20
191.4738137545819
 30
0.0
 11
42.59999973887727
 21
191.4738137545819
 31
0.0
  0
LINE
  5
1E1B
330
1F
100
AcDbEntity
  8
0
100
AcDbLine
 10
39.69999973887832
 20
193.9738137545816
 30
0.0
 11
48.79999973887844
 21
193.9738137545816
 31
0.0
  0
LINE
  5
1E1C
330
1F
100
AcDbEntity
  8
0
100
AcDbLine
 10
40.49999973887827
 20
192.9738137545816
 30
0.0
 11
48.79999973887844
 21
192.9738137545816
 31
0.0
  0
LINE
  5
1E1D
330
1F
100
AcDbEntity
  8
0
100
AcDbLine
 10
11.0999997388734
 20
183.1738137545816
 30
0.0
 11
55.69999973887741
 21
183.1738137545816
 31
0.0
  0
LINE
  5
1E1E
330
1F
100
AcDbEntity
  8
0
100
AcDbLine
 10
49.99999986079625
 20
185.1738135952377
 30
0.0
 11
38.59999986079525
 21
185.1738135952377
 31
0.0
  0
LINE
  5
1E1F
330
1F
100
AcDbEntity
  8
0
100
AcDbLine
 10
55.99999973887825
 20
182.9738137545819
 30
0.0
 11
10.99999973887326
 21
182.9738137545819
 31
0.0
  0
LINE
  5
1E20
330
1F
100
AcDbEntity
  8
0
100
AcDbLine
 10
5.99999973887736
 20
180.9738137545819
 30
0.0
 11
57.99999973887826
 21
180.9738137545819
 31
0.0
  0
LINE
  5
1E22
330
1F
100
AcDbEntity
  8
0
100
AcDbLine
 10
14.0999997388775
 20
185.9738137545819
 30
0.0
 11
22.69999973887739
 21
185.9738137545819
 31
0.0
  0
LINE
  5
1E23
330
1F
100
AcDbEntity
  8
0
100
AcDbLine
 10
23.59999986079526
 20
185.1738135952377
 30
0.0
 11
12.99999986079535
 21
185.1738135952377
 31
0.0
  0
LINE
  5
1E24
330
1F
100
AcDbEntity
  8
0
100
AcDbLine
 10
3.9999997388785
 20
170.9738137545818
 30
0.0
 11
26.89999973887836
 21
170.9738137545818
 31
0.0
  0
LINE
  5
1E25
330
1F
100
AcDbEntity
  8
0
100
AcDbLine
 10
11.09999973887431
 20
197.9738137545819
 30
0.0
 11
11.0999997388734
 21
183.1738137545816
 31
0.0
  0
LINE
  5
1E26
330
1F
100
AcDbEntity
  8
0
100
AcDbLine
 10
7.999999738874406
 20
197.9738137545819
 30
0.0
 11
7.999999738873267
 21
181.4738137545816
 31
0.0
  0
LINE
  5
1E27
330
1F
100
AcDbEntity
  8
0
100
AcDbLine
 10
10.99999973887439
 20
197.9738137545819
 30
0.0
 11
10.99999973887326
 21
182.9738137545819
 31
0.0
  0
LINE
  5
1E28
330
1F
100
AcDbEntity
  8
0
100
AcDbLine
 10
8.999999738874407
 20
197.9738137545819
 30
0.0
 11
8.999999738873269
 21
180.9738137545819
 31
0.0
  0
LINE
  5
1E29
330
1F
100
AcDbEntity
  8
0
100
AcDbLine
 10
7.999999738874406
 20
197.9738137545819
 30
0.0
 11
7.999999738873267
 21
181.0785574408587
 31
0.0
  0
LINE
  5
1E2A
330
1F
100
AcDbEntity
  8
0
100
AcDbLine
 10
0.9738227905703523
 20
171.0530569868045
 30
0.0
 11
3.9999997388785
 21
170.9738137545818
 31
0.0
  0
ARC
  5
1E2B
330
1F
100
AcDbEntity
  8
0
100
AcDbCircle
 10
0.9999997388784436
 20
172.0527143117795
 30
0.0
 40
1.0
100
AcDbArc
 50
180.0
 51
268.4999999999971
  0
LINE
  5
1E2C
330
1F
100
AcDbEntity
  8
0
100
AcDbLine
 10
3.9999997388785
 20
180.9738137545819
 30
0.0
 11
7.999999738873267
 21
181.0785574408587
 31
0.0
  0
LINE
  5
1E2D
330
1F
100
AcDbEntity
  8
0
100
AcDbLine
 10
0.4869112647244265
 20
181.0658072138314
 30
0.0
 11
3.9999997388785
 21
180.9738137545819
 31
0.0
  0
ARC
  5
1E2E
330
1F
100
AcDbEntity
  8
0
100
AcDbCircle
 10
0.4999997388784438
 20
181.5656358763199
 30
0.0
 40
0.5
100
AcDbArc
 50
180.0
 51
268.4999999999971
  0
LINE
  5
1E2F
330
1F
100
AcDbEntity
  8
0
100
AcDbLine
 10
5.999999738875713
 20
181.0261855977209
 30
0.0
 11
5.99999973887736
 21
180.9738137545819
 31
0.0
  0
CIRCLE
  5
1E30
330
1F
100
AcDbEntity
  8
0
100
AcDbCircle
 10
3.9999997388785
 20
185.9738137545819
 30
0.0
 40
1.6
  0
CIRCLE
  5
1E31
330
1F
100
AcDbEntity
  8
0
100
AcDbCircle
 10
3.9999997388785
 20
185.9738137545819
 30
0.0
 40
2.0
  0
LINE
  5
1E32
330
1F
100
AcDbEntity
  8
0
100
AcDbLine
 10
8.999999738873269
 20
181.4738137545816
 30
0.0
 11
7.999999738873267
 21
181.4738137545816
 31
0.0
  0
CIRCLE
  5
1E33
330
1F
100
AcDbEntity
  8
0
100
AcDbCircle
 10
2.4999997388785
 20
203.9738137545819
 30
0.0
 40
1.85
  0
CIRCLE
  5
1E34
330
1F
100
AcDbEntity
  8
0
100
AcDbCircle
 10
2.4999997388785
 20
203.9738137545819
 30
0.0
 40
2.149999999999999
  0
ARC
  5
1E35
330
1F
100
AcDbEntity
  8
0
100
AcDbCircle
 10
4.299999738878453
 20
197.9738137545819
 30
0.0
 40
3.699999999995998
100
AcDbArc
 50
0.0
 51
79.0945300032578
  0
ARC
  5
1E36
330
1F
100
AcDbEntity
  8
0
100
AcDbCircle
 10
4.299999738878453
 20
197.9738137545819
 30
0.0
 40
4.699999999995998
100
AcDbArc
 50
0.0
 51
68.79523363710446
  0
ARC
  5
1E37
330
1F
100
AcDbEntity
  8
0
100
AcDbCircle
 10
4.299999738878453
 20
197.9738137545819
 30
0.0
 40
3.699999999995998
100
AcDbArc
 50
0.0
 51
79.0945300032578
  0
CIRCLE
  5
1E38
330
1F
100
AcDbEntity
  8
0
100
AcDbCircle
 10
3.9999997388785
 20
195.9738137545816
 30
0.0
 40
2.0
  0
CIRCLE
  5
1E39
330
1F
100
AcDbEntity
  8
0
100
AcDbCircle
 10
3.9999997388785
 20
195.9738137545816
 30
0.0
 40
1.6
  0
LINE
  5
1E3A
330
1F
100
AcDbEntity
  8
0
100
AcDbLine
 10
1.949999738878318
 20
202.373813754581
 30
0.0
 11
3.049999738877318
 21
202.373813754581
 31
0.0
  0
LINE
  5
1E3B
330
1F
100
AcDbEntity
  8
0
100
AcDbLine
 10
1.949999738878318
 20
202.6738137545815
 30
0.0
 11
3.049999738877318
 21
202.6738137545815
 31
0.0
  0
LINE
  5
1E3C
330
1F
100
AcDbEntity
  8
0
100
AcDbLine
 10
1.549999738878453
 20
203.0238137545814
 30
0.0
 11
3.449999738877294
 21
203.0238137545814
 31
0.0
  0
LINE
  5
1E3D
330
1F
100
AcDbEntity
  8
0
100
AcDbLine
 10
1.549999738878453
 20
203.3238137545818
 30
0.0
 11
3.449999738877294
 21
203.3238137545818
 31
0.0
  0
LINE
  5
1E3E
330
1F
100
AcDbEntity
  8
0
100
AcDbLine
 10
2.649999738877454
 20
203.9738137545819
 30
0.0
 11
3.849999738878408
 21
203.9738137545819
 31
0.0
  0
LINE
  5
1E3F
330
1F
100
AcDbEntity
  8
0
100
AcDbLine
 10
1.149999738878364
 20
203.6738137545817
 30
0.0
 11
3.849999738878408
 21
203.6738137545817
 31
0.0
  0
ARC
  5
1E40
330
1F
100
AcDbEntity
  8
0
100
AcDbCircle
 10
1.549999738878453
 20
203.1738137545815
 30
0.0
 40
0.15
100
AcDbArc
 50
90.0
 51
270.0
  0
ARC
  5
1E41
330
1F
100
AcDbEntity
  8
0
100
AcDbCircle
 10
1.949999738878318
 20
202.5238137545807
 30
0.0
 40
0.15
100
AcDbArc
 50
90.0
 51
270.0
  0
LINE
  5
1E42
330
1F
100
AcDbEntity
  8
0
100
AcDbLine
 10
1.149999738878364
 20
203.9738137545819
 30
0.0
 11
2.349999738878409
 21
203.9738137545819
 31
0.0
  0
ARC
  5
1E43
330
1F
100
AcDbEntity
  8
0
100
AcDbCircle
 10
1.149999738878364
 20
203.8238137545809
 30
0.0
 40
0.15
100
AcDbArc
 50
90.0
 51
270.0
  0
ARC
  5
1E44
330
1F
100
AcDbEntity
  8
0
100
AcDbCircle
 10
2.4999997388785
 20
205.3238137545818
 30
0.0
 40
0.15
100
AcDbArc
 50
0.0
 51
180.0
  0
LINE
  5
1E45
330
1F
100
AcDbEntity
  8
0
100
AcDbLine
 10
2.649999738877454
 20
203.9738137545819
 30
0.0
 11
2.649999738877454
 21
205.3238137545818
 31
0.0
  0
LINE
  5
1E46
330
1F
100
AcDbEntity
  8
0
100
AcDbLine
 10
2.349999738878409
 20
203.9738137545819
 30
0.0
 11
2.349999738878409
 21
205.3238137545818
 31
0.0
  0
ARC
  5
1E47
330
1F
100
AcDbEntity
  8
0
100
AcDbCircle
 10
3.449999738877294
 20
203.1738137545815
 30
0.0
 40
0.15
100
AcDbArc
 50
270.0
 51
90.0
  0
ARC
  5
1E48
330
1F
100
AcDbEntity
  8
0
100
AcDbCircle
 10
3.049999738877318
 20
202.5238137545807
 30
0.0
 40
0.15
100
AcDbArc
 50
270.0
 51
90.0
  0
ARC
  5
1E49
330
1F
100
AcDbEntity
  8
0
100
AcDbCircle
 10
3.849999738878408
 20
203.8238137545809
 30
0.0
 40
0.15
100
AcDbArc
 50
270.0
 51
90.0
  0
ARC
  5
1E4A
330
1F
100
AcDbEntity
  8
0
100
AcDbCircle
 10
4.199999738877408
 20
197.9738137545819
 30
0.0
 40
6.899999999996
100
AcDbArc
 50
0.0
 51
55.58261128956075
  0
ARC
  5
1E4B
330
1F
100
AcDbEntity
  8
0
100
AcDbCircle
 10
4.299999738878453
 20
197.9738137545819
 30
0.0
 40
6.699999999996
100
AcDbArc
 50
0.0
 51
56.47925960400248
  0
LINE
  5
1E4C
330
1F
100
AcDbEntity
  8
0
100
AcDbLine
 10
42.59999973887727
 20
191.4738137545819
 30
0.0
 11
42.59999973887727
 21
185.9738137545819
 31
0.0
  0
LINE
  5
1E4D
330
1F
100
AcDbEntity
  8
0
100
AcDbLine
 10
43.59999973887727
 20
185.9738137545819
 30
0.0
 11
43.59999973887727
 21
191.4738137545819
 31
0.0
  0
CIRCLE
  5
1E4E
330
1F
100
AcDbEntity
  8
0
100
AcDbCircle
 10
45.66999973887742
 20
189.9738137545819
 30
0.0
 40
0.32
  0
CIRCLE
  5
1E4F
330
1F
100
AcDbEntity
  8
0
100
AcDbCircle
 10
18.09999973887727
 20
188.8438137545816
 30
0.0
 40
1.5
  0
LINE
  5
1E50
330
1F
100
AcDbEntity
  8
0
100
AcDbLine
 10
31.09999973887841
 20
170.9738137545818
 30
0.0
 11
56.99999973887827
 21
170.9738137545818
 31
0.0
  0
ARC
  5
1E51
330
1F
100
AcDbEntity
  8
0
100
AcDbCircle
 10
28.99999973887826
 20
175.9738137545816
 30
0.0
 40
5.5
100
AcDbArc
 50
0.0
 51
65.38002267135138
  0
LINE
  5
1E52
330
1F
100
AcDbEntity
  8
1
100
AcDbLine
 10
21.49999973887843
 20
175.9738137545816
 30
0.0
 11
36.4999997388785
 21
175.9738137545816
 31
0.0
  0
LINE
  5
1E53
330
1F
100
AcDbEntity
  8
0
100
AcDbLine
 10
31.09999973887841
 20
175.9738137545816
 30
0.0
 11
31.09999973887841
 21
170.9738137545818
 31
0.0
  0
LINE
  5
1E54
330
1F
100
AcDbEntity
  8
0
100
AcDbLine
 10
23.49999973887827
 20
175.9738137545816
 30
0.0
 11
23.49999973887827
 21
170.9738137545818
 31
0.0
  0
LINE
  5
1E55
330
1F
100
AcDbEntity
  8
0
100
AcDbLine
 10
26.89999973887836
 20
175.9738137545816
 30
0.0
 11
26.89999973887836
 21
170.9738137545818
 31
0.0
  0
LINE
  5
1E56
330
1F
100
AcDbEntity
  8
1
100
AcDbLine
 10
28.99999973887849
 20
168.4738137545819
 30
0.0
 11
28.99999973887849
 21
183.4738137545816
 31
0.0
  0
ARC
  5
1E57
330
1F
100
AcDbEntity
  8
0
100
AcDbCircle
 10
28.99999973887826
 20
175.9738137545816
 30
0.0
 40
5.5
100
AcDbArc
 50
114.6199773286485
 51
180.0
  0
CIRCLE
  5
1E58
330
1F
100
AcDbEntity
  8
0
100
AcDbCircle
 10
18.09999973887727
 20
188.8438137545816
 30
0.0
 40
1.0
  0
ARC
  5
1E59
330
1F
100
AcDbEntity
  8
0
100
AcDbCircle
 10
28.99999973887826
 20
175.9738137545816
 30
0.0
 40
2.1
100
AcDbArc
 50
0.0
 51
180.0
  0
LINE
  5
1E5C
330
1F
100
AcDbEntity
  8
0
100
AcDbLine
 10
34.49999973887825
 20
175.9738137545816
 30
0.0
 11
34.49999973887825
 21
170.9738137545818
 31
0.0
  0
LINE
  5
1E5E
330
1F
100
AcDbEntity
  8
0
100
AcDbLine
 10
42.59999973887727
 20
187.9738137545819
 30
0.0
 11
43.59999973887727
 21
187.9738137545819
 31
0.0
  0
LINE
  5
1E5F
330
1F
100
AcDbEntity
  8
0
100
AcDbLine
 10
42.59999973887727
 20
189.4738137545816
 30
0.0
 11
42.59999973887727
 21
187.9738137545819
 31
0.0
  0
LINE
  5
1E60
330
1F
100
AcDbEntity
  8
0
100
AcDbLine
 10
43.59999973887727
 20
189.4738137545816
 30
0.0
 11
42.59999973887727
 21
189.4738137545816
 31
0.0
  0
LINE
  5
1E61
330
1F
100
AcDbEntity
  8
0
100
AcDbLine
 10
43.59999973887727
 20
187.9738137545819
 30
0.0
 11
43.59999973887727
 21
189.4738137545816
 31
0.0
  0
LINE
  5
1E62
330
1F
100
AcDbEntity
  8
0
100
AcDbLine
 10
42.59999973887727
 20
185.9738137545819
 30
0.0
 11
43.59999973887727
 21
185.9738137545819
 31
0.0
  0
CIRCLE
  5
1E63
330
1F
100
AcDbEntity
  8
0
100
AcDbCircle
 10
45.66999973887742
 20
187.4738137545816
 30
0.0
 40
0.32
  0
CIRCLE
  5
1E64
330
1F
100
AcDbEntity
  8
0
100
AcDbCircle
 10
18.09999973887727
 20
198.6738137545808
 30
0.0
 40
2.0
  0
CIRCLE
  5
1E65
330
1F
100
AcDbEntity
  8
0
100
AcDbCircle
 10
18.09999973887727
 20
198.6738137545808
 30
0.0
 40
2.0
  0
CIRCLE
  5
1E66
330
1F
100
AcDbEntity
  8
0
100
AcDbCircle
 10
18.09999973887727
 20
193.5938137545818
 30
0.0
 40
2.0
  0
CIRCLE
  5
1E67
330
1F
100
AcDbEntity
  8
0
100
AcDbCircle
 10
18.09999973887727
 20
203.7538137545816
 30
0.0
 40
2.0
  0
CIRCLE
  5
1E68
330
1F
100
AcDbEntity
  8
0
100
AcDbCircle
 10
18.09999973887727
 20
203.7538137545816
 30
0.0
 40
2.0
  0
CIRCLE
  5
1E69
330
1F
100
AcDbEntity
  8
0
100
AcDbCircle
 10
18.09999973887727
 20
213.9138137545819
 30
0.0
 40
2.0
  0
CIRCLE
  5
1E6A
330
1F
100
AcDbEntity
  8
0
100
AcDbCircle
 10
18.09999973887727
 20
213.9138137545819
 30
0.0
 40
2.0
  0
CIRCLE
  5
1E6B
330
1F
100
AcDbEntity
  8
0
100
AcDbCircle
 10
18.09999973887727
 20
208.8338137545818
 30
0.0
 40
2.0
  0
CIRCLE
  5
1E6C
330
1F
100
AcDbEntity
  8
0
100
AcDbCircle
 10
18.09999973887727
 20
218.9938137545826
 30
0.0
 40
2.0
  0
LINE
  5
1E6D
330
1F
100
AcDbEntity
  8
0
100
AcDbLine
 10
45.89999973887835
 20
202.9738137545819
 30
0.0
 11
45.89999973887835
 21
220.1738137545816
 31
0.0
  0
LINE
  5
1E6E
330
1F
100
AcDbEntity
  8
0
100
AcDbLine
 10
42.69999973887832
 20
220.1738137545816
 30
0.0
 11
42.69999973887832
 21
202.9738137545819
 31
0.0
  0
LINE
  5
1E6F
330
1F
100
AcDbEntity
  8
0
100
AcDbLine
 10
41.14999973887836
 20
219.6738137545815
 30
0.0
 11
41.14999973887836
 21
203.4738137545819
 31
0.0
  0
LINE
  5
1E70
330
1F
100
AcDbEntity
  8
0
100
AcDbLine
 10
47.44999973887831
 20
204.0900968971727
 30
0.0
 11
47.44999973887831
 21
219.0575306119908
 31
0.0
  0
ARC
  5
1E71
330
1F
100
AcDbEntity
  8
0
100
AcDbCircle
 10
40.49999973887827
 20
193.4738137545819
 30
0.0
 40
0.5
100
AcDbArc
 50
180.0
 51
270.0
  0
LINE
  5
1E72
330
1F
100
AcDbEntity
  8
0
100
AcDbLine
 10
39.99999973887827
 20
193.9738137545816
 30
0.0
 11
39.99999973887827
 21
193.4738137545819
 31
0.0
  0
CIRCLE
  5
1E73
330
1F
100
AcDbEntity
  8
0
100
AcDbCircle
 10
44.29999973887844
 20
195.9438137545807
 30
0.0
 40
1.399999999999999
  0
LINE
  5
1E74
330
1F
100
AcDbEntity
  8
0
100
AcDbLine
 10
41.14999973887836
 20
197.9738137545819
 30
0.0
 11
47.44999973887831
 21
197.9738137545819
 31
0.0
  0
LINE
  5
1E75
330
1F
100
AcDbEntity
  8
0
100
AcDbLine
 10
41.14999973887836
 20
198.4738137545819
 30
0.0
 11
47.44999973887831
 21
198.4738137545819
 31
0.0
  0
LINE
  5
1E76
330
1F
100
AcDbEntity
  8
0
100
AcDbLine
 10
41.14999973887836
 20
200.3738137545818
 30
0.0
 11
47.44999973887831
 21
200.3738137545818
 31
0.0
  0
LINE
  5
1E77
330
1F
100
AcDbEntity
  8
0
100
AcDbLine
 10
42.69999973887832
 20
202.9738137545819
 30
0.0
 11
45.89999973887835
 21
202.9738137545819
 31
0.0
  0
LINE
  5
1E78
330
1F
100
AcDbEntity
  8
0
100
AcDbLine
 10
43.66763782908343
 20
201.5419621020035
 30
0.0
 11
45.96763782908339
 21
202.1582452445946
 31
0.0
  0
LINE
  5
1E79
330
1F
100
AcDbEntity
  8
0
100
AcDbLine
 10
41.14999973887836
 20
200.3738137545818
 30
0.0
 11
41.14999973887836
 21
197.9738137545819
 31
0.0
  0
ARC
  5
1E7A
330
1F
100
AcDbEntity
  8
0
100
AcDbCircle
 10
43.14999973887835
 20
203.4738137545819
 30
0.0
 40
2.0
100
AcDbArc
 50
180.0
 51
284.9999999999943
  0
LINE
  5
1E7B
330
1F
100
AcDbEntity
  8
0
100
AcDbLine
 10
47.44999973887831
 20
197.9738137545819
 30
0.0
 11
47.44999973887831
 21
200.3738137545818
 31
0.0
  0
ARC
  5
1E7C
330
1F
100
AcDbEntity
  8
0
100
AcDbCircle
 10
45.44999973887832
 20
204.0900968971727
 30
0.0
 40
2.0
100
AcDbArc
 50
284.9999999999943
 51
0.0
  0
LINE
  5
1E7D
330
1F
100
AcDbEntity
  8
0
100
AcDbLine
 10
45.89999973887835
 20
220.1738137545816
 30
0.0
 11
42.69999973887832
 21
220.1738137545816
 31
0.0
  0
ARC
  5
1E7E
330
1F
100
AcDbEntity
  8
0
100
AcDbCircle
 10
45.44999973887832
 20
219.0575306119908
 30
0.0
 40
2.0
100
AcDbArc
 50
0.0
 51
75.00000000000555
  0
LINE
  5
1E7F
330
1F
100
AcDbEntity
  8
0
100
AcDbLine
 10
49.09999973887728
 20
185.9738137545819
 30
0.0
 11
49.09999973887728
 21
191.4738137545819
 31
0.0
  0
ARC
  5
1E84
330
1F
100
AcDbEntity
  8
0
100
AcDbCircle
 10
56.99999973887827
 20
171.9738137545816
 30
0.0
 40
1.0
100
AcDbArc
 50
270.0
 51
0.0
  0
LINE
  5
1E85
330
1F
100
AcDbEntity
  8
0
100
AcDbLine
 10
49.0999997388784
 20
200.3738137545818
 30
0.0
 11
49.0999997388784
 21
193.2738137545814
 31
0.0
  0
ARC
  5
1E86
330
1F
100
AcDbEntity
  8
0
100
AcDbCircle
 10
48.79999973887844
 20
193.2738137545814
 30
0.0
 40
0.3
100
AcDbArc
 50
270.0
 51
0.0
  0
LINE
  5
1E87
330
1F
100
AcDbEntity
  8
0
100
AcDbLine
 10
48.79999973887844
 20
203.9538137545828
 30
0.0
 11
49.0999997388784
 21
203.9538137545828
 31
0.0
  0
LINE
  5
1E88
330
1F
100
AcDbEntity
  8
0
100
AcDbLine
 10
48.79999973887844
 20
205.2238137545828
 30
0.0
 11
49.0999997388784
 21
205.2238137545828
 31
0.0
  0
LINE
  5
1E89
330
1F
100
AcDbEntity
  8
0
100
AcDbLine
 10
48.79999973887844
 20
200.3738137545818
 30
0.0
 11
49.0999997388784
 21
200.3738137545818
 31
0.0
  0
LINE
  5
1E8A
330
1F
100
AcDbEntity
  8
0
100
AcDbLine
 10
48.79999973887844
 20
206.4938137545826
 30
0.0
 11
49.0999997388784
 21
206.4938137545826
 31
0.0
  0
LINE
  5
1E8B
330
1F
100
AcDbEntity
  8
0
100
AcDbLine
 10
48.79999973887844
 20
207.7638137545827
 30
0.0
 11
49.0999997388784
 21
207.7638137545827
 31
0.0
  0
LINE
  5
1E8C
330
1F
100
AcDbEntity
  8
0
100
AcDbLine
 10
48.79999973887844
 20
207.7638137545827
 30
0.0
 11
49.0999997388784
 21
207.7638137545827
 31
0.0
  0
LINE
  5
1E8D
330
1F
100
AcDbEntity
  8
0
100
AcDbLine
 10
48.79999973887844
 20
209.0338137545824
 30
0.0
 11
49.0999997388784
 21
209.0338137545824
 31
0.0
  0
LINE
  5
1E8E
330
1F
100
AcDbEntity
  8
0
100
AcDbLine
 10
48.79999973887844
 20
210.3038137545826
 30
0.0
 11
49.0999997388784
 21
210.3038137545826
 31
0.0
  0
LINE
  5
1E8F
330
1F
100
AcDbEntity
  8
0
100
AcDbLine
 10
48.79999973887844
 20
211.5738137545826
 30
0.0
 11
49.0999997388784
 21
211.5738137545826
 31
0.0
  0
LINE
  5
1E90
330
1F
100
AcDbEntity
  8
0
100
AcDbLine
 10
48.79999973887844
 20
212.8438137545824
 30
0.0
 11
49.0999997388784
 21
212.8438137545824
 31
0.0
  0
LINE
  5
1E91
330
1F
100
AcDbEntity
  8
0
100
AcDbLine
 10
48.79999973887844
 20
217.9238137545814
 30
0.0
 11
49.0999997388784
 21
217.9238137545814
 31
0.0
  0
LINE
  5
1E92
330
1F
100
AcDbEntity
  8
0
100
AcDbLine
 10
48.79999973887844
 20
219.1938137545816
 30
0.0
 11
49.0999997388784
 21
219.1938137545816
 31
0.0
  0
LINE
  5
1E93
330
1F
100
AcDbEntity
  8
0
100
AcDbLine
 10
48.79999973887844
 20
215.3838137545826
 30
0.0
 11
49.0999997388784
 21
215.3838137545826
 31
0.0
  0
LINE
  5
1E94
330
1F
100
AcDbEntity
  8
0
100
AcDbLine
 10
48.79999973887844
 20
216.6538137545817
 30
0.0
 11
49.0999997388784
 21
216.6538137545817
 31
0.0
  0
LINE
  5
1E95
330
1F
100
AcDbEntity
  8
0
100
AcDbLine
 10
48.79999973887844
 20
217.9238137545814
 30
0.0
 11
49.0999997388784
 21
217.9238137545814
 31
0.0
  0
LINE
  5
1E96
330
1F
100
AcDbEntity
  8
0
100
AcDbLine
 10
48.79999973887844
 20
214.1138137545826
 30
0.0
 11
49.0999997388784
 21
214.1138137545826
 31
0.0
  0
LINE
  5
1E97
330
1F
100
AcDbEntity
  8
0
100
AcDbLine
 10
48.79999973887844
 20
215.3838137545826
 30
0.0
 11
49.0999997388784
 21
215.3838137545826
 31
0.0
  0
INSERT
  5
1E98
330
1F
100
AcDbEntity
  8
0
100
AcDbBlockReference
  2
A$C57E26210
 10
34.03868308702783
 20
282.9481504180106
 30
0.0
  0
LINE
  5
1E99
330
1F
100
AcDbEntity
  8
0
  6
Continuous
100
AcDbLine
 10
48.34028206432492
 20
301.0481508441839
 30
0.0
 11
34.03868308702691
 21
301.0481508441839
 31
0.0
  0
LINE
  5
1E9A
330
1F
100
AcDbEntity
  8
0
  6
Continuous
100
AcDbLine
 10
48.34028206432583
 20
282.9481504180106
 30
0.0
 11
34.03868308702783
 21
282.9481504180106
 31
0.0
  0
LWPOLYLINE
  5
1E9B
330
1F
100
AcDbEntity
  8
0
 62
     0
100
AcDbPolyline
 90
        4
 70
     1
 43
0.0
 10
47.49999973887804
 20
312.9488144882716
 10
49.0999997388784
 20
312.9488144882716
 10
49.0999997388784
 20
310.2488144882718
 10
47.49999973887804
 20
310.2488144882718
  0
LWPOLYLINE
  5
1E9C
330
1F
100
AcDbEntity
  8
0
 62
     0
100
AcDbPolyline
 90
        4
 70
     1
 43
0.0
 10
47.49999973887804
 20
318.448814488273
 10
49.0999997388784
 20
318.448814488273
 10
49.0999997388784
 20
315.7488144882718
 10
47.49999973887804
 20
315.7488144882718
  0
INSERT
  5
1E9D
330
1F
100
AcDbEntity
  8
0
 62
     0
 48
5.0
100
AcDbBlockReference
  2
A$C5CFD6E8C
 10
47.50000252785798
 20
310.2488120086268
 30
0.0
  0
INSERT
  5
1E9E
330
1F
100
AcDbEntity
  8
0
 62
     0
 48
5.0
100
AcDbBlockReference
  2
A$C5CFD6E8C
 10
47.50000252785798
 20
315.7488120086268
 30
0.0
  0
LINE
  5
1E9F
330
1F
100
AcDbEntity
  8
0
100
AcDbLine
 10
49.0999997388784
 20
261.5738137545818
 30
0.0
 11
36.29999973887731
 21
261.5738137545818
 31
0.0
  0
LINE
  5
1EA0
330
1F
100
AcDbEntity
  8
0
100
AcDbLine
 10
49.0999997388784
 20
247.5738137545818
 30
0.0
 11
36.29999973887731
 21
247.5738137545818
 31
0.0
  0
LINE
  5
1EA1
330
1F
100
AcDbEntity
  8
0
100
AcDbLine
 10
49.09999973887728
 20
267.0738137545809
 30
0.0
 11
41.19999973887741
 21
267.0738137545809
 31
0.0
  0
LINE
  5
1EA2
330
1F
100
AcDbEntity
  8
0
100
AcDbLine
 10
41.19999973887741
 20
262.0738137545818
 30
0.0
 11
49.09999973887728
 21
262.0738137545818
 31
0.0
  0
LINE
  5
1EA3
330
1F
100
AcDbEntity
  8
0
100
AcDbLine
 10
41.84999973887727
 20
233.1738137545817
 30
0.0
 11
49.09999973887728
 21
233.1738137545817
 31
0.0
  0
LINE
  5
1EA4
330
1F
100
AcDbEntity
  8
0
100
AcDbLine
 10
49.09999973887728
 20
241.5738137545818
 30
0.0
 11
41.84999973887727
 21
241.5738137545818
 31
0.0
  0
LINE
  5
1EA5
330
1F
100
AcDbEntity
  8
0
100
AcDbLine
 10
49.09999973887728
 20
247.0738137545818
 30
0.0
 11
41.19999973887741
 21
247.0738137545818
 31
0.0
  0
LINE
  5
1EA6
330
1F
100
AcDbEntity
  8
0
100
AcDbLine
 10
41.19999973887741
 20
242.0738137545817
 30
0.0
 11
49.09999973887728
 21
242.0738137545817
 31
0.0
  0
LINE
  5
1EA7
330
1F
100
AcDbEntity
  8
0
100
AcDbLine
 10
39.69999973887832
 20
229.1738137545817
 30
0.0
 11
48.79999973887844
 21
229.1738137545817
 31
0.0
  0
LINE
  5
1EA8
330
1F
100
AcDbEntity
  8
0
100
AcDbLine
 10
40.49999973887827
 20
230.1738137545815
 30
0.0
 11
48.79999973887844
 21
230.1738137545826
 31
0.0
  0
LINE
  5
1EA9
330
1F
100
AcDbEntity
  8
0
100
AcDbLine
 10
49.99999986079625
 20
232.6738135952377
 30
0.0
 11
38.59999986079525
 21
232.6738135952377
 31
0.0
  0
LINE
  5
1EAA
330
1F
100
AcDbEntity
  8
0
100
AcDbLine
 10
49.99999986079625
 20
230.6738135952377
 30
0.0
 11
38.59999986079525
 21
230.6738135952377
 31
0.0
  0
LINE
  5
1EAB
330
1F
100
AcDbEntity
  8
0
100
AcDbLine
 10
55.69999973887741
 20
352.7738137545816
 30
0.0
 11
8.0999997388775
 21
352.7738137545816
 31
0.0
  0
LINE
  5
1EAC
330
1F
100
AcDbEntity
  8
0
100
AcDbLine
 10
55.99999973887825
 20
352.9738137545819
 30
0.0
 11
7.99999973887844
 21
352.9738137545819
 31
0.0
  0
LINE
  5
1EAD
330
1F
100
AcDbEntity
  8
0
100
AcDbLine
 10
5.9999997388785
 20
354.9738137545819
 30
0.0
 11
57.99999973887826
 21
354.9738137545819
 31
0.0
  0
LINE
  5
1EAE
330
1F
100
AcDbEntity
  8
0
100
AcDbLine
 10
3.9999997388785
 20
364.9738137545818
 30
0.0
 11
56.99999973887827
 21
364.9738137545818
 31
0.0
  0
LINE
  5
1EAF
330
1F
100
AcDbEntity
  8
0
100
AcDbLine
 10
49.99999986079625
 20
267.5738135952378
 30
0.0
 11
38.59999986079634
 21
267.5738135952378
 31
0.0
  0
LINE
  5
1EB0
330
1F
100
AcDbEntity
  8
0
  6
Continuous
100
AcDbLine
 10
34.03868308702691
 20
301.0481508441839
 30
0.0
 11
34.03868308702783
 21
282.9481504180106
 31
0.0
  0
LINE
  5
1EB1
330
1F
100
AcDbEntity
  8
0
100
AcDbLine
 10
14.09999973887841
 20
275.9738135952375
 30
0.0
 11
14.09999973887841
 21
302.1738135952376
 31
0.0
  0
LINE
  5
1EB2
330
1F
100
AcDbEntity
  8
0
100
AcDbLine
 10
15.59999973887749
 20
283.4738137545818
 30
0.0
 11
15.59999973887749
 21
284.4738137545819
 31
0.0
  0
LINE
  5
1EB3
330
1F
100
AcDbEntity
  8
0
100
AcDbLine
 10
19.59999973887726
 20
284.9738137545816
 30
0.0
 11
19.59999973887726
 21
282.9738137545819
 31
0.0
  0
LINE
  5
1EB4
330
1F
100
AcDbEntity
  8
0
100
AcDbLine
 10
20.59999973887726
 20
282.9738137545819
 30
0.0
 11
20.59999973887726
 21
284.9738137545816
 31
0.0
  0
LINE
  5
1EB5
330
1F
100
AcDbEntity
  8
0
100
AcDbLine
 10
15.59999973887749
 20
301.1338137545816
 30
0.0
 11
15.59999973887749
 21
276.9738137545818
 31
0.0
  0
LINE
  5
1EB6
330
1F
100
AcDbEntity
  8
0
100
AcDbLine
 10
24.94499973887752
 20
301.1338137545816
 30
0.0
 11
24.94499973887752
 21
276.9738137545818
 31
0.0
  0
LINE
  5
1EB7
330
1F
100
AcDbEntity
  8
0
100
AcDbLine
 10
23.58499973887745
 20
301.1338137545816
 30
0.0
 11
23.58499973887745
 21
276.9738137545818
 31
0.0
  0
LINE
  5
1EB8
330
1F
100
AcDbEntity
  8
0
100
AcDbLine
 10
16.59999973887742
 20
301.1338137545816
 30
0.0
 11
16.59999973887742
 21
276.9738137545818
 31
0.0
  0
LINE
  5
1EB9
330
1F
100
AcDbEntity
  8
0
100
AcDbLine
 10
25.39999986079521
 20
302.1738135952376
 30
0.0
 11
25.39999986079521
 21
275.9738135952375
 31
0.0
  0
LINE
  5
1EBA
330
1F
100
AcDbEntity
  8
0
100
AcDbLine
 10
12.99999986079535
 20
302.1738135952376
 30
0.0
 11
12.99999986079535
 21
275.9738135952375
 31
0.0
  0
LINE
  5
1EBB
330
1F
100
AcDbEntity
  8
0
100
AcDbLine
 10
14.0999997388775
 20
229.6138137545816
 30
0.0
 11
21.09999973887727
 21
229.6138137545816
 31
0.0
  0
LINE
  5
1EBC
330
1F
100
AcDbEntity
  8
0
100
AcDbLine
 10
14.0999997388775
 20
270.4738137545819
 30
0.0
 11
21.09999973887727
 21
270.4738137545819
 31
0.0
  0
LINE
  5
1EBD
330
1F
100
AcDbEntity
  8
0
100
AcDbLine
 10
14.0999997388775
 20
270.4738137545819
 30
0.0
 11
21.09999973887727
 21
270.4738137545819
 31
0.0
  0
ARC
  5
1EBE
330
1F
100
AcDbEntity
  8
0
100
AcDbCircle
 10
18.09999973887727
 20
253.853813754582
 30
0.0
 40
2.9
100
AcDbArc
 50
133.6028189727065
 51
226.3971810272928
  0
ARC
  5
1EBF
330
1F
100
AcDbEntity
  8
0
100
AcDbCircle
 10
18.09999973887727
 20
246.2338137545815
 30
0.0
 40
2.9
100
AcDbArc
 50
133.6028189727065
 51
226.3971810272928
  0
ARC
  5
1EC0
330
1F
100
AcDbEntity
  8
0
100
AcDbCircle
 10
18.09999973887727
 20
261.4738137545819
 30
0.0
 40
2.9
100
AcDbArc
 50
133.6028189727065
 51
226.3971810272928
  0
LINE
  5
1EC1
330
1F
100
AcDbEntity
  8
0
100
AcDbLine
 10
14.0999997388775
 20
229.6138137545816
 30
0.0
 11
21.09999973887727
 21
229.6138137545816
 31
0.0
  0
ARC
  5
1EC2
330
1F
100
AcDbEntity
  8
0
100
AcDbCircle
 10
18.09999973887727
 20
238.6138137545815
 30
0.0
 40
2.9
100
AcDbArc
 50
133.6028189727065
 51
226.3971810272928
  0
LINE
  5
1EC3
330
1F
100
AcDbEntity
  8
0
100
AcDbLine
 10
22.69999973887739
 20
226.6138137545814
 30
0.0
 11
14.0999997388775
 21
226.6138137545814
 31
0.0
  0
LINE
  5
1EC4
330
1F
100
AcDbEntity
  8
0
100
AcDbLine
 10
15.59999973887749
 20
279.9738137545819
 30
0.0
 11
14.0999997388775
 21
279.9738137545819
 31
0.0
  0
LINE
  5
1EC5
330
1F
100
AcDbEntity
  8
0
100
AcDbLine
 10
14.0999997388775
 20
276.9738137545818
 30
0.0
 11
15.59999973887749
 21
276.9738137545818
 31
0.0
  0
LINE
  5
1EC6
330
1F
100
AcDbEntity
  8
0
100
AcDbLine
 10
14.09999973887841
 20
283.4738137545818
 30
0.0
 11
15.59999973887749
 21
283.4738137545818
 31
0.0
  0
LINE
  5
1EC7
330
1F
100
AcDbEntity
  8
0
100
AcDbLine
 10
12.99999986079535
 20
275.9738135952375
 30
0.0
 11
25.39999986079521
 21
275.9738135952375
 31
0.0
  0
LINE
  5
1EC8
330
1F
100
AcDbEntity
  8
0
100
AcDbLine
 10
12.99999986079535
 20
271.4738135952375
 30
0.0
 11
23.59999986079526
 21
271.4738135952375
 31
0.0
  0
LINE
  5
1EC9
330
1F
100
AcDbEntity
  8
0
100
AcDbLine
 10
14.0999997388775
 20
270.4738137545819
 30
0.0
 11
14.0999997388775
 21
229.6138137545816
 31
0.0
  0
LINE
  5
1ECA
330
1F
100
AcDbEntity
  8
0
100
AcDbLine
 10
14.0999997388775
 20
234.8538137545819
 30
0.0
 11
14.0999997388775
 21
229.6138137545816
 31
0.0
  0
LINE
  5
1ECB
330
1F
100
AcDbEntity
  8
0
100
AcDbLine
 10
14.0999997388775
 20
265.2338137545815
 30
0.0
 11
14.0999997388775
 21
270.4738137545819
 31
0.0
  0
LINE
  5
1ECC
330
1F
100
AcDbEntity
  8
0
100
AcDbLine
 10
14.0999997388775
 20
279.9738137545819
 30
0.0
 11
14.0999997388775
 21
276.9738137545818
 31
0.0
  0
LINE
  5
1ECD
330
1F
100
AcDbEntity
  8
0
100
AcDbLine
 10
36.29999973887731
 20
247.5738137545818
 30
0.0
 11
36.29999973887731
 21
261.5738137545818
 31
0.0
  0
CIRCLE
  5
1ECE
330
1F
100
AcDbEntity
  8
0
100
AcDbCircle
 10
42.59999973887841
 20
254.5738137545817
 30
0.0
 40
5.5
  0
LINE
  5
1ECF
330
1F
100
AcDbEntity
  8
0
100
AcDbLine
 10
20.29999973887731
 20
255.1638137545819
 30
0.0
 11
20.29999973887731
 21
252.5438137545819
 31
0.0
  0
CIRCLE
  5
1ED0
330
1F
100
AcDbEntity
  8
0
100
AcDbCircle
 10
18.09999973887727
 20
253.853813754582
 30
0.0
 40
1.5
  0
LINE
  5
1ED1
330
1F
100
AcDbEntity
  8
0
100
AcDbLine
 10
22.59999973887726
 20
234.6138137545815
 30
0.0
 11
22.59999973887726
 21
265.1138137545816
 31
0.0
  0
LINE
  5
1ED2
330
1F
100
AcDbEntity
  8
0
100
AcDbLine
 10
23.59999986079526
 20
256.5738135952378
 30
0.0
 11
23.59999986079526
 21
243.1738135952377
 31
0.0
  0
LINE
  5
1ED3
330
1F
100
AcDbEntity
  8
0
100
AcDbLine
 10
35.1999998607954
 20
263.0738135952378
 30
0.0
 11
35.1999998607954
 21
247.0738135952379
 31
0.0
  0
LINE
  5
1ED4
330
1F
100
AcDbEntity
  8
0
100
AcDbLine
 10
21.09999973887727
 20
237.3038137545818
 30
0.0
 11
21.09999973887727
 21
235.6138137545817
 31
0.0
  0
CIRCLE
  5
1ED5
330
1F
100
AcDbEntity
  8
0
100
AcDbCircle
 10
18.09999973887727
 20
223.7438137545828
 30
0.0
 40
1.5
  0
CIRCLE
  5
1ED6
330
1F
100
AcDbEntity
  8
0
100
AcDbCircle
 10
18.09999973887727
 20
223.7438137545828
 30
0.0
 40
1.0
  0
LINE
  5
1ED7
330
1F
100
AcDbEntity
  8
0
100
AcDbLine
 10
16.0999997388775
 20
235.6138137545817
 30
0.0
 11
21.09999973887727
 21
235.6138137545817
 31
0.0
  0
CIRCLE
  5
1ED8
330
1F
100
AcDbEntity
  8
0
100
AcDbCircle
 10
18.06361367847432
 20
232.5138137545818
 30
0.0
 40
2.0
  0
CIRCLE
  5
1ED9
330
1F
100
AcDbEntity
  8
0
100
AcDbCircle
 10
18.06361367847432
 20
232.5138137545818
 30
0.0
 40
0.9
  0
LINE
  5
1EDA
330
1F
100
AcDbEntity
  8
0
100
AcDbLine
 10
16.0999997388775
 20
236.5138137545818
 30
0.0
 11
16.0999997388775
 21
235.6138137545817
 31
0.0
  0
LINE
  5
1EDB
330
1F
100
AcDbEntity
  8
0
100
AcDbLine
 10
21.09999973887727
 20
229.6138137545816
 30
0.0
 11
21.09999973887727
 21
234.8538137545819
 31
0.0
  0
LINE
  5
1EDC
330
1F
100
AcDbEntity
  8
0
100
AcDbLine
 10
21.09999973887727
 20
234.6138137545815
 30
0.0
 11
22.59999973887726
 21
234.6138137545815
 31
0.0
  0
LINE
  5
1EDD
330
1F
100
AcDbEntity
  8
0
100
AcDbLine
 10
21.09999973887727
 20
229.6138137545816
 30
0.0
 11
21.09999973887727
 21
234.6138137545815
 31
0.0
  0
LINE
  5
1EDE
330
1F
100
AcDbEntity
  8
0
100
AcDbLine
 10
24.29999973887731
 20
240.5638137545818
 30
0.0
 11
22.59999973887726
 21
240.5638137545818
 31
0.0
  0
LINE
  5
1EDF
330
1F
100
AcDbEntity
  8
0
100
AcDbLine
 10
22.59999973887726
 20
242.1638137545819
 30
0.0
 11
24.29999973887731
 21
242.1638137545819
 31
0.0
  0
LINE
  5
1EE0
330
1F
100
AcDbEntity
  8
0
100
AcDbLine
 10
21.09999973887727
 20
244.9238137545814
 30
0.0
 11
21.09999973887727
 21
239.9238137545816
 31
0.0
  0
CIRCLE
  5
1EE1
330
1F
100
AcDbEntity
  8
0
100
AcDbCircle
 10
18.09999973887727
 20
246.2338137545815
 30
0.0
 40
1.5
  0
CIRCLE
  5
1EE2
330
1F
100
AcDbEntity
  8
0
100
AcDbCircle
 10
18.09999973887727
 20
238.6138137545815
 30
0.0
 40
1.5
  0
LINE
  5
1EE3
330
1F
100
AcDbEntity
  8
0
100
AcDbLine
 10
16.0999997388775
 20
244.1338137545816
 30
0.0
 11
16.0999997388775
 21
240.7138137545814
 31
0.0
  0
CIRCLE
  5
1EE4
330
1F
100
AcDbEntity
  8
0
100
AcDbCircle
 10
18.09999973887727
 20
238.6138137545815
 30
0.0
 40
0.75
  0
LINE
  5
1EE5
330
1F
100
AcDbEntity
  8
0
100
AcDbLine
 10
20.29999973887731
 20
239.9238137545816
 30
0.0
 11
21.09999973887727
 21
239.9238137545816
 31
0.0
  0
LINE
  5
1EE6
330
1F
100
AcDbEntity
  8
0
100
AcDbLine
 10
20.29999973887731
 20
237.3038137545818
 30
0.0
 11
21.09999973887727
 21
237.3038137545818
 31
0.0
  0
LINE
  5
1EE7
330
1F
100
AcDbEntity
  8
0
100
AcDbLine
 10
20.29999973887731
 20
239.9238137545816
 30
0.0
 11
20.29999973887731
 21
237.3038137545818
 31
0.0
  0
CIRCLE
  5
1EE8
330
1F
100
AcDbEntity
  8
0
100
AcDbCircle
 10
18.09999973887727
 20
246.2338137545815
 30
0.0
 40
0.75
  0
LINE
  5
1EE9
330
1F
100
AcDbEntity
  8
0
100
AcDbLine
 10
16.0999997388775
 20
251.7538137545806
 30
0.0
 11
16.0999997388775
 21
248.3338137545819
 31
0.0
  0
LINE
  5
1EEA
330
1F
100
AcDbEntity
  8
0
100
AcDbLine
 10
20.29999973887731
 20
252.5438137545819
 30
0.0
 11
21.09999973887727
 21
252.5438137545819
 31
0.0
  0
LINE
  5
1EEB
330
1F
100
AcDbEntity
  8
0
100
AcDbLine
 10
20.29999973887731
 20
247.5438137545819
 30
0.0
 11
20.29999973887731
 21
244.9238137545814
 31
0.0
  0
LINE
  5
1EEC
330
1F
100
AcDbEntity
  8
0
100
AcDbLine
 10
20.29999973887731
 20
247.5438137545819
 30
0.0
 11
21.09999973887727
 21
247.5438137545819
 31
0.0
  0
LINE
  5
1EED
330
1F
100
AcDbEntity
  8
0
100
AcDbLine
 10
20.29999973887731
 20
244.9238137545814
 30
0.0
 11
21.09999973887727
 21
244.9238137545814
 31
0.0
  0
LINE
  5
1EEE
330
1F
100
AcDbEntity
  8
0
100
AcDbLine
 10
21.09999973887727
 20
252.5438137545819
 30
0.0
 11
21.09999973887727
 21
247.5438137545819
 31
0.0
  0
LINE
  5
1EEF
330
1F
100
AcDbEntity
  8
0
100
AcDbLine
 10
24.29999973887731
 20
242.1638137545819
 30
0.0
 11
24.29999973887731
 21
240.5638137545818
 31
0.0
  0
LINE
  5
1EF0
330
1F
100
AcDbEntity
  8
0
100
AcDbLine
 10
25.1999998607954
 20
243.1738135952377
 30
0.0
 11
25.1999998607954
 21
239.5738135952377
 31
0.0
  0
LINE
  5
1EF1
330
1F
100
AcDbEntity
  8
0
100
AcDbLine
 10
23.59999986079526
 20
243.1738135952377
 30
0.0
 11
25.1999998607954
 21
243.1738135952377
 31
0.0
  0
LINE
  5
1EF2
330
1F
100
AcDbEntity
  8
0
100
AcDbLine
 10
23.59999986079526
 20
239.5738135952377
 30
0.0
 11
25.1999998607954
 21
239.5738135952377
 31
0.0
  0
LINE
  5
1EF3
330
1F
100
AcDbEntity
  8
0
100
AcDbLine
 10
41.84999973887727
 20
241.5738137545818
 30
0.0
 11
41.84999973887727
 21
233.1738137545817
 31
0.0
  0
LINE
  5
1EF4
330
1F
100
AcDbEntity
  8
0
100
AcDbLine
 10
38.59999986079525
 20
247.0738135952379
 30
0.0
 11
38.59999986079525
 21
232.6738135952377
 31
0.0
  0
ARC
  5
1EF5
330
1F
100
AcDbEntity
  8
0
100
AcDbCircle
 10
40.49999973887827
 20
229.6738137545816
 30
0.0
 40
0.5
100
AcDbArc
 50
90.0
 51
180.0
  0
LINE
  5
1EF6
330
1F
100
AcDbEntity
  8
0
100
AcDbLine
 10
39.99999973887827
 20
229.6738137545816
 30
0.0
 11
39.99999973887827
 21
229.1738137545817
 31
0.0
  0
CIRCLE
  5
1EF7
330
1F
100
AcDbEntity
  8
0
100
AcDbCircle
 10
44.29999973887844
 20
227.2038137545819
 30
0.0
 40
1.399999999999999
  0
LINE
  5
1EF8
330
1F
100
AcDbEntity
  8
0
100
AcDbLine
 10
41.14999973887836
 20
225.1738137545808
 30
0.0
 11
47.44999973887831
 21
225.1738137545808
 31
0.0
  0
LINE
  5
1EF9
330
1F
100
AcDbEntity
  8
0
100
AcDbLine
 10
41.14999973887836
 20
224.6738137545817
 30
0.0
 11
47.44999973887831
 21
224.6738137545817
 31
0.0
  0
LINE
  5
1EFA
330
1F
100
AcDbEntity
  8
0
100
AcDbLine
 10
41.14999973887836
 20
222.7738137545816
 30
0.0
 11
47.44999973887831
 21
222.7738137545816
 31
0.0
  0
LINE
  5
1EFB
330
1F
100
AcDbEntity
  8
0
100
AcDbLine
 10
41.14999973887836
 20
225.1738137545824
 30
0.0
 11
41.14999973887836
 21
222.7738137545816
 31
0.0
  0
LINE
  5
1EFC
330
1F
100
AcDbEntity
  8
0
100
AcDbLine
 10
47.44999973887831
 20
222.7738137545816
 30
0.0
 11
47.44999973887831
 21
225.1738137545824
 31
0.0
  0
CIRCLE
  5
1EFD
330
1F
100
AcDbEntity
  8
0
100
AcDbCircle
 10
45.59999973887728
 20
235.6238137545819
 30
0.0
 40
1.0
  0
LINE
  5
1EFE
330
1F
100
AcDbEntity
  8
0
100
AcDbLine
 10
38.59999986079525
 20
247.0738135952379
 30
0.0
 11
35.1999998607954
 21
247.0738135952379
 31
0.0
  0
LINE
  5
1EFF
330
1F
100
AcDbEntity
  8
0
100
AcDbLine
 10
41.19999973887741
 20
247.0738137545818
 30
0.0
 11
41.19999973887741
 21
242.0738137545817
 31
0.0
  0
LINE
  5
1F00
330
1F
100
AcDbEntity
  8
0
100
AcDbLine
 10
43.14999973887744
 20
246.0738137545817
 30
0.0
 11
43.14999973887744
 21
243.0738137545818
 31
0.0
  0
LINE
  5
1F01
330
1F
100
AcDbEntity
  8
0
100
AcDbLine
 10
44.14999973887744
 20
243.0738137545818
 30
0.0
 11
44.14999973887744
 21
246.0738137545817
 31
0.0
  0
LINE
  5
1F02
330
1F
100
AcDbEntity
  8
0
100
AcDbLine
 10
42.14999973887745
 20
246.0738137545817
 30
0.0
 11
42.14999973887745
 21
243.0738137545818
 31
0.0
  0
LINE
  5
1F03
330
1F
100
AcDbEntity
  8
0
100
AcDbLine
 10
48.14999973887744
 20
243.0738137545818
 30
0.0
 11
48.14999973887744
 21
246.0738137545817
 31
0.0
  0
LINE
  5
1F04
330
1F
100
AcDbEntity
  8
0
100
AcDbLine
 10
44.94999973887741
 20
243.0738137545818
 30
0.0
 11
44.94999973887741
 21
246.0738137545817
 31
0.0
  0
LINE
  5
1F05
330
1F
100
AcDbEntity
  8
0
100
AcDbLine
 10
42.14999973887745
 20
243.0738137545818
 30
0.0
 11
48.14999973887744
 21
243.0738137545818
 31
0.0
  0
LINE
  5
1F06
330
1F
100
AcDbEntity
  8
0
100
AcDbLine
 10
43.14999973887744
 20
243.0738137545818
 30
0.0
 11
44.14999973887744
 21
243.0738137545818
 31
0.0
  0
CIRCLE
  5
1F07
330
1F
100
AcDbEntity
  8
0
100
AcDbCircle
 10
45.59999973887728
 20
239.1238137545808
 30
0.0
 40
1.0
  0
LINE
  5
1F08
330
1F
100
AcDbEntity
  8
0
100
AcDbLine
 10
48.14999973887744
 20
246.0738137545817
 30
0.0
 11
42.14999973887745
 21
246.0738137545817
 31
0.0
  0
LINE
  5
1F09
330
1F
100
AcDbEntity
  8
0
100
AcDbLine
 10
44.14999973887744
 20
246.0738137545817
 30
0.0
 11
43.14999973887744
 21
246.0738137545817
 31
0.0
  0
LINE
  5
1F0A
330
1F
100
AcDbEntity
  8
0
100
AcDbLine
 10
21.09999973887727
 20
270.4738137545819
 30
0.0
 11
21.09999973887727
 21
265.2338137545815
 31
0.0
  0
CIRCLE
  5
1F0B
330
1F
100
AcDbEntity
  8
0
100
AcDbCircle
 10
18.09999973887727
 20
267.5738137545818
 30
0.0
 40
0.9
  0
CIRCLE
  5
1F0C
330
1F
100
AcDbEntity
  8
0
100
AcDbCircle
 10
18.09999973887727
 20
267.5738137545818
 30
0.0
 40
2.0
  0
LINE
  5
1F0D
330
1F
100
AcDbEntity
  8
0
100
AcDbLine
 10
21.09999973887727
 20
265.4738137545819
 30
0.0
 11
21.09999973887727
 21
270.4738137545819
 31
0.0
  0
LINE
  5
1F0E
330
1F
100
AcDbEntity
  8
0
100
AcDbLine
 10
23.59999986079526
 20
271.4738135952375
 30
0.0
 11
23.59999986079526
 21
260.1738135952377
 31
0.0
  0
LINE
  5
1F0F
330
1F
100
AcDbEntity
  8
0
100
AcDbLine
 10
24.29999973887731
 20
259.1638137545816
 30
0.0
 11
22.59999973887726
 21
259.1638137545816
 31
0.0
  0
LINE
  5
1F10
330
1F
100
AcDbEntity
  8
0
100
AcDbLine
 10
24.29999973887731
 20
257.5638137545819
 30
0.0
 11
22.59999973887726
 21
257.5638137545819
 31
0.0
  0
CIRCLE
  5
1F11
330
1F
100
AcDbEntity
  8
0
100
AcDbCircle
 10
18.09999973887727
 20
261.4738137545819
 30
0.0
 40
1.5
  0
LINE
  5
1F12
330
1F
100
AcDbEntity
  8
0
100
AcDbLine
 10
20.29999973887731
 20
262.7838137545816
 30
0.0
 11
20.29999973887731
 21
260.1638137545819
 31
0.0
  0
CIRCLE
  5
1F13
330
1F
100
AcDbEntity
  8
0
100
AcDbCircle
 10
18.09999973887727
 20
253.853813754582
 30
0.0
 40
0.75
  0
LINE
  5
1F14
330
1F
100
AcDbEntity
  8
0
100
AcDbLine
 10
16.0999997388775
 20
259.3738137545819
 30
0.0
 11
16.0999997388775
 21
255.9538137545819
 31
0.0
  0
LINE
  5
1F15
330
1F
100
AcDbEntity
  8
0
100
AcDbLine
 10
20.29999973887731
 20
260.1638137545819
 30
0.0
 11
21.09999973887727
 21
260.1638137545819
 31
0.0
  0
LINE
  5
1F16
330
1F
100
AcDbEntity
  8
0
100
AcDbLine
 10
20.29999973887731
 20
255.1638137545819
 30
0.0
 11
21.09999973887727
 21
255.1638137545819
 31
0.0
  0
LINE
  5
1F17
330
1F
100
AcDbEntity
  8
0
100
AcDbLine
 10
21.09999973887727
 20
260.1638137545819
 30
0.0
 11
21.09999973887727
 21
255.1638137545819
 31
0.0
  0
LINE
  5
1F18
330
1F
100
AcDbEntity
  8
0
100
AcDbLine
 10
21.09999973887727
 20
264.1138137545814
 30
0.0
 11
16.0999997388775
 21
264.1138137545814
 31
0.0
  0
CIRCLE
  5
1F19
330
1F
100
AcDbEntity
  8
0
100
AcDbCircle
 10
18.09999973887727
 20
261.4738137545819
 30
0.0
 40
0.75
  0
LINE
  5
1F1A
330
1F
100
AcDbEntity
  8
0
100
AcDbLine
 10
16.0999997388775
 20
264.1138137545814
 30
0.0
 11
16.0999997388775
 21
263.5738137545818
 31
0.0
  0
LINE
  5
1F1B
330
1F
100
AcDbEntity
  8
0
100
AcDbLine
 10
22.59999973887726
 20
265.4738137545819
 30
0.0
 11
22.59999973887726
 21
265.1138137545816
 31
0.0
  0
LINE
  5
1F1C
330
1F
100
AcDbEntity
  8
0
100
AcDbLine
 10
21.09999973887727
 20
264.1138137545814
 30
0.0
 11
21.09999973887727
 21
262.7838137545816
 31
0.0
  0
LINE
  5
1F1D
330
1F
100
AcDbEntity
  8
0
100
AcDbLine
 10
20.29999973887731
 20
262.7838137545816
 30
0.0
 11
21.09999973887727
 21
262.7838137545816
 31
0.0
  0
LINE
  5
1F1E
330
1F
100
AcDbEntity
  8
0
100
AcDbLine
 10
21.09999973887727
 20
265.4738137545819
 30
0.0
 11
22.59999973887726
 21
265.4738137545819
 31
0.0
  0
LINE
  5
1F1F
330
1F
100
AcDbEntity
  8
0
100
AcDbLine
 10
24.29999973887731
 20
259.1638137545816
 30
0.0
 11
24.29999973887731
 21
257.5638137545819
 31
0.0
  0
LINE
  5
1F20
330
1F
100
AcDbEntity
  8
0
100
AcDbLine
 10
23.59999986079526
 20
260.1738135952377
 30
0.0
 11
25.1999998607954
 21
260.1738135952377
 31
0.0
  0
LINE
  5
1F21
330
1F
100
AcDbEntity
  8
0
100
AcDbLine
 10
23.59999986079526
 20
256.5738135952378
 30
0.0
 11
25.1999998607954
 21
256.5738135952378
 31
0.0
  0
LINE
  5
1F22
330
1F
100
AcDbEntity
  8
0
100
AcDbLine
 10
25.1999998607954
 20
260.1738135952377
 30
0.0
 11
25.1999998607954
 21
256.5738135952378
 31
0.0
  0
LINE
  5
1F23
330
1F
100
AcDbEntity
  8
0
100
AcDbLine
 10
15.59999973887749
 20
276.9738137545818
 30
0.0
 11
24.94499973887752
 21
276.9738137545818
 31
0.0
  0
LINE
  5
1F24
330
1F
100
AcDbEntity
  8
0
100
AcDbLine
 10
16.59999973887742
 20
277.9738137545819
 30
0.0
 11
23.58499973887745
 21
277.9738137545819
 31
0.0
  0
LINE
  5
1F25
330
1F
100
AcDbEntity
  8
0
100
AcDbLine
 10
15.59999973887749
 20
276.9738137545818
 30
0.0
 11
15.59999973887749
 21
279.9738137545819
 31
0.0
  0
LINE
  5
1F26
330
1F
100
AcDbEntity
  8
0
100
AcDbLine
 10
15.59999973887749
 20
276.9738137545818
 30
0.0
 11
15.59999973887749
 21
277.9738137545819
 31
0.0
  0
LINE
  5
1F27
330
1F
100
AcDbEntity
  8
0
100
AcDbLine
 10
19.59999973887726
 20
282.9738137545819
 30
0.0
 11
20.59999973887726
 21
282.9738137545819
 31
0.0
  0
LINE
  5
1F28
330
1F
100
AcDbEntity
  8
0
100
AcDbLine
 10
38.59999986079525
 20
263.0738135952378
 30
0.0
 11
35.1999998607954
 21
263.0738135952378
 31
0.0
  0
LINE
  5
1F29
330
1F
100
AcDbEntity
  8
0
100
AcDbLine
 10
38.59999986079525
 20
263.0738135952378
 30
0.0
 11
38.59999986079525
 21
267.5738135952378
 31
0.0
  0
LINE
  5
1F2A
330
1F
100
AcDbEntity
  8
0
100
AcDbLine
 10
48.14999973887744
 20
266.0738137545818
 30
0.0
 11
42.14999973887745
 21
266.0738137545818
 31
0.0
  0
LINE
  5
1F2B
330
1F
100
AcDbEntity
  8
0
100
AcDbLine
 10
42.14999973887745
 20
263.0738137545818
 30
0.0
 11
48.14999973887744
 21
263.0738137545818
 31
0.0
  0
LINE
  5
1F2C
330
1F
100
AcDbEntity
  8
0
100
AcDbLine
 10
42.14999973887745
 20
266.0738137545818
 30
0.0
 11
42.14999973887745
 21
263.0738137545818
 31
0.0
  0
LINE
  5
1F2D
330
1F
100
AcDbEntity
  8
0
100
AcDbLine
 10
43.14999973887744
 20
266.0738137545818
 30
0.0
 11
43.14999973887744
 21
263.0738137545818
 31
0.0
  0
LINE
  5
1F2E
330
1F
100
AcDbEntity
  8
0
100
AcDbLine
 10
44.14999973887744
 20
266.0738137545818
 30
0.0
 11
43.14999973887744
 21
266.0738137545818
 31
0.0
  0
LINE
  5
1F2F
330
1F
100
AcDbEntity
  8
0
100
AcDbLine
 10
44.14999973887744
 20
263.0738137545818
 30
0.0
 11
44.14999973887744
 21
266.0738137545818
 31
0.0
  0
LINE
  5
1F30
330
1F
100
AcDbEntity
  8
0
100
AcDbLine
 10
41.19999973887741
 20
267.0738137545809
 30
0.0
 11
41.19999973887741
 21
262.0738137545818
 31
0.0
  0
LINE
  5
1F31
330
1F
100
AcDbEntity
  8
0
100
AcDbLine
 10
43.14999973887744
 20
263.0738137545818
 30
0.0
 11
44.14999973887744
 21
263.0738137545818
 31
0.0
  0
LINE
  5
1F32
330
1F
100
AcDbEntity
  8
0
100
AcDbLine
 10
48.14999973887744
 20
263.0738137545818
 30
0.0
 11
48.14999973887744
 21
266.0738137545818
 31
0.0
  0
LINE
  5
1F33
330
1F
100
AcDbEntity
  8
0
100
AcDbLine
 10
44.94999973887741
 20
263.0738137545818
 30
0.0
 11
44.94999973887741
 21
266.0738137545818
 31
0.0
  0
LINE
  5
1F34
330
1F
100
AcDbEntity
  8
0
100
AcDbLine
 10
15.59999973887749
 20
301.1338137545816
 30
0.0
 11
14.0999997388775
 21
301.1338137545816
 31
0.0
  0
LINE
  5
1F35
330
1F
100
AcDbEntity
  8
0
100
AcDbLine
 10
15.59999973887749
 20
294.6338137545816
 30
0.0
 11
14.09999973887841
 21
294.6338137545816
 31
0.0
  0
LINE
  5
1F36
330
1F
100
AcDbEntity
  8
0
100
AcDbLine
 10
15.59999973887749
 20
289.5538137545816
 30
0.0
 11
14.09999973887841
 21
289.5538137545816
 31
0.0
  0
LINE
  5
1F37
330
1F
100
AcDbEntity
  8
0
100
AcDbLine
 10
15.59999973887749
 20
284.4738137545819
 30
0.0
 11
14.09999973887841
 21
284.4738137545819
 31
0.0
  0
LINE
  5
1F38
330
1F
100
AcDbEntity
  8
0
100
AcDbLine
 10
14.0999997388775
 20
298.1338137545817
 30
0.0
 11
15.59999973887749
 21
298.1338137545817
 31
0.0
  0
LINE
  5
1F39
330
1F
100
AcDbEntity
  8
0
100
AcDbLine
 10
14.09999973887841
 20
288.5538137545816
 30
0.0
 11
15.59999973887749
 21
288.5538137545816
 31
0.0
  0
LINE
  5
1F3A
330
1F
100
AcDbEntity
  8
0
100
AcDbLine
 10
14.09999973887841
 20
293.6338137545806
 30
0.0
 11
15.59999973887749
 21
293.6338137545806
 31
0.0
  0
LINE
  5
1F3B
330
1F
100
AcDbEntity
  8
0
100
AcDbLine
 10
24.29999973887845
 20
330.0538137545816
 30
0.0
 11
14.09999973887841
 21
330.0538137545816
 31
0.0
  0
LINE
  5
1F3C
330
1F
100
AcDbEntity
  8
0
100
AcDbLine
 10
24.29999973887845
 20
323.4138137545818
 30
0.0
 11
14.09999973887841
 21
323.4138137545818
 31
0.0
  0
LINE
  5
1F3D
330
1F
100
AcDbEntity
  8
0
100
AcDbLine
 10
21.34999973887841
 20
322.4138137545819
 30
0.0
 11
14.0999997388775
 21
322.4138137545819
 31
0.0
  0
LINE
  5
1F3E
330
1F
100
AcDbEntity
  8
0
100
AcDbLine
 10
14.0999997388775
 20
307.0138137545818
 30
0.0
 11
21.34999973887841
 21
307.0138137545818
 31
0.0
  0
LINE
  5
1F3F
330
1F
100
AcDbEntity
  8
0
100
AcDbLine
 10
21.99999973887736
 20
331.0538137545826
 30
0.0
 11
14.0999997388775
 21
331.0538137545826
 31
0.0
  0
LINE
  5
1F40
330
1F
100
AcDbEntity
  8
0
100
AcDbLine
 10
21.99999973887736
 20
338.5538137545816
 30
0.0
 11
14.0999997388775
 21
338.5538137545816
 31
0.0
  0
LINE
  5
1F41
330
1F
100
AcDbEntity
  8
0
100
AcDbLine
 10
22.89999986079521
 20
339.0738135952378
 30
0.0
 11
12.99999986079535
 21
339.0738135952378
 31
0.0
  0
LINE
  5
1F42
330
1F
100
AcDbEntity
  8
0
100
AcDbLine
 10
12.99999986079535
 20
302.1738135952376
 30
0.0
 11
25.39999986079521
 21
302.1738135952376
 31
0.0
  0
CIRCLE
  5
1F43
330
1F
100
AcDbEntity
  8
0
100
AcDbCircle
 10
16.59999986079526
 20
342.9738135952375
 30
0.0
 40
1.399999999999999
  0
LINE
  5
1F44
330
1F
100
AcDbEntity
  8
0
100
AcDbLine
 10
12.99999986079535
 20
306.0738135952378
 30
0.0
 11
22.2999998607953
 21
306.0738135952378
 31
0.0
  0
LINE
  5
1F45
330
1F
100
AcDbEntity
  8
0
100
AcDbLine
 10
14.09999973887841
 20
306.0738135952378
 30
0.0
 11
14.09999973887841
 21
339.0738135952378
 31
0.0
  0
LINE
  5
1F46
330
1F
100
AcDbEntity
  8
0
100
AcDbLine
 10
14.0999997388775
 20
322.4138137545819
 30
0.0
 11
14.0999997388775
 21
307.0138137545818
 31
0.0
  0
LINE
  5
1F47
330
1F
100
AcDbEntity
  8
0
100
AcDbLine
 10
12.99999986079535
 20
339.0738135952378
 30
0.0
 11
12.99999986079535
 21
306.0738135952378
 31
0.0
  0
LINE
  5
1F48
330
1F
100
AcDbEntity
  8
0
100
AcDbLine
 10
14.0999997388775
 20
301.1338137545816
 30
0.0
 11
14.0999997388775
 21
298.1338137545817
 31
0.0
  0
LINE
  5
1F49
330
1F
100
AcDbEntity
  8
0
100
AcDbLine
 10
14.09999973887841
 20
323.4138137545818
 30
0.0
 11
14.09999973887841
 21
330.0538137545816
 31
0.0
  0
LINE
  5
1F4A
330
1F
100
AcDbEntity
  8
0
100
AcDbLine
 10
14.0999997388775
 20
337.6438137545818
 30
0.0
 11
14.0999997388775
 21
338.5538137545816
 31
0.0
  0
LINE
  5
1F4B
330
1F
100
AcDbEntity
  8
0
100
AcDbLine
 10
14.49999973887734
 20
331.0538137545826
 30
0.0
 11
14.49999973887734
 21
338.5538137545816
 31
0.0
  0
LINE
  5
1F4C
330
1F
100
AcDbEntity
  8
0
100
AcDbLine
 10
14.0999997388775
 20
331.0538137545826
 30
0.0
 11
14.0999997388775
 21
331.9638137545816
 31
0.0
  0
LINE
  5
1F4D
330
1F
100
AcDbEntity
  8
0
100
AcDbLine
 10
14.09999973887841
 20
334.5038137545825
 30
0.0
 11
14.49999973887734
 21
334.5038137545825
 31
0.0
  0
LINE
  5
1F4E
330
1F
100
AcDbEntity
  8
0
100
AcDbLine
 10
14.09999973887841
 20
335.1038137545828
 30
0.0
 11
14.49999973887734
 21
335.1038137545828
 31
0.0
  0
LINE
  5
1F4F
330
1F
100
AcDbEntity
  8
0
100
AcDbLine
 10
14.09999973887841
 20
332.5638137545828
 30
0.0
 11
14.49999973887734
 21
332.5638137545828
 31
0.0
  0
LINE
  5
1F50
330
1F
100
AcDbEntity
  8
0
100
AcDbLine
 10
14.09999973887841
 20
331.9638137545816
 30
0.0
 11
14.49999973887734
 21
331.9638137545816
 31
0.0
  0
LINE
  5
1F51
330
1F
100
AcDbEntity
  8
0
100
AcDbLine
 10
14.09999973887841
 20
337.043813754582
 30
0.0
 11
14.49999973887734
 21
337.043813754582
 31
0.0
  0
LINE
  5
1F52
330
1F
100
AcDbEntity
  8
0
100
AcDbLine
 10
14.09999973887841
 20
337.6438137545828
 30
0.0
 11
14.49999973887734
 21
337.6438137545828
 31
0.0
  0
LINE
  5
1F53
330
1F
100
AcDbEntity
  8
0
100
AcDbLine
 10
21.34999973887841
 20
307.0138137545818
 30
0.0
 11
21.34999973887841
 21
322.4138137545819
 31
0.0
  0
LINE
  5
1F54
330
1F
100
AcDbEntity
  8
0
100
AcDbLine
 10
22.2999998607953
 20
322.8738135952367
 30
0.0
 11
22.2999998607953
 21
306.0738135952378
 31
0.0
  0
LINE
  5
1F55
330
1F
100
AcDbEntity
  8
0
100
AcDbLine
 10
15.59999973887749
 20
298.1338137545817
 30
0.0
 11
15.59999973887749
 21
301.1338137545816
 31
0.0
  0
LINE
  5
1F56
330
1F
100
AcDbEntity
  8
0
100
AcDbLine
 10
15.59999973887749
 20
288.5538137545816
 30
0.0
 11
15.59999973887749
 21
289.5538137545816
 31
0.0
  0
LINE
  5
1F57
330
1F
100
AcDbEntity
  8
0
100
AcDbLine
 10
20.59999973887726
 20
284.9738137545816
 30
0.0
 11
19.59999973887726
 21
284.9738137545816
 31
0.0
  0
LINE
  5
1F58
330
1F
100
AcDbEntity
  8
0
100
AcDbLine
 10
19.59999973887726
 20
290.0538137545816
 30
0.0
 11
19.59999973887726
 21
288.0538137545816
 31
0.0
  0
LINE
  5
1F59
330
1F
100
AcDbEntity
  8
0
100
AcDbLine
 10
20.59999973887726
 20
290.0538137545816
 30
0.0
 11
19.59999973887726
 21
290.0538137545816
 31
0.0
  0
LINE
  5
1F5A
330
1F
100
AcDbEntity
  8
0
100
AcDbLine
 10
20.59999973887726
 20
288.0538137545816
 30
0.0
 11
20.59999973887726
 21
290.0538137545816
 31
0.0
  0
LINE
  5
1F5B
330
1F
100
AcDbEntity
  8
0
100
AcDbLine
 10
19.59999973887726
 20
288.0538137545816
 30
0.0
 11
20.59999973887726
 21
288.0538137545816
 31
0.0
  0
LINE
  5
1F5C
330
1F
100
AcDbEntity
  8
0
100
AcDbLine
 10
15.59999973887749
 20
293.6338137545806
 30
0.0
 11
15.59999973887749
 21
294.6338137545816
 31
0.0
  0
LINE
  5
1F5D
330
1F
100
AcDbEntity
  8
0
100
AcDbLine
 10
19.59999973887726
 20
295.1338137545807
 30
0.0
 11
19.59999973887726
 21
293.1338137545817
 31
0.0
  0
LINE
  5
1F5E
330
1F
100
AcDbEntity
  8
0
100
AcDbLine
 10
20.59999973887726
 20
295.1338137545807
 30
0.0
 11
19.59999973887726
 21
295.1338137545807
 31
0.0
  0
LINE
  5
1F5F
330
1F
100
AcDbEntity
  8
0
100
AcDbLine
 10
20.59999973887726
 20
293.1338137545817
 30
0.0
 11
20.59999973887726
 21
295.1338137545807
 31
0.0
  0
LINE
  5
1F60
330
1F
100
AcDbEntity
  8
0
100
AcDbLine
 10
19.59999973887726
 20
293.1338137545817
 30
0.0
 11
20.59999973887726
 21
293.1338137545817
 31
0.0
  0
LINE
  5
1F61
330
1F
100
AcDbEntity
  8
0
100
AcDbLine
 10
24.94499973887752
 20
301.1338137545816
 30
0.0
 11
15.59999973887749
 21
301.1338137545816
 31
0.0
  0
LINE
  5
1F62
330
1F
100
AcDbEntity
  8
0
100
AcDbLine
 10
16.59999973887742
 20
300.1338137545817
 30
0.0
 11
23.58499973887745
 21
300.1338137545817
 31
0.0
  0
LINE
  5
1F63
330
1F
100
AcDbEntity
  8
0
100
AcDbLine
 10
15.59999973887749
 20
301.1338137545816
 30
0.0
 11
15.59999973887749
 21
300.1338137545817
 31
0.0
  0
LINE
  5
1F64
330
1F
100
AcDbEntity
  8
0
100
AcDbLine
 10
15.59999973887749
 20
301.1338137545816
 30
0.0
 11
16.59999973887742
 21
301.1338137545816
 31
0.0
  0
CIRCLE
  5
1F65
330
1F
100
AcDbEntity
  8
0
100
AcDbCircle
 10
17.59999973887744
 20
309.4638137545816
 30
0.0
 40
1.0
  0
CIRCLE
  5
1F66
330
1F
100
AcDbEntity
  8
0
100
AcDbCircle
 10
17.59999973887744
 20
312.9638137545807
 30
0.0
 40
1.0
  0
LINE
  5
1F67
330
1F
100
AcDbEntity
  8
0
100
AcDbLine
 10
24.08499973887745
 20
301.1338137545816
 30
0.0
 11
23.58499973887745
 21
301.1338137545816
 31
0.0
  0
LINE
  5
1F68
330
1F
100
AcDbEntity
  8
0
100
AcDbLine
 10
25.89999986079521
 20
331.0738135952378
 30
0.0
 11
25.89999986079521
 21
322.8738135952367
 31
0.0
  0
LINE
  5
1F69
330
1F
100
AcDbEntity
  8
0
100
AcDbLine
 10
24.29999973887845
 20
324.8638137545816
 30
0.0
 11
21.29999973887845
 21
324.8638137545816
 31
0.0
  0
LINE
  5
1F6A
330
1F
100
AcDbEntity
  8
0
100
AcDbLine
 10
24.29999973887845
 20
326.0638137545818
 30
0.0
 11
21.29999973887845
 21
326.0638137545818
 31
0.0
  0
LINE
  5
1F6B
330
1F
100
AcDbEntity
  8
0
100
AcDbLine
 10
24.29999973887845
 20
327.4038137545816
 30
0.0
 11
21.29999973887845
 21
327.4038137545816
 31
0.0
  0
LINE
  5
1F6C
330
1F
100
AcDbEntity
  8
0
100
AcDbLine
 10
24.29999973887845
 20
328.603813754582
 30
0.0
 11
19.52450480988642
 21
328.603813754582
 31
0.0
  0
LINE
  5
1F6D
330
1F
100
AcDbEntity
  8
0
100
AcDbLine
 10
24.29999973887845
 20
324.8638137545816
 30
0.0
 11
19.52450480988642
 21
324.8638137545816
 31
0.0
  0
LINE
  5
1F6E
330
1F
100
AcDbEntity
  8
0
100
AcDbLine
 10
22.2999998607953
 20
322.8738135952367
 30
0.0
 11
25.89999986079521
 21
322.8738135952367
 31
0.0
  0
CIRCLE
  5
1F6F
330
1F
100
AcDbEntity
  8
0
100
AcDbCircle
 10
17.59999973887744
 20
316.4638137545817
 30
0.0
 40
1.0
  0
CIRCLE
  5
1F70
330
1F
100
AcDbEntity
  8
0
100
AcDbCircle
 10
17.59999973887744
 20
319.9638137545816
 30
0.0
 40
1.0
  0
LINE
  5
1F71
330
1F
100
AcDbEntity
  8
0
100
AcDbLine
 10
19.52450480988642
 20
328.603813754582
 30
0.0
 11
19.52450480988642
 21
324.8638137545816
 31
0.0
  0
LINE
  5
1F72
330
1F
100
AcDbEntity
  8
0
100
AcDbLine
 10
23.29999973887845
 20
324.8638137545816
 30
0.0
 11
23.29999973887845
 21
326.0638137545818
 31
0.0
  0
LINE
  5
1F73
330
1F
100
AcDbEntity
  8
0
100
AcDbLine
 10
23.29999973887845
 20
327.4038137545816
 30
0.0
 11
23.29999973887845
 21
328.603813754582
 31
0.0
  0
LINE
  5
1F74
330
1F
100
AcDbEntity
  8
0
100
AcDbLine
 10
22.79999973887845
 20
326.0638137545818
 30
0.0
 11
22.79999973887845
 21
327.4038137545816
 31
0.0
  0
LINE
  5
1F75
330
1F
100
AcDbEntity
  8
0
100
AcDbLine
 10
21.29999973887845
 20
324.8638137545816
 30
0.0
 11
21.29999973887845
 21
326.0638137545818
 31
0.0
  0
LINE
  5
1F76
330
1F
100
AcDbEntity
  8
0
100
AcDbLine
 10
21.29999973887845
 20
327.4038137545816
 30
0.0
 11
21.29999973887845
 21
328.603813754582
 31
0.0
  0
LINE
  5
1F77
330
1F
100
AcDbEntity
  8
0
100
AcDbLine
 10
24.29999973887845
 20
323.4138137545818
 30
0.0
 11
24.29999973887845
 21
330.0538137545816
 31
0.0
  0
LINE
  5
1F78
330
1F
100
AcDbEntity
  8
0
100
AcDbLine
 10
22.89999986079521
 20
331.0738135952378
 30
0.0
 11
25.89999986079521
 21
331.0738135952378
 31
0.0
  0
LINE
  5
1F79
330
1F
100
AcDbEntity
  8
0
100
AcDbLine
 10
21.99999973887736
 20
331.0538137545826
 30
0.0
 11
21.99999973887736
 21
338.5538137545816
 31
0.0
  0
LINE
  5
1F7A
330
1F
100
AcDbEntity
  8
0
100
AcDbLine
 10
22.89999986079521
 20
339.0738135952378
 30
0.0
 11
22.89999986079521
 21
331.0738135952378
 31
0.0
  0
CIRCLE
  5
1F7B
330
1F
100
AcDbEntity
  8
0
100
AcDbCircle
 10
18.24999973887736
 20
334.8038137545816
 30
0.0
 40
1.290290050200999
  0
CIRCLE
  5
1F7C
330
1F
100
AcDbEntity
  8
0
100
AcDbCircle
 10
21.6999998607954
 20
342.9738135952375
 30
0.0
 40
1.399999999999999
  0
CIRCLE
  5
1F7D
330
1F
100
AcDbEntity
  8
0
100
AcDbCircle
 10
16.59999986079526
 20
347.7738135952376
 30
0.0
 40
1.399999999999999
  0
LINE
  5
1F7E
330
1F
100
AcDbEntity
  8
0
100
AcDbLine
 10
4.999999738878443
 20
350.9738137545819
 30
0.0
 11
5.013088213031436
 21
350.9741564883396
 31
0.0
  0
LINE
  5
1F7F
330
1F
100
AcDbEntity
  8
0
100
AcDbLine
 10
0.4869112647244265
 20
354.8818202953316
 30
0.0
 11
3.9999997388785
 21
354.9738137545819
 31
0.0
  0
ARC
  5
1F80
330
1F
100
AcDbEntity
  8
0
100
AcDbCircle
 10
0.4999997388784438
 20
354.3819916328448
 30
0.0
 40
0.5
100
AcDbArc
 50
91.50000000000273
 51
180.0
  0
LINE
  5
1F81
330
1F
100
AcDbEntity
  8
0
100
AcDbLine
 10
5.9999997388785
 20
354.4738137545818
 30
0.0
 11
4.999999738878443
 21
354.4738137545818
 31
0.0
  0
LINE
  5
1F82
330
1F
100
AcDbEntity
  8
0
100
AcDbLine
 10
3.9999997388785
 20
354.9738137545819
 30
0.0
 11
4.999999738878443
 21
354.9476278330128
 31
0.0
  0
LINE
  5
1F83
330
1F
100
AcDbEntity
  8
0
100
AcDbLine
 10
0.9738227905703523
 20
364.8945705223591
 30
0.0
 11
3.9999997388785
 21
364.9738137545818
 31
0.0
  0
ARC
  5
1F84
330
1F
100
AcDbEntity
  8
0
100
AcDbCircle
 10
0.9999997388784436
 20
363.8949131973836
 30
0.0
 40
1.0
100
AcDbArc
 50
91.50000000000273
 51
180.0
  0
ARC
  5
1F85
330
1F
100
AcDbEntity
  8
0
100
AcDbCircle
 10
28.99999973887826
 20
359.9738137545819
 30
0.0
 40
5.5
100
AcDbArc
 50
294.6199773286486
 51
0.0
  0
LINE
  5
1F86
330
1F
100
AcDbEntity
  8
1
100
AcDbLine
 10
21.49999973887843
 20
359.9738137545819
 30
0.0
 11
36.4999997388785
 21
359.9738137545819
 31
0.0
  0
LINE
  5
1F87
330
1F
100
AcDbEntity
  8
0
100
AcDbLine
 10
23.49999973887827
 20
359.9738137545819
 30
0.0
 11
23.49999973887827
 21
364.9738137545818
 31
0.0
  0
CIRCLE
  5
1F88
330
1F
100
AcDbEntity
  8
0
100
AcDbCircle
 10
28.99999973887826
 20
359.9738137545819
 30
0.0
 40
2.1
  0
LINE
  5
1F89
330
1F
100
AcDbEntity
  8
1
100
AcDbLine
 10
28.99999973887826
 20
352.4738137545818
 30
0.0
 11
28.99999973887826
 21
367.4738137545819
 31
0.0
  0
ARC
  5
1F8A
330
1F
100
AcDbEntity
  8
0
100
AcDbCircle
 10
28.99999973887826
 20
359.9738137545819
 30
0.0
 40
5.5
100
AcDbArc
 50
180.0
 51
245.3800226713513
  0
CIRCLE
  5
1F8B
330
1F
100
AcDbEntity
  8
0
100
AcDbCircle
 10
21.6999998607954
 20
347.7738135952376
 30
0.0
 40
1.399999999999999
  0
LINE
  5
1F8C
330
1F
100
AcDbEntity
  8
0
100
AcDbLine
 10
34.49999973887825
 20
359.9738137545819
 30
0.0
 11
34.49999973887825
 21
364.9738137545818
 31
0.0
  0
LINE
  5
1F8D
330
1F
100
AcDbEntity
  8
0
  6
Continuous
100
AcDbLine
 10
48.34028206432492
 20
301.0481508441839
 30
0.0
 11
48.34028206432583
 21
282.9481504180106
 31
0.0
  0
LINE
  5
1F8E
330
1F
100
AcDbEntity
  8
0
100
AcDbLine
 10
49.09999973887813
 20
267.5738135952378
 30
0.0
 11
49.0999997388784
 21
232.6738135952377
 31
0.0
  0
LINE
  5
1F8F
330
1F
100
AcDbEntity
  8
0
100
AcDbLine
 10
49.0999997388784
 20
247.5738137545818
 30
0.0
 11
49.0999997388784
 21
253.4738137545819
 31
0.0
  0
LINE
  5
1F90
330
1F
100
AcDbEntity
  8
0
100
AcDbLine
 10
49.99999986079625
 20
267.5738135952378
 30
0.0
 11
49.99999986079625
 21
232.6738135952377
 31
0.0
  0
LINE
  5
1F91
330
1F
100
AcDbEntity
  8
0
100
AcDbLine
 10
49.09999973887728
 20
233.1738137545817
 30
0.0
 11
49.09999973887728
 21
241.5738137545818
 31
0.0
  0
LINE
  5
1F92
330
1F
100
AcDbEntity
  8
0
100
AcDbLine
 10
49.0999997388784
 20
229.8738137545829
 30
0.0
 11
49.0999997388784
 21
222.7738137545816
 31
0.0
  0
LINE
  5
1F93
330
1F
100
AcDbEntity
  8
0
100
AcDbLine
 10
48.79999973887844
 20
222.7738137545816
 30
0.0
 11
49.0999997388784
 21
222.7738137545816
 31
0.0
  0
ARC
  5
1F94
330
1F
100
AcDbEntity
  8
0
100
AcDbCircle
 10
48.79999973887844
 20
229.8738137545829
 30
0.0
 40
0.3
100
AcDbArc
 50
0.0
 51
90.0
  0
LINE
  5
1F95
330
1F
100
AcDbEntity
  8
0
100
AcDbLine
 10
49.09999973887728
 20
242.0738137545817
 30
0.0
 11
49.09999973887728
 21
247.0738137545818
 31
0.0
  0
LINE
  5
1F96
330
1F
100
AcDbEntity
  8
0
100
AcDbLine
 10
49.0999997388784
 20
255.6738137545808
 30
0.0
 11
49.0999997388784
 21
261.5738137545818
 31
0.0
  0
LINE
  5
1F97
330
1F
100
AcDbEntity
  8
0
100
AcDbLine
 10
49.09999973887728
 20
262.0738137545818
 30
0.0
 11
49.09999973887728
 21
267.0738137545809
 31
0.0
  0
ARC
  5
1F98
330
1F
100
AcDbEntity
  8
0
100
AcDbCircle
 10
56.99999973887827
 20
363.9738137545819
 30
0.0
 40
1.0
100
AcDbArc
 50
0.0
 51
90.0
  0
LINE
  5
206A
330
1F
100
AcDbEntity
  8
0
100
AcDbLine
 10
278.9999997388774
 20
364.8428841467358
 30
0.0
 11
278.9999997388774
 21
171.1047433624279
 31
0.0
  0
LINE
  5
206B
330
1F
100
AcDbEntity
  8
0
100
AcDbLine
 10
273.9999997388774
 20
170.9738137545818
 30
0.0
 11
273.9999997388774
 21
180.9738137545819
 31
0.0
  0
LINE
  5
206C
330
1F
100
AcDbEntity
  8
0
100
AcDbLine
 10
157.9999997388783
 20
180.9738137545819
 30
0.0
 11
157.9999997388783
 21
354.9738137545819
 31
0.0
  0
LINE
  5
206D
330
1F
100
AcDbEntity
  8
0
100
AcDbLine
 10
157.9999997388783
 20
354.9738137545819
 30
0.0
 11
273.9999997388774
 21
354.9738137545819
 31
0.0
  0
LINE
  5
206E
330
1F
100
AcDbEntity
  8
0
100
AcDbLine
 10
157.9999997388783
 20
180.9738137545819
 30
0.0
 11
273.9999997388774
 21
180.9738137545819
 31
0.0
  0
LINE
  5
206F
330
1F
100
AcDbEntity
  8
0
100
AcDbLine
 10
273.9999997388774
 20
364.9738137545818
 30
0.0
 11
278.9999997388774
 21
364.8428841467358
 31
0.0
  0
LINE
  5
2070
330
1F
100
AcDbEntity
  8
0
100
AcDbLine
 10
275.4140395036142
 20
364.9367858202068
 30
0.0
 11
275.4140395036133
 21
171.0108416889569
 31
0.0
  0
LINE
  5
2071
330
1F
100
AcDbEntity
  8
0
100
AcDbLine
 10
273.9999997388774
 20
170.9738137545818
 30
0.0
 11
278.9999997388774
 21
171.1047433624279
 31
0.0
  0
LINE
  5
2072
330
1F
100
AcDbEntity
  8
0
100
AcDbLine
 10
157.9999997388783
 20
180.9738137545819
 30
0.0
 11
157.9999997388783
 21
354.9738137545819
 31
0.0
  0
LINE
  5
2073
330
1F
100
AcDbEntity
  8
0
100
AcDbLine
 10
157.9999997388783
 20
354.9738137545819
 30
0.0
 11
275.3878535820463
 21
354.9738137545819
 31
0.0
  0
LINE
  5
2074
330
1F
100
AcDbEntity
  8
0
100
AcDbLine
 10
174.9999997388783
 20
180.9738137545819
 30
0.0
 11
174.9999997388783
 21
354.9738137545819
 31
0.0
  0
LINE
  5
2075
330
1F
100
AcDbEntity
  8
0
100
AcDbLine
 10
256.9999997388783
 20
180.9738137545819
 30
0.0
 11
256.9999997388783
 21
354.9738137545819
 31
0.0
  0
LINE
  5
2076
330
1F
100
AcDbEntity
  8
0
100
AcDbLine
 10
174.9999997388783
 20
353.9738137545819
 30
0.0
 11
256.9999997388783
 21
353.9738137545819
 31
0.0
  0
LINE
  5
2077
330
1F
100
AcDbEntity
  8
0
100
AcDbLine
 10
179.9999997388783
 20
351.9738137545818
 30
0.0
 11
181.9999997388783
 21
351.9738137545818
 31
0.0
  0
LINE
  5
2078
330
1F
100
AcDbEntity
  8
0
100
AcDbLine
 10
179.9999997388783
 20
181.9738137545819
 30
0.0
 11
179.9999997388783
 21
235.2238137545819
 31
0.0
  0
LINE
  5
2079
330
1F
100
AcDbEntity
  8
0
100
AcDbLine
 10
181.9999997388783
 20
181.9738137545819
 30
0.0
 11
181.9999997388783
 21
235.2238137545819
 31
0.0
  0
LINE
  5
207A
330
1F
100
AcDbEntity
  8
0
100
AcDbLine
 10
179.9999997388783
 20
300.7238137545819
 30
0.0
 11
181.9999997388783
 21
300.7238137545819
 31
0.0
  0
LINE
  5
207B
330
1F
100
AcDbEntity
  8
0
100
AcDbLine
 10
179.9999997388783
 20
235.2238137545819
 30
0.0
 11
181.9999997388783
 21
235.2238137545819
 31
0.0
  0
LINE
  5
207C
330
1F
100
AcDbEntity
  8
0
100
AcDbLine
 10
174.9999997388783
 20
181.9738137545819
 30
0.0
 11
256.9999997388783
 21
181.9738137545819
 31
0.0
  0
LINE
  5
207D
330
1F
100
AcDbEntity
  8
0
100
AcDbLine
 10
179.9999997388783
 20
183.9738137545819
 30
0.0
 11
181.9999997388783
 21
183.9738137545819
 31
0.0
  0
LINE
  5
207E
330
1F
100
AcDbEntity
  8
0
100
AcDbLine
 10
179.9999997388783
 20
300.7238137545819
 30
0.0
 11
179.9999997388783
 21
353.9738137545819
 31
0.0
  0
LINE
  5
207F
330
1F
100
AcDbEntity
  8
0
100
AcDbLine
 10
181.9999997388783
 20
300.7238137545819
 30
0.0
 11
181.9999997388783
 21
353.9738137545819
 31
0.0
  0
LINE
  5
2080
330
1F
100
AcDbEntity
  8
0
100
AcDbLine
 10
186.9999997388783
 20
351.9738137545818
 30
0.0
 11
188.9999997388784
 21
351.9738137545818
 31
0.0
  0
LINE
  5
2081
330
1F
100
AcDbEntity
  8
0
100
AcDbLine
 10
186.9999997388783
 20
181.9738137545819
 30
0.0
 11
186.9999997388783
 21
235.2238137545819
 31
0.0
  0
LINE
  5
2082
330
1F
100
AcDbEntity
  8
0
100
AcDbLine
 10
188.9999997388784
 20
181.9738137545819
 30
0.0
 11
188.9999997388784
 21
235.2238137545819
 31
0.0
  0
LINE
  5
2083
330
1F
100
AcDbEntity
  8
0
100
AcDbLine
 10
186.9999997388783
 20
300.7238137545819
 30
0.0
 11
188.9999997388784
 21
300.7238137545819
 31
0.0
  0
LINE
  5
2084
330
1F
100
AcDbEntity
  8
0
100
AcDbLine
 10
186.9999997388783
 20
235.2238137545819
 30
0.0
 11
188.9999997388784
 21
235.2238137545819
 31
0.0
  0
LINE
  5
2085
330
1F
100
AcDbEntity
  8
0
100
AcDbLine
 10
186.9999997388783
 20
183.9738137545819
 30
0.0
 11
188.9999997388784
 21
183.9738137545819
 31
0.0
  0
LINE
  5
2086
330
1F
100
AcDbEntity
  8
0
100
AcDbLine
 10
186.9999997388783
 20
300.7238137545819
 30
0.0
 11
186.9999997388783
 21
353.9738137545819
 31
0.0
  0
LINE
  5
2087
330
1F
100
AcDbEntity
  8
0
100
AcDbLine
 10
188.9999997388784
 20
300.7238137545819
 30
0.0
 11
188.9999997388784
 21
353.9738137545819
 31
0.0
  0
LINE
  5
2088
330
1F
100
AcDbEntity
  8
0
100
AcDbLine
 10
193.9999997388783
 20
351.9738137545818
 30
0.0
 11
195.9999997388783
 21
351.9738137545818
 31
0.0
  0
LINE
  5
2089
330
1F
100
AcDbEntity
  8
0
100
AcDbLine
 10
193.9999997388783
 20
181.9738137545819
 30
0.0
 11
193.9999997388783
 21
235.2238137545819
 31
0.0
  0
LINE
  5
208A
330
1F
100
AcDbEntity
  8
0
100
AcDbLine
 10
195.9999997388783
 20
181.9738137545819
 30
0.0
 11
195.9999997388783
 21
235.2238137545819
 31
0.0
  0
LINE
  5
208B
330
1F
100
AcDbEntity
  8
0
100
AcDbLine
 10
193.9999997388783
 20
300.7238137545819
 30
0.0
 11
195.9999997388783
 21
300.7238137545819
 31
0.0
  0
LINE
  5
208C
330
1F
100
AcDbEntity
  8
0
100
AcDbLine
 10
193.9999997388783
 20
235.2238137545819
 30
0.0
 11
195.9999997388783
 21
235.2238137545819
 31
0.0
  0
LINE
  5
208D
330
1F
100
AcDbEntity
  8
0
100
AcDbLine
 10
193.9999997388783
 20
183.9738137545819
 30
0.0
 11
195.9999997388783
 21
183.9738137545819
 31
0.0
  0
LINE
  5
208E
330
1F
100
AcDbEntity
  8
0
100
AcDbLine
 10
193.9999997388783
 20
300.7238137545819
 30
0.0
 11
193.9999997388783
 21
353.9738137545819
 31
0.0
  0
LINE
  5
208F
330
1F
100
AcDbEntity
  8
0
100
AcDbLine
 10
195.9999997388783
 20
300.7238137545819
 30
0.0
 11
195.9999997388783
 21
353.9738137545819
 31
0.0
  0
LINE
  5
2090
330
1F
100
AcDbEntity
  8
0
100
AcDbLine
 10
200.9999997388784
 20
181.9738137545819
 30
0.0
 11
200.9999997388784
 21
235.2238137545819
 31
0.0
  0
LINE
  5
2091
330
1F
100
AcDbEntity
  8
0
100
AcDbLine
 10
202.9999997388784
 20
181.9738137545819
 30
0.0
 11
202.9999997388784
 21
235.2238137545819
 31
0.0
  0
LINE
  5
2092
330
1F
100
AcDbEntity
  8
0
100
AcDbLine
 10
200.9999997388784
 20
300.7238137545819
 30
0.0
 11
202.9999997388784
 21
300.7238137545819
 31
0.0
  0
LINE
  5
2093
330
1F
100
AcDbEntity
  8
0
100
AcDbLine
 10
200.9999997388784
 20
235.2238137545819
 30
0.0
 11
202.9999997388784
 21
235.2238137545819
 31
0.0
  0
LINE
  5
2094
330
1F
100
AcDbEntity
  8
0
100
AcDbLine
 10
200.9999997388784
 20
183.9738137545819
 30
0.0
 11
202.9999997388784
 21
183.9738137545819
 31
0.0
  0
LINE
  5
2095
330
1F
100
AcDbEntity
  8
0
100
AcDbLine
 10
200.9999997388784
 20
300.7238137545819
 30
0.0
 11
200.9999997388784
 21
353.9738137545819
 31
0.0
  0
LINE
  5
2096
330
1F
100
AcDbEntity
  8
0
100
AcDbLine
 10
202.9999997388784
 20
300.7238137545819
 30
0.0
 11
202.9999997388784
 21
353.9738137545819
 31
0.0
  0
LINE
  5
2097
330
1F
100
AcDbEntity
  8
0
100
AcDbLine
 10
207.9999997388783
 20
351.9738137545818
 30
0.0
 11
209.9999997388783
 21
351.9738137545818
 31
0.0
  0
LINE
  5
2098
330
1F
100
AcDbEntity
  8
0
100
AcDbLine
 10
207.9999997388783
 20
181.9738137545819
 30
0.0
 11
207.9999997388783
 21
235.2238137545819
 31
0.0
  0
LINE
  5
2099
330
1F
100
AcDbEntity
  8
0
100
AcDbLine
 10
209.9999997388783
 20
181.9738137545819
 30
0.0
 11
209.9999997388783
 21
235.2238137545819
 31
0.0
  0
LINE
  5
209A
330
1F
100
AcDbEntity
  8
0
100
AcDbLine
 10
207.9999997388783
 20
300.7238137545819
 30
0.0
 11
209.9999997388783
 21
300.7238137545819
 31
0.0
  0
LINE
  5
209B
330
1F
100
AcDbEntity
  8
0
100
AcDbLine
 10
207.9999997388783
 20
235.2238137545819
 30
0.0
 11
209.9999997388783
 21
235.2238137545819
 31
0.0
  0
LINE
  5
209C
330
1F
100
AcDbEntity
  8
0
100
AcDbLine
 10
207.9999997388783
 20
183.9738137545819
 30
0.0
 11
209.9999997388783
 21
183.9738137545819
 31
0.0
  0
LINE
  5
209D
330
1F
100
AcDbEntity
  8
0
100
AcDbLine
 10
207.9999997388783
 20
300.7238137545819
 30
0.0
 11
207.9999997388783
 21
353.9738137545819
 31
0.0
  0
LINE
  5
209E
330
1F
100
AcDbEntity
  8
0
100
AcDbLine
 10
209.9999997388783
 20
300.7238137545819
 30
0.0
 11
209.9999997388783
 21
353.9738137545819
 31
0.0
  0
LINE
  5
209F
330
1F
100
AcDbEntity
  8
0
100
AcDbLine
 10
214.9999997388783
 20
351.9738137545818
 30
0.0
 11
216.9999997388783
 21
351.9738137545818
 31
0.0
  0
LINE
  5
20A0
330
1F
100
AcDbEntity
  8
0
100
AcDbLine
 10
214.9999997388783
 20
181.9738137545819
 30
0.0
 11
214.9999997388783
 21
235.2238137545819
 31
0.0
  0
LINE
  5
20A1
330
1F
100
AcDbEntity
  8
0
100
AcDbLine
 10
216.9999997388783
 20
181.9738137545819
 30
0.0
 11
216.9999997388783
 21
235.2238137545819
 31
0.0
  0
LINE
  5
20A2
330
1F
100
AcDbEntity
  8
0
100
AcDbLine
 10
214.9999997388783
 20
300.7238137545819
 30
0.0
 11
216.9999997388783
 21
300.7238137545819
 31
0.0
  0
LINE
  5
20A3
330
1F
100
AcDbEntity
  8
0
100
AcDbLine
 10
214.9999997388783
 20
235.2238137545819
 30
0.0
 11
216.9999997388783
 21
235.2238137545819
 31
0.0
  0
LINE
  5
20A4
330
1F
100
AcDbEntity
  8
0
100
AcDbLine
 10
214.9999997388783
 20
183.9738137545819
 30
0.0
 11
216.9999997388783
 21
183.9738137545819
 31
0.0
  0
LINE
  5
20A5
330
1F
100
AcDbEntity
  8
0
100
AcDbLine
 10
214.9999997388783
 20
300.7238137545819
 30
0.0
 11
214.9999997388783
 21
353.9738137545819
 31
0.0
  0
LINE
  5
20A6
330
1F
100
AcDbEntity
  8
0
100
AcDbLine
 10
216.9999997388783
 20
300.7238137545819
 30
0.0
 11
216.9999997388783
 21
353.9738137545819
 31
0.0
  0
LINE
  5
20A7
330
1F
100
AcDbEntity
  8
0
100
AcDbLine
 10
221.9999997388784
 20
351.9738137545818
 30
0.0
 11
223.9999997388784
 21
351.9738137545818
 31
0.0
  0
LINE
  5
20A8
330
1F
100
AcDbEntity
  8
0
100
AcDbLine
 10
221.9999997388784
 20
181.9738137545819
 30
0.0
 11
221.9999997388784
 21
235.2238137545819
 31
0.0
  0
LINE
  5
20A9
330
1F
100
AcDbEntity
  8
0
100
AcDbLine
 10
223.9999997388784
 20
181.9738137545819
 30
0.0
 11
223.9999997388784
 21
235.2238137545819
 31
0.0
  0
LINE
  5
20AA
330
1F
100
AcDbEntity
  8
0
100
AcDbLine
 10
221.9999997388784
 20
300.7238137545819
 30
0.0
 11
223.9999997388784
 21
300.7238137545819
 31
0.0
  0
LINE
  5
20AB
330
1F
100
AcDbEntity
  8
0
100
AcDbLine
 10
221.9999997388784
 20
235.2238137545819
 30
0.0
 11
223.9999997388784
 21
235.2238137545819
 31
0.0
  0
LINE
  5
20AC
330
1F
100
AcDbEntity
  8
0
100
AcDbLine
 10
221.9999997388784
 20
183.9738137545819
 30
0.0
 11
223.9999997388784
 21
183.9738137545819
 31
0.0
  0
LINE
  5
20AD
330
1F
100
AcDbEntity
  8
0
100
AcDbLine
 10
221.9999997388784
 20
300.7238137545819
 30
0.0
 11
221.9999997388784
 21
353.9738137545819
 31
0.0
  0
LINE
  5
20AE
330
1F
100
AcDbEntity
  8
0
100
AcDbLine
 10
223.9999997388784
 20
300.7238137545819
 30
0.0
 11
223.9999997388784
 21
353.9738137545819
 31
0.0
  0
LINE
  5
20AF
330
1F
100
AcDbEntity
  8
0
100
AcDbLine
 10
228.9999997388783
 20
351.9738137545818
 30
0.0
 11
230.9999997388783
 21
351.9738137545818
 31
0.0
  0
LINE
  5
20B0
330
1F
100
AcDbEntity
  8
0
100
AcDbLine
 10
228.9999997388783
 20
181.9738137545819
 30
0.0
 11
228.9999997388783
 21
235.2238137545819
 31
0.0
  0
LINE
  5
20B1
330
1F
100
AcDbEntity
  8
0
100
AcDbLine
 10
230.9999997388783
 20
181.9738137545819
 30
0.0
 11
230.9999997388783
 21
235.2238137545819
 31
0.0
  0
LINE
  5
20B2
330
1F
100
AcDbEntity
  8
0
100
AcDbLine
 10
228.9999997388783
 20
300.7238137545819
 30
0.0
 11
230.9999997388783
 21
300.7238137545819
 31
0.0
  0
LINE
  5
20B3
330
1F
100
AcDbEntity
  8
0
100
AcDbLine
 10
228.9999997388783
 20
235.2238137545819
 30
0.0
 11
230.9999997388783
 21
235.2238137545819
 31
0.0
  0
LINE
  5
20B4
330
1F
100
AcDbEntity
  8
0
100
AcDbLine
 10
228.9999997388783
 20
183.9738137545819
 30
0.0
 11
230.9999997388783
 21
183.9738137545819
 31
0.0
  0
LINE
  5
20B5
330
1F
100
AcDbEntity
  8
0
100
AcDbLine
 10
228.9999997388783
 20
300.7238137545819
 30
0.0
 11
228.9999997388783
 21
353.9738137545819
 31
0.0
  0
LINE
  5
20B6
330
1F
100
AcDbEntity
  8
0
100
AcDbLine
 10
230.9999997388783
 20
300.7238137545819
 30
0.0
 11
230.9999997388783
 21
353.9738137545819
 31
0.0
  0
LINE
  5
20B7
330
1F
100
AcDbEntity
  8
0
100
AcDbLine
 10
235.9999997388783
 20
351.9738137545818
 30
0.0
 11
237.9999997388783
 21
351.9738137545818
 31
0.0
  0
LINE
  5
20B8
330
1F
100
AcDbEntity
  8
0
100
AcDbLine
 10
235.9999997388783
 20
181.9738137545819
 30
0.0
 11
235.9999997388783
 21
235.2238137545819
 31
0.0
  0
LINE
  5
20B9
330
1F
100
AcDbEntity
  8
0
100
AcDbLine
 10
237.9999997388783
 20
181.9738137545819
 30
0.0
 11
237.9999997388783
 21
235.2238137545819
 31
0.0
  0
LINE
  5
20BA
330
1F
100
AcDbEntity
  8
0
100
AcDbLine
 10
235.9999997388783
 20
300.7238137545819
 30
0.0
 11
237.9999997388783
 21
300.7238137545819
 31
0.0
  0
LINE
  5
20BB
330
1F
100
AcDbEntity
  8
0
100
AcDbLine
 10
235.9999997388783
 20
235.2238137545819
 30
0.0
 11
237.9999997388783
 21
235.2238137545819
 31
0.0
  0
LINE
  5
20BC
330
1F
100
AcDbEntity
  8
0
100
AcDbLine
 10
235.9999997388783
 20
183.9738137545819
 30
0.0
 11
237.9999997388783
 21
183.9738137545819
 31
0.0
  0
LINE
  5
20BD
330
1F
100
AcDbEntity
  8
0
100
AcDbLine
 10
235.9999997388783
 20
300.7238137545819
 30
0.0
 11
235.9999997388783
 21
353.9738137545819
 31
0.0
  0
LINE
  5
20BE
330
1F
100
AcDbEntity
  8
0
100
AcDbLine
 10
237.9999997388783
 20
300.7238137545819
 30
0.0
 11
237.9999997388783
 21
353.9738137545819
 31
0.0
  0
LINE
  5
20BF
330
1F
100
AcDbEntity
  8
0
100
AcDbLine
 10
242.9999997388784
 20
351.9738137545818
 30
0.0
 11
244.9999997388784
 21
351.9738137545818
 31
0.0
  0
LINE
  5
20C0
330
1F
100
AcDbEntity
  8
0
100
AcDbLine
 10
242.9999997388784
 20
181.9738137545819
 30
0.0
 11
242.9999997388784
 21
235.2238137545819
 31
0.0
  0
LINE
  5
20C1
330
1F
100
AcDbEntity
  8
0
100
AcDbLine
 10
244.9999997388784
 20
181.9738137545819
 30
0.0
 11
244.9999997388784
 21
235.2238137545819
 31
0.0
  0
LINE
  5
20C2
330
1F
100
AcDbEntity
  8
0
100
AcDbLine
 10
242.9999997388784
 20
300.7238137545819
 30
0.0
 11
244.9999997388784
 21
300.7238137545819
 31
0.0
  0
LINE
  5
20C3
330
1F
100
AcDbEntity
  8
0
100
AcDbLine
 10
242.9999997388784
 20
235.2238137545819
 30
0.0
 11
244.9999997388784
 21
235.2238137545819
 31
0.0
  0
LINE
  5
20C4
330
1F
100
AcDbEntity
  8
0
100
AcDbLine
 10
242.9999997388784
 20
183.9738137545819
 30
0.0
 11
244.9999997388784
 21
183.9738137545819
 31
0.0
  0
LINE
  5
20C5
330
1F
100
AcDbEntity
  8
0
100
AcDbLine
 10
242.9999997388784
 20
300.7238137545819
 30
0.0
 11
242.9999997388784
 21
353.9738137545819
 31
0.0
  0
LINE
  5
20C6
330
1F
100
AcDbEntity
  8
0
100
AcDbLine
 10
244.9999997388784
 20
300.7238137545819
 30
0.0
 11
244.9999997388784
 21
353.9738137545819
 31
0.0
  0
LINE
  5
20C7
330
1F
100
AcDbEntity
  8
0
100
AcDbLine
 10
249.9999997388783
 20
351.9738137545818
 30
0.0
 11
251.9999997388783
 21
351.9738137545818
 31
0.0
  0
LINE
  5
20C8
330
1F
100
AcDbEntity
  8
0
100
AcDbLine
 10
249.9999997388783
 20
181.9738137545819
 30
0.0
 11
249.9999997388783
 21
235.2238137545819
 31
0.0
  0
LINE
  5
20C9
330
1F
100
AcDbEntity
  8
0
100
AcDbLine
 10
251.9999997388783
 20
181.9738137545819
 30
0.0
 11
251.9999997388783
 21
235.2238137545819
 31
0.0
  0
LINE
  5
20CA
330
1F
100
AcDbEntity
  8
0
100
AcDbLine
 10
249.9999997388783
 20
300.7238137545819
 30
0.0
 11
251.9999997388783
 21
300.7238137545819
 31
0.0
  0
LINE
  5
20CB
330
1F
100
AcDbEntity
  8
0
100
AcDbLine
 10
249.9999997388783
 20
235.2238137545819
 30
0.0
 11
251.9999997388783
 21
235.2238137545819
 31
0.0
  0
LINE
  5
20CC
330
1F
100
AcDbEntity
  8
0
100
AcDbLine
 10
249.9999997388783
 20
183.9738137545819
 30
0.0
 11
251.9999997388783
 21
183.9738137545819
 31
0.0
  0
LINE
  5
20CD
330
1F
100
AcDbEntity
  8
0
100
AcDbLine
 10
249.9999997388783
 20
300.7238137545819
 30
0.0
 11
249.9999997388783
 21
353.9738137545819
 31
0.0
  0
LINE
  5
20CE
330
1F
100
AcDbEntity
  8
0
100
AcDbLine
 10
251.9999997388783
 20
300.7238137545819
 30
0.0
 11
251.9999997388783
 21
353.9738137545819
 31
0.0
  0
LINE
  5
20CF
330
1F
100
AcDbEntity
  8
0
100
AcDbLine
 10
179.9999997388783
 20
329.4738137545818
 30
0.0
 11
181.9999997388783
 21
329.4738137545818
 31
0.0
  0
LINE
  5
20D0
330
1F
100
AcDbEntity
  8
0
100
AcDbLine
 10
179.9999997388783
 20
326.4738137545819
 30
0.0
 11
181.9999997388783
 21
326.4738137545819
 31
0.0
  0
LINE
  5
20D1
330
1F
100
AcDbEntity
  8
0
100
AcDbLine
 10
179.9999997388783
 20
209.4738137545819
 30
0.0
 11
181.9999997388783
 21
209.4738137545819
 31
0.0
  0
LINE
  5
20D2
330
1F
100
AcDbEntity
  8
0
100
AcDbLine
 10
179.9999997388783
 20
206.4738137545818
 30
0.0
 11
181.9999997388783
 21
206.4738137545818
 31
0.0
  0
LINE
  5
20D3
330
1F
100
AcDbEntity
  8
0
100
AcDbLine
 10
186.9999997388783
 20
329.4738137545818
 30
0.0
 11
188.9999997388784
 21
329.4738137545818
 31
0.0
  0
LINE
  5
20D4
330
1F
100
AcDbEntity
  8
0
100
AcDbLine
 10
186.9999997388783
 20
326.4738137545819
 30
0.0
 11
188.9999997388784
 21
326.4738137545819
 31
0.0
  0
LINE
  5
20D5
330
1F
100
AcDbEntity
  8
0
100
AcDbLine
 10
186.9999997388783
 20
209.4738137545819
 30
0.0
 11
188.9999997388784
 21
209.4738137545819
 31
0.0
  0
LINE
  5
20D6
330
1F
100
AcDbEntity
  8
0
100
AcDbLine
 10
186.9999997388783
 20
206.4738137545818
 30
0.0
 11
188.9999997388784
 21
206.4738137545818
 31
0.0
  0
LINE
  5
20D7
330
1F
100
AcDbEntity
  8
0
100
AcDbLine
 10
193.9999997388783
 20
329.4738137545818
 30
0.0
 11
195.9999997388783
 21
329.4738137545818
 31
0.0
  0
LINE
  5
20D8
330
1F
100
AcDbEntity
  8
0
100
AcDbLine
 10
193.9999997388783
 20
326.4738137545819
 30
0.0
 11
195.9999997388783
 21
326.4738137545819
 31
0.0
  0
LINE
  5
20D9
330
1F
100
AcDbEntity
  8
0
100
AcDbLine
 10
193.9999997388783
 20
209.4738137545819
 30
0.0
 11
195.9999997388783
 21
209.4738137545819
 31
0.0
  0
LINE
  5
20DA
330
1F
100
AcDbEntity
  8
0
100
AcDbLine
 10
193.9999997388783
 20
206.4738137545818
 30
0.0
 11
195.9999997388783
 21
206.4738137545818
 31
0.0
  0
LINE
  5
20DB
330
1F
100
AcDbEntity
  8
0
100
AcDbLine
 10
200.9999997388784
 20
329.4738137545818
 30
0.0
 11
202.9999997388784
 21
329.4738137545818
 31
0.0
  0
LINE
  5
20DC
330
1F
100
AcDbEntity
  8
0
100
AcDbLine
 10
200.9999997388784
 20
326.4738137545819
 30
0.0
 11
202.9999997388784
 21
326.4738137545819
 31
0.0
  0
LINE
  5
20DD
330
1F
100
AcDbEntity
  8
0
100
AcDbLine
 10
200.9999997388784
 20
209.4738137545819
 30
0.0
 11
202.9999997388784
 21
209.4738137545819
 31
0.0
  0
LINE
  5
20DE
330
1F
100
AcDbEntity
  8
0
100
AcDbLine
 10
200.9999997388784
 20
206.4738137545818
 30
0.0
 11
202.9999997388784
 21
206.4738137545818
 31
0.0
  0
LINE
  5
20DF
330
1F
100
AcDbEntity
  8
0
100
AcDbLine
 10
207.9999997388783
 20
329.4738137545818
 30
0.0
 11
209.9999997388783
 21
329.4738137545818
 31
0.0
  0
LINE
  5
20E0
330
1F
100
AcDbEntity
  8
0
100
AcDbLine
 10
207.9999997388783
 20
326.4738137545819
 30
0.0
 11
209.9999997388783
 21
326.4738137545819
 31
0.0
  0
LINE
  5
20E1
330
1F
100
AcDbEntity
  8
0
100
AcDbLine
 10
207.9999997388783
 20
209.4738137545819
 30
0.0
 11
209.9999997388783
 21
209.4738137545819
 31
0.0
  0
LINE
  5
20E2
330
1F
100
AcDbEntity
  8
0
100
AcDbLine
 10
207.9999997388783
 20
206.4738137545818
 30
0.0
 11
209.9999997388783
 21
206.4738137545818
 31
0.0
  0
LINE
  5
20E3
330
1F
100
AcDbEntity
  8
0
100
AcDbLine
 10
214.9999997388783
 20
329.4738137545818
 30
0.0
 11
216.9999997388783
 21
329.4738137545818
 31
0.0
  0
LINE
  5
20E4
330
1F
100
AcDbEntity
  8
0
100
AcDbLine
 10
214.9999997388783
 20
326.4738137545819
 30
0.0
 11
216.9999997388783
 21
326.4738137545819
 31
0.0
  0
LINE
  5
20E5
330
1F
100
AcDbEntity
  8
0
100
AcDbLine
 10
214.9999997388783
 20
209.4738137545819
 30
0.0
 11
216.9999997388783
 21
209.4738137545819
 31
0.0
  0
LINE
  5
20E6
330
1F
100
AcDbEntity
  8
0
100
AcDbLine
 10
214.9999997388783
 20
206.4738137545818
 30
0.0
 11
216.9999997388783
 21
206.4738137545818
 31
0.0
  0
LINE
  5
20E7
330
1F
100
AcDbEntity
  8
0
100
AcDbLine
 10
221.9999997388784
 20
329.4738137545818
 30
0.0
 11
223.9999997388784
 21
329.4738137545818
 31
0.0
  0
LINE
  5
20E8
330
1F
100
AcDbEntity
  8
0
100
AcDbLine
 10
221.9999997388784
 20
326.4738137545819
 30
0.0
 11
223.9999997388784
 21
326.4738137545819
 31
0.0
  0
LINE
  5
20E9
330
1F
100
AcDbEntity
  8
0
100
AcDbLine
 10
221.9999997388784
 20
209.4738137545819
 30
0.0
 11
223.9999997388784
 21
209.4738137545819
 31
0.0
  0
LINE
  5
20EA
330
1F
100
AcDbEntity
  8
0
100
AcDbLine
 10
221.9999997388784
 20
206.4738137545818
 30
0.0
 11
223.9999997388784
 21
206.4738137545818
 31
0.0
  0
LINE
  5
20EB
330
1F
100
AcDbEntity
  8
0
100
AcDbLine
 10
228.9999997388783
 20
329.4738137545818
 30
0.0
 11
230.9999997388783
 21
329.4738137545818
 31
0.0
  0
LINE
  5
20EC
330
1F
100
AcDbEntity
  8
0
100
AcDbLine
 10
228.9999997388783
 20
326.4738137545819
 30
0.0
 11
230.9999997388783
 21
326.4738137545819
 31
0.0
  0
LINE
  5
20ED
330
1F
100
AcDbEntity
  8
0
100
AcDbLine
 10
228.9999997388783
 20
209.4738137545819
 30
0.0
 11
230.9999997388783
 21
209.4738137545819
 31
0.0
  0
LINE
  5
20EE
330
1F
100
AcDbEntity
  8
0
100
AcDbLine
 10
228.9999997388783
 20
206.4738137545818
 30
0.0
 11
230.9999997388783
 21
206.4738137545818
 31
0.0
  0
LINE
  5
20EF
330
1F
100
AcDbEntity
  8
0
100
AcDbLine
 10
235.9999997388783
 20
329.4738137545818
 30
0.0
 11
237.9999997388783
 21
329.4738137545818
 31
0.0
  0
LINE
  5
20F0
330
1F
100
AcDbEntity
  8
0
100
AcDbLine
 10
235.9999997388783
 20
326.4738137545819
 30
0.0
 11
237.9999997388783
 21
326.4738137545819
 31
0.0
  0
LINE
  5
20F1
330
1F
100
AcDbEntity
  8
0
100
AcDbLine
 10
235.9999997388783
 20
209.4738137545819
 30
0.0
 11
237.9999997388783
 21
209.4738137545819
 31
0.0
  0
LINE
  5
20F2
330
1F
100
AcDbEntity
  8
0
100
AcDbLine
 10
235.9999997388783
 20
206.4738137545818
 30
0.0
 11
237.9999997388783
 21
206.4738137545818
 31
0.0
  0
LINE
  5
20F3
330
1F
100
AcDbEntity
  8
0
100
AcDbLine
 10
242.9999997388784
 20
329.4738137545818
 30
0.0
 11
244.9999997388784
 21
329.4738137545818
 31
0.0
  0
LINE
  5
20F4
330
1F
100
AcDbEntity
  8
0
100
AcDbLine
 10
242.9999997388784
 20
326.4738137545819
 30
0.0
 11
244.9999997388784
 21
326.4738137545819
 31
0.0
  0
LINE
  5
20F5
330
1F
100
AcDbEntity
  8
0
100
AcDbLine
 10
242.9999997388784
 20
209.4738137545819
 30
0.0
 11
244.9999997388784
 21
209.4738137545819
 31
0.0
  0
LINE
  5
20F6
330
1F
100
AcDbEntity
  8
0
100
AcDbLine
 10
242.9999997388784
 20
206.4738137545818
 30
0.0
 11
244.9999997388784
 21
206.4738137545818
 31
0.0
  0
LINE
  5
20F7
330
1F
100
AcDbEntity
  8
0
100
AcDbLine
 10
249.9999997388783
 20
329.4738137545818
 30
0.0
 11
251.9999997388783
 21
329.4738137545818
 31
0.0
  0
LINE
  5
20F8
330
1F
100
AcDbEntity
  8
0
100
AcDbLine
 10
249.9999997388783
 20
326.4738137545819
 30
0.0
 11
251.9999997388783
 21
326.4738137545819
 31
0.0
  0
LINE
  5
20F9
330
1F
100
AcDbEntity
  8
0
100
AcDbLine
 10
249.9999997388783
 20
209.4738137545819
 30
0.0
 11
251.9999997388783
 21
209.4738137545819
 31
0.0
  0
LINE
  5
20FA
330
1F
100
AcDbEntity
  8
0
100
AcDbLine
 10
249.9999997388783
 20
206.4738137545818
 30
0.0
 11
251.9999997388783
 21
206.4738137545818
 31
0.0
  0
LINE
  5
20FD
330
1F
100
AcDbEntity
  8
0
100
AcDbLine
 10
275.3878535820453
 20
180.9738137545819
 30
0.0
 11
275.3878535820463
 21
354.9738137545819
 31
0.0
  0
LINE
  5
20FE
330
1F
100
AcDbEntity
  8
0
100
AcDbLine
 10
154.5999997388785
 20
221.6738144882723
 30
0.0
 11
154.5999997388785
 21
201.4738144882719
 31
0.0
  0
LINE
  5
20FF
330
1F
100
AcDbEntity
  8
0
100
AcDbLine
 10
155.4999997388783
 20
197.973814488272
 30
0.0
 11
154.9999997388781
 21
198.4738144882721
 31
0.0
  0
LINE
  5
2100
330
1F
100
AcDbEntity
  8
0
100
AcDbLine
 10
154.9999997388785
 20
199.3738144882723
 30
0.0
 11
154.9999997388781
 21
198.4738144882721
 31
0.0
  0
LINE
  5
2101
330
1F
100
AcDbEntity
  8
0
100
AcDbLine
 10
156.2999997388785
 20
197.973814488272
 30
0.0
 11
155.4999997388783
 21
197.973814488272
 31
0.0
  0
ARC
  5
2102
330
1F
100
AcDbEntity
  8
0
100
AcDbCircle
 10
155.9999997388785
 20
199.3738144882721
 30
0.0
 40
1.0
100
AcDbArc
 50
90.0
 51
180.0
  0
LINE
  5
2103
330
1F
100
AcDbEntity
  8
0
100
AcDbLine
 10
157.9999997388783
 20
200.3738144882721
 30
0.0
 11
155.9999997388785
 21
200.3738144882721
 31
0.0
  0
LINE
  5
2104
330
1F
100
AcDbEntity
  8
0
100
AcDbLine
 10
157.9999997388783
 20
199.173814488272
 30
0.0
 11
156.2999997388786
 21
199.173814488272
 31
0.0
  0
LINE
  5
2105
330
1F
100
AcDbEntity
  8
0
100
AcDbLine
 10
157.9999997388783
 20
201.4738144882719
 30
0.0
 11
154.5999997388785
 21
201.4738144882719
 31
0.0
  0
LINE
  5
2106
330
1F
100
AcDbEntity
  8
0
100
AcDbLine
 10
156.2999997388785
 20
197.973814488272
 30
0.0
 11
156.2999997388785
 21
199.173814488272
 31
0.0
  0
LINE
  5
2107
330
1F
100
AcDbEntity
  8
0
100
AcDbLine
 10
155.4999997388785
 20
225.173814488272
 30
0.0
 11
154.9999997388785
 21
224.6738144882721
 31
0.0
  0
LINE
  5
2108
330
1F
100
AcDbEntity
  8
0
100
AcDbLine
 10
154.9999997388785
 20
224.6738144882721
 30
0.0
 11
154.9999997388785
 21
223.7738144882721
 31
0.0
  0
LINE
  5
2109
330
1F
100
AcDbEntity
  8
0
100
AcDbLine
 10
156.2999997388785
 20
225.173814488272
 30
0.0
 11
155.4999997388785
 21
225.173814488272
 31
0.0
  0
ARC
  5
210A
330
1F
100
AcDbEntity
  8
0
100
AcDbCircle
 10
155.9999997388785
 20
223.7738144882721
 30
0.0
 40
1.0
100
AcDbArc
 50
180.0
 51
270.0
  0
LINE
  5
210B
330
1F
100
AcDbEntity
  8
0
100
AcDbLine
 10
157.9999997388783
 20
222.7738144882723
 30
0.0
 11
155.9999997388785
 21
222.7738144882723
 31
0.0
  0
LINE
  5
210C
330
1F
100
AcDbEntity
  8
0
100
AcDbLine
 10
154.5999997388785
 20
221.6738144882723
 30
0.0
 11
157.9999997388783
 21
221.6738144882723
 31
0.0
  0
LINE
  5
210D
330
1F
100
AcDbEntity
  8
0
100
AcDbLine
 10
157.9999997388783
 20
223.9738144882723
 30
0.0
 11
156.2999997388784
 21
223.9738144882723
 31
0.0
  0
LINE
  5
210E
330
1F
100
AcDbEntity
  8
0
100
AcDbLine
 10
156.2999997388785
 20
223.973814488272
 30
0.0
 11
156.2999997388785
 21
225.173814488272
 31
0.0
  0
LINE
  5
210F
330
1F
100
AcDbEntity
  8
0
100
AcDbLine
 10
157.9999997388783
 20
185.9738144882721
 30
0.0
 11
155.4999997388781
 21
185.9738144882721
 31
0.0
  0
LINE
  5
2110
330
1F
100
AcDbEntity
  8
0
100
AcDbLine
 10
155.4999997388781
 20
185.9738144882721
 30
0.0
 11
155.4999997388781
 21
191.473814488272
 31
0.0
  0
LINE
  5
2111
330
1F
100
AcDbEntity
  8
0
100
AcDbLine
 10
155.4999997388781
 20
191.473814488272
 30
0.0
 11
157.9999997388783
 21
191.473814488272
 31
0.0
  0
LINE
  5
2112
330
1F
100
AcDbEntity
  8
0
100
AcDbLine
 10
157.9999997388783
 20
226.6138137545819
 30
0.0
 11
156.9999997388783
 21
226.6138137545819
 31
0.0
  0
LINE
  5
2113
330
1F
100
AcDbEntity
  8
0
100
AcDbLine
 10
156.9999997388783
 20
226.6138137545819
 30
0.0
 11
156.9999997388783
 21
223.9738144882723
 31
0.0
  0
LINE
  5
2114
330
1F
100
AcDbEntity
  8
0
100
AcDbLine
 10
151.3999997388783
 20
276.9738137545818
 30
0.0
 11
157.9999997388783
 21
276.9738137545818
 31
0.0
  0
LINE
  5
2115
330
1F
100
AcDbEntity
  8
0
100
AcDbLine
 10
157.9999997388783
 20
301.1338137545818
 30
0.0
 11
151.3999997388783
 21
301.1338137545818
 31
0.0
  0
LINE
  5
2116
330
1F
100
AcDbEntity
  8
0
100
AcDbLine
 10
151.3999997388783
 20
301.1338137545818
 30
0.0
 11
151.3999997388783
 21
276.9738137545818
 31
0.0
  0
LINE
  5
2117
330
1F
100
AcDbEntity
  8
0
100
AcDbLine
 10
152.6999997388784
 20
235.8138137545819
 30
0.0
 11
152.6999997388784
 21
264.2738137545819
 31
0.0
  0
LINE
  5
2118
330
1F
100
AcDbEntity
  8
0
100
AcDbLine
 10
152.6999997388784
 20
239.923813754582
 30
0.0
 11
156.9999997388781
 21
239.923813754582
 31
0.0
  0
LINE
  5
2119
330
1F
100
AcDbEntity
  8
0
100
AcDbLine
 10
156.9999997388783
 20
235.8138137545819
 30
0.0
 11
152.6999997388784
 21
235.8138137545819
 31
0.0
  0
LINE
  5
211A
330
1F
100
AcDbEntity
  8
0
100
AcDbLine
 10
152.6999997388784
 20
260.1638137545819
 30
0.0
 11
157.9999997388783
 21
260.1638137545819
 31
0.0
  0
LINE
  5
211B
330
1F
100
AcDbEntity
  8
0
100
AcDbLine
 10
152.6999997388784
 20
255.1638137545819
 30
0.0
 11
157.9999997388783
 21
255.1638137545819
 31
0.0
  0
LINE
  5
211C
330
1F
100
AcDbEntity
  8
0
100
AcDbLine
 10
152.6999997388784
 20
247.5438137545819
 30
0.0
 11
157.9999997388783
 21
247.5438137545819
 31
0.0
  0
LINE
  5
211D
330
1F
100
AcDbEntity
  8
0
100
AcDbLine
 10
152.6999997388784
 20
252.5438137545819
 30
0.0
 11
157.9999997388783
 21
252.5438137545819
 31
0.0
  0
LINE
  5
211E
330
1F
100
AcDbEntity
  8
0
100
AcDbLine
 10
152.6999997388784
 20
244.9238137545818
 30
0.0
 11
157.1999997388786
 21
244.9238137545818
 31
0.0
  0
LINE
  5
211F
330
1F
100
AcDbEntity
  8
0
100
AcDbLine
 10
157.1999997388786
 20
264.2738137545819
 30
0.0
 11
152.6999997388784
 21
264.2738137545819
 31
0.0
  0
LINE
  5
2120
330
1F
100
AcDbEntity
  8
0
100
AcDbLine
 10
200.9999997388784
 20
351.9738137545818
 30
0.0
 11
202.9999997388784
 21
351.9738137545818
 31
0.0
  0
LINE
  5
2121
330
1F
100
AcDbEntity
  8
0
100
AcDbLine
 10
273.9999997388774
 20
354.9738137545819
 30
0.0
 11
273.9999997388774
 21
364.9738137545818
 31
0.0
  0
LINE
  5
2122
330
1F
100
AcDbEntity
  8
0
100
AcDbLine
 10
157.9999997388783
 20
180.9738137545819
 30
0.0
 11
275.3878535820463
 21
180.9738137545819
 31
0.0
  0
LINE
  5
212A
330
1F
100
AcDbEntity
  8
0
100
AcDbLine
 10
156.9999997388783
 20
222.7738144882723
 30
0.0
 11
156.9999997388783
 21
221.6738144882723
 31
0.0
  0
LINE
  5
212B
330
1F
100
AcDbEntity
  8
0
100
AcDbLine
 10
156.9999997388783
 20
201.4738144882719
 30
0.0
 11
156.9999997388783
 21
200.3738144882721
 31
0.0
  0
LINE
  5
212C
330
1F
100
AcDbEntity
  8
0
100
AcDbLine
 10
156.9999997388783
 20
199.173814488272
 30
0.0
 11
156.9999997388783
 21
191.473814488272
 31
0.0
  0
LINE
  5
212D
330
1F
100
AcDbEntity
  8
0
100
AcDbLine
 10
157.9999997388783
 20
322.413813754582
 30
0.0
 11
156.9956377980273
 21
322.413813754582
 31
0.0
  0
LINE
  5
212E
330
1F
100
AcDbEntity
  8
0
100
AcDbLine
 10
157.9999997388783
 20
233.1738144882721
 30
0.0
 11
156.9999997388783
 21
233.1738144882721
 31
0.0
  0
LINE
  5
212F
330
1F
100
AcDbEntity
  8
0
100
AcDbLine
 10
156.9999997388783
 20
233.1738144882721
 30
0.0
 11
156.9999997388781
 21
241.5738144882723
 31
0.0
  0
LINE
  5
2130
330
1F
100
AcDbEntity
  8
0
100
AcDbLine
 10
156.9999997388781
 20
241.5738144882723
 30
0.0
 11
157.9999997388783
 21
241.5738144882723
 31
0.0
  0
LINE
  5
2131
330
1F
100
AcDbEntity
  8
0
100
AcDbLine
 10
157.9999997388783
 20
243.0738144882723
 30
0.0
 11
157.1999997388786
 21
243.0738144882723
 31
0.0
  0
LINE
  5
2132
330
1F
100
AcDbEntity
  8
0
100
AcDbLine
 10
157.1999997388786
 20
243.0738144882723
 30
0.0
 11
157.1999997388786
 21
246.0738144882723
 31
0.0
  0
LINE
  5
2133
330
1F
100
AcDbEntity
  8
0
100
AcDbLine
 10
157.1999997388786
 20
246.0738144882723
 30
0.0
 11
157.9999997388783
 21
246.0738144882723
 31
0.0
  0
LINE
  5
2134
330
1F
100
AcDbEntity
  8
0
100
AcDbLine
 10
157.9999997388783
 20
263.0738144882723
 30
0.0
 11
157.1999997388786
 21
263.0738144882723
 31
0.0
  0
LINE
  5
2135
330
1F
100
AcDbEntity
  8
0
100
AcDbLine
 10
157.1999997388786
 20
263.0738144882723
 30
0.0
 11
157.1999997388786
 21
266.0738144882723
 31
0.0
  0
LINE
  5
2136
330
1F
100
AcDbEntity
  8
0
100
AcDbLine
 10
157.1999997388786
 20
266.0738144882723
 30
0.0
 11
157.9999997388783
 21
266.0738144882723
 31
0.0
  0
LINE
  5
2137
330
1F
100
AcDbEntity
  8
0
  6
Continuous
100
AcDbLine
 10
156.9956377980273
 20
322.413813754582
 30
0.0
 11
156.9956377980273
 21
307.0138137545818
 31
0.0
  0
LINE
  5
2138
330
1F
100
AcDbEntity
  8
0
  6
Continuous
100
AcDbLine
 10
156.9956377980273
 20
307.0138137545818
 30
0.0
 11
157.9999997388783
 21
307.0138137545818
 31
0.0
  0
LINE
  5
2139
330
1F
100
AcDbEntity
  8
0
100
AcDbLine
 10
26.70871189140035
 20
4.379165199218387
 30
0.0
 11
26.70871189140035
 21
21.97381375458244
 31
0.0
  0
LINE
  5
213A
330
1F
100
AcDbEntity
  8
0
100
AcDbLine
 10
31.29128758635538
 20
4.259166231485433
 30
0.0
 11
31.29128758635538
 21
21.97381375458144
 31
0.0
  0
LINE
  5
213B
330
1F
100
AcDbEntity
  8
0
100
AcDbLine
 10
5.999999738878386
 20
4.92144191144342
 30
0.0
 11
5.999999738878386
 21
20.97381375458144
 31
0.0
  0
LINE
  5
213C
330
1F
100
AcDbEntity
  8
0
100
AcDbLine
 10
4.999999738878385
 20
20.99999967615042
 30
0.0
 11
4.999999738878385
 21
4.973813754580417
 31
0.0
  0
LINE
  5
213D
330
1F
100
AcDbEntity
  8
0
100
AcDbLine
 10
-0.0000002611216132
 20
21.41966643535738
 30
0.0
 11
-0.0000002611216132
 21
-0.0000003238495764
 31
0.0
  0
LINE
  5
213E
330
1F
100
AcDbEntity
  8
0
100
AcDbLine
 10
57.99999973887839
 20
3.585959911413397
 30
0.0
 11
57.99999973887839
 21
120.9738137545812
 31
0.0
  0
ARC
  5
2142
330
1F
100
AcDbEntity
  8
0
100
AcDbCircle
 10
2.399999738878363
 20
89.31966643535741
 30
0.0
 40
0.6
100
AcDbArc
 50
0.0
 51
88.09084756699943
  0
LINE
  5
2143
330
1F
100
AcDbEntity
  8
0
100
AcDbLine
 10
5.999999738878386
 20
82.97381375458241
 30
0.0
 11
5.999999738878386
 21
109.6057331812792
 31
0.0
  0
LINE
  5
2144
330
1F
100
AcDbEntity
  8
0
100
AcDbLine
 10
4.999999738878385
 20
110.4710187340242
 30
0.0
 11
4.999999738878385
 21
82.99999967615043
 31
0.0
  0
LINE
  5
2147
330
1F
100
AcDbEntity
  8
0
100
AcDbLine
 10
28.19999973887837
 20
105.4738137545812
 30
0.0
 11
19.99999973887837
 21
105.4738137545812
 31
0.0
  0
LINE
  5
2148
330
1F
100
AcDbEntity
  8
0
100
AcDbLine
 10
19.99999973887837
 20
117.4738137545813
 30
0.0
 11
28.19999973887837
 21
117.4738137545813
 31
0.0
  0
LINE
  5
2149
330
1F
100
AcDbEntity
  8
0
100
AcDbLine
 10
19.99999973887837
 20
109.4738137545812
 30
0.0
 11
23.19999973887836
 21
109.4738137545812
 31
0.0
  0
LINE
  5
214A
330
1F
100
AcDbEntity
  8
0
100
AcDbLine
 10
19.99999973887837
 20
113.4738137545812
 30
0.0
 11
23.19999973887836
 21
113.4738137545812
 31
0.0
  0
LINE
  5
2150
330
1F
100
AcDbEntity
  8
0
100
AcDbLine
 10
5.999999738878386
 20
120.9738137545812
 30
0.0
 11
57.99999973887839
 21
120.9738137545812
 31
0.0
  0
LINE
  5
2151
330
1F
100
AcDbEntity
  8
0
100
AcDbLine
 10
19.99999973887837
 20
109.4738137545812
 30
0.0
 11
19.99999973887837
 21
105.4738137545812
 31
0.0
  0
LINE
  5
2152
330
1F
100
AcDbEntity
  8
0
100
AcDbLine
 10
-0.0000002611216132
 20
90.58033291694243
 30
0.0
 11
-0.0000002611216132
 21
120.8952559898732
 31
0.0
  0
LINE
  5
2153
330
1F
100
AcDbEntity
  8
0
100
AcDbLine
 10
7.999999738878386
 20
120.4738137545813
 30
0.0
 11
7.999999738878386
 21
110.9738137545823
 31
0.0
  0
LINE
  5
2154
330
1F
100
AcDbEntity
  8
0
100
AcDbLine
 10
8.999999738878386
 20
120.9738137545812
 30
0.0
 11
8.999999738878386
 21
110.1347141234041
 31
0.0
  0
LINE
  5
2155
330
1F
100
AcDbEntity
  8
0
100
AcDbLine
 10
7.999999738878386
 20
110.9999996761503
 30
0.0
 11
7.999999738878386
 21
120.8952559898732
 31
0.0
  0
LINE
  5
2156
330
1F
100
AcDbEntity
  8
0
100
AcDbLine
 10
5.999999738878386
 20
120.9738137545812
 30
0.0
 11
5.999999738878386
 21
120.9476278330118
 31
0.0
  0
LINE
  5
2157
330
1F
100
AcDbEntity
  8
0
100
AcDbLine
 10
5.999999738878386
 20
120.9738137545812
 30
0.0
 11
5.999999738878386
 21
120.9476278330122
 31
0.0
  0
LINE
  5
2158
330
1F
100
AcDbEntity
  8
0
100
AcDbLine
 10
7.999999738878386
 20
120.4738137545813
 30
0.0
 11
8.999999738878386
 21
120.4738137545813
 31
0.0
  0
LINE
  5
2159
330
1F
100
AcDbEntity
  8
0
100
AcDbLine
 10
3.999999738878385
 20
120.9999996761503
 30
0.0
 11
7.999999738878386
 21
120.8952559898732
 31
0.0
  0
LINE
  5
215A
330
1F
100
AcDbEntity
  8
0
100
AcDbLine
 10
-0.0000002611216132
 20
120.8952559898732
 30
0.0
 11
3.999999738878385
 21
120.9999996761503
 31
0.0
  0
LINE
  5
215B
330
1F
100
AcDbEntity
  8
0
100
AcDbLine
 10
4.999999738878385
 20
110.4448328124562
 30
0.0
 11
7.999999738878386
 21
110.9738137545823
 31
0.0
  0
LINE
  5
215C
330
1F
100
AcDbEntity
  8
0
100
AcDbLine
 10
8.999999738878386
 20
110.1347141234041
 30
0.0
 11
5.999999738878386
 21
109.6057331812792
 31
0.0
  0
LINE
  5
215D
330
1F
100
AcDbEntity
  8
0
100
AcDbLine
 10
7.999999738878386
 20
110.9999996761503
 30
0.0
 11
4.999999738878385
 21
110.4710187340242
 31
0.0
  0
LINE
  5
215E
330
1F
100
AcDbEntity
  8
0
100
AcDbLine
 10
19.99999973887837
 20
113.4738137545812
 30
0.0
 11
19.99999973887837
 21
117.4738137545813
 31
0.0
  0
LINE
  5
215F
330
1F
100
AcDbEntity
  8
0
100
AcDbLine
 10
-0.0000002611216132
 20
98.41966643535746
 30
0.0
 11
-0.0000002611216132
 21
97.58033291694244
 31
0.0
  0
POINT
  5
2160
330
1F
100
AcDbEntity
  8
0
100
AcDbPoint
 10
-0.0000002611216132
 20
98.9999996761494
 30
0.0
  0
POINT
  5
2161
330
1F
100
AcDbEntity
  8
0
100
AcDbPoint
 10
2.999999738878385
 20
99.09999967614945
 30
0.0
  0
ARC
  5
2162
330
1F
100
AcDbEntity
  8
0
100
AcDbCircle
 10
2.399999738878363
 20
99.68033291694144
 30
0.0
 40
0.6
100
AcDbArc
 50
271.909152432994
 51
0.0
  0
ARC
  5
2163
330
1F
100
AcDbEntity
  8
0
100
AcDbCircle
 10
0.5999997388784096
 20
98.41966643535746
 30
0.0
 40
0.6
100
AcDbArc
 50
91.90915243299405
 51
180.0
  0
LINE
  5
2164
330
1F
100
AcDbEntity
  8
0
100
AcDbLine
 10
2.419988637017354
 20
99.08066597275446
 30
0.0
 11
0.580010840738396
 21
99.01933337954538
 31
0.0
  0
LINE
  5
2165
330
1F
100
AcDbEntity
  8
0
100
AcDbLine
 10
2.999999738878385
 20
103.3196664353573
 30
0.0
 11
2.999999738878385
 21
99.68033291694144
 31
0.0
  0
POINT
  5
2166
330
1F
100
AcDbEntity
  8
0
100
AcDbPoint
 10
2.999999738878385
 20
103.8999996761492
 30
0.0
  0
ARC
  5
2167
330
1F
100
AcDbEntity
  8
0
100
AcDbCircle
 10
0.5999997388784096
 20
104.5803329169423
 30
0.0
 40
0.6
100
AcDbArc
 50
180.0
 51
268.0908475670059
  0
LINE
  5
2168
330
1F
100
AcDbEntity
  8
0
100
AcDbLine
 10
0.580010840738396
 20
103.9806659727542
 30
0.0
 11
2.419988637017354
 21
103.9193333795452
 31
0.0
  0
ARC
  5
2169
330
1F
100
AcDbEntity
  8
0
100
AcDbCircle
 10
2.399999738878363
 20
103.3196664353573
 30
0.0
 40
0.6
100
AcDbArc
 50
0.0
 51
88.09084756699943
  0
POINT
  5
216A
330
1F
100
AcDbEntity
  8
0
100
AcDbPoint
 10
-0.0000002611216132
 20
89.99999967615044
 30
0.0
  0
ARC
  5
216B
330
1F
100
AcDbEntity
  8
0
100
AcDbCircle
 10
2.399999738878363
 20
92.68033291694143
 30
0.0
 40
0.6
100
AcDbArc
 50
271.909152432994
 51
0.0
  0
ARC
  5
216C
330
1F
100
AcDbEntity
  8
0
100
AcDbCircle
 10
0.5999997388784096
 20
91.41966643535743
 30
0.0
 40
0.6
100
AcDbArc
 50
91.90915243299405
 51
180.0
  0
ARC
  5
216D
330
1F
100
AcDbEntity
  8
0
100
AcDbCircle
 10
0.5999997388773865
 20
90.58033291694243
 30
0.0
 40
0.6
100
AcDbArc
 50
180.0
 51
268.0908475670059
  0
LINE
  5
216E
330
1F
100
AcDbEntity
  8
0
100
AcDbLine
 10
-0.0000002611216132
 20
91.41966643535743
 30
0.0
 11
-0.0000002611216132
 21
90.58033291694243
 31
0.0
  0
LINE
  5
216F
330
1F
100
AcDbEntity
  8
0
100
AcDbLine
 10
0.580010840738396
 20
89.98066597275444
 30
0.0
 11
2.419988637017354
 21
89.91933337954547
 31
0.0
  0
LINE
  5
2170
330
1F
100
AcDbEntity
  8
0
100
AcDbLine
 10
2.419988637017354
 20
92.08066597275445
 30
0.0
 11
0.580010840738396
 21
92.01933337954541
 31
0.0
  0
POINT
  5
2171
330
1F
100
AcDbEntity
  8
0
100
AcDbPoint
 10
2.999999738878385
 20
96.89999967614937
 30
0.0
  0
POINT
  5
2172
330
1F
100
AcDbEntity
  8
0
100
AcDbPoint
 10
-0.0000002611216132
 20
96.99999967614942
 30
0.0
  0
ARC
  5
2173
330
1F
100
AcDbEntity
  8
0
100
AcDbCircle
 10
2.399999738878363
 20
96.31966643535742
 30
0.0
 40
0.6
100
AcDbArc
 50
0.0
 51
88.09084756699943
  0
ARC
  5
2174
330
1F
100
AcDbEntity
  8
0
100
AcDbCircle
 10
0.5999997388784096
 20
97.58033291694244
 30
0.0
 40
0.6
100
AcDbArc
 50
180.0
 51
268.0908475670059
  0
LINE
  5
2175
330
1F
100
AcDbEntity
  8
0
100
AcDbLine
 10
0.580010840738396
 20
96.98066597275442
 30
0.0
 11
2.419988637017354
 21
96.91933337954544
 31
0.0
  0
LINE
  5
2176
330
1F
100
AcDbEntity
  8
0
100
AcDbLine
 10
2.999999738878385
 20
96.31966643535742
 30
0.0
 11
2.999999738878385
 21
92.68033291694143
 31
0.0
  0
LINE
  5
2177
330
1F
100
AcDbEntity
  8
0
100
AcDbLine
 10
28.19999973887837
 20
105.4738137545812
 30
0.0
 11
28.19999973887837
 21
117.4738137545813
 31
0.0
  0
LINE
  5
2178
330
1F
100
AcDbEntity
  8
0
100
AcDbLine
 10
23.19999973887836
 20
107.4738137545812
 30
0.0
 11
25.19999973887836
 21
107.4738137545812
 31
0.0
  0
LINE
  5
2179
330
1F
100
AcDbEntity
  8
0
100
AcDbLine
 10
23.19999973887836
 20
109.4738137545812
 30
0.0
 11
23.19999973887836
 21
107.4738137545812
 31
0.0
  0
LINE
  5
217A
330
1F
100
AcDbEntity
  8
0
100
AcDbLine
 10
23.19999973887836
 20
115.4738137545813
 30
0.0
 11
25.19999973887836
 21
115.4738137545813
 31
0.0
  0
LINE
  5
217B
330
1F
100
AcDbEntity
  8
0
100
AcDbLine
 10
23.19999973887836
 20
113.4738137545812
 30
0.0
 11
23.19999973887836
 21
115.4738137545813
 31
0.0
  0
LINE
  5
217C
330
1F
100
AcDbEntity
  8
0
100
AcDbLine
 10
25.19999973887836
 20
107.4738137545812
 30
0.0
 11
25.19999973887836
 21
115.4738137545813
 31
0.0
  0
LINE
  5
219A
330
1F
100
AcDbEntity
  8
0
100
AcDbLine
 10
2.999999738878385
 20
54.31966643535742
 30
0.0
 11
2.999999738878385
 21
50.68033291694145
 31
0.0
  0
LINE
  5
219B
330
1F
100
AcDbEntity
  8
0
100
AcDbLine
 10
5.999999738878386
 20
32.9738137545824
 30
0.0
 11
5.999999738878386
 21
70.97381375458144
 31
0.0
  0
LINE
  5
219C
330
1F
100
AcDbEntity
  8
0
100
AcDbLine
 10
4.999999738878385
 20
70.99999967615044
 30
0.0
 11
4.999999738878385
 21
32.99999967615041
 31
0.0
  0
LINE
  5
219D
330
1F
100
AcDbEntity
  8
0
100
AcDbLine
 10
2.999999738878385
 20
75.31966643535742
 30
0.0
 11
2.999999738878385
 21
71.68033291694145
 31
0.0
  0
LINE
  5
219E
330
1F
100
AcDbEntity
  8
0
100
AcDbLine
 10
4.999999738878385
 20
70.9999996761494
 30
0.0
 11
4.999999738878385
 21
82.99999967615043
 31
0.0
  0
LINE
  5
219F
330
1F
100
AcDbEntity
  8
0
100
AcDbLine
 10
4.499999738878385
 20
82.99999967615043
 30
0.0
 11
4.499999738878385
 21
70.99999967615044
 31
0.0
  0
LINE
  5
21A0
330
1F
100
AcDbEntity
  8
0
100
AcDbLine
 10
3.699999738878318
 20
82.99999967615043
 30
0.0
 11
3.699999738878318
 21
71.09999967614943
 31
0.0
  0
LINE
  5
21A1
330
1F
100
AcDbEntity
  8
0
100
AcDbLine
 10
9.699999738877409
 20
81.47381375458143
 30
0.0
 11
9.699999738877409
 21
72.47381375458144
 31
0.0
  0
LINE
  5
21A2
330
1F
100
AcDbEntity
  8
0
100
AcDbLine
 10
7.99999973887736
 20
81.47381375458143
 30
0.0
 11
7.99999973887736
 21
72.47381375458144
 31
0.0
  0
LINE
  5
21A3
330
1F
100
AcDbEntity
  8
0
100
AcDbLine
 10
9.499999738878386
 20
80.99999967615044
 30
0.0
 11
9.499999738878386
 21
72.99999967615043
 31
0.0
  0
LINE
  5
21A4
330
1F
100
AcDbEntity
  8
0
100
AcDbLine
 10
8.699999738878316
 20
80.99999967615044
 30
0.0
 11
8.699999738878316
 21
72.99999967615043
 31
0.0
  0
LINE
  5
21A5
330
1F
100
AcDbEntity
  8
0
100
AcDbLine
 10
8.099999738878409
 20
80.99999967615044
 30
0.0
 11
8.099999738878409
 21
72.99999967615043
 31
0.0
  0
LINE
  5
21A6
330
1F
100
AcDbEntity
  8
0
100
AcDbLine
 10
2.999999738878385
 20
82.3196664353574
 30
0.0
 11
2.999999738878385
 21
78.68033291694145
 31
0.0
  0
LINE
  5
21A7
330
1F
100
AcDbEntity
  8
0
100
AcDbLine
 10
5.999999738878386
 20
82.97381375458241
 30
0.0
 11
4.999999738878385
 21
82.97381375458241
 31
0.0
  0
LINE
  5
21A8
330
1F
100
AcDbEntity
  8
0
100
AcDbLine
 10
9.699999738877409
 20
81.47381375458143
 30
0.0
 11
7.99999973887736
 21
81.47381375458143
 31
0.0
  0
LINE
  5
21A9
330
1F
100
AcDbEntity
  8
0
100
AcDbLine
 10
4.999999738878385
 20
82.99999967615043
 30
0.0
 11
3.699999738878318
 21
82.99999967615043
 31
0.0
  0
POINT
  5
21AA
330
1F
100
AcDbEntity
  8
0
100
AcDbPoint
 10
-0.0000002611216132
 20
82.99999967615043
 30
0.0
  0
ARC
  5
21AB
330
1F
100
AcDbEntity
  8
0
100
AcDbCircle
 10
2.399999738878363
 20
82.3196664353574
 30
0.0
 40
0.6
100
AcDbArc
 50
0.0
 51
88.09084756699943
  0
ARC
  5
21AC
330
1F
100
AcDbEntity
  8
0
100
AcDbCircle
 10
2.399999738878363
 20
85.68033291694145
 30
0.0
 40
0.6
100
AcDbArc
 50
271.909152432994
 51
0.0
  0
LINE
  5
21AD
330
1F
100
AcDbEntity
  8
0
100
AcDbLine
 10
9.499999738878386
 20
80.99999967615044
 30
0.0
 11
7.99999973887736
 21
80.99999967615044
 31
0.0
  0
ARC
  5
21AE
330
1F
100
AcDbEntity
  8
0
100
AcDbCircle
 10
0.5999997388784096
 20
84.41966643535744
 30
0.0
 40
0.6
100
AcDbArc
 50
91.90915243299405
 51
180.0
  0
ARC
  5
21AF
330
1F
100
AcDbEntity
  8
0
100
AcDbCircle
 10
0.5999997388784096
 20
83.58033291694244
 30
0.0
 40
0.6
100
AcDbArc
 50
180.0
 51
268.0908475670059
  0
LINE
  5
21B0
330
1F
100
AcDbEntity
  8
0
100
AcDbLine
 10
-0.0000002611216132
 20
84.41966643535744
 30
0.0
 11
-0.0000002611216132
 21
83.58033291694244
 31
0.0
  0
LINE
  5
21B1
330
1F
100
AcDbEntity
  8
0
100
AcDbLine
 10
0.580010840738396
 20
82.98066597275441
 30
0.0
 11
2.419988637017354
 21
82.91933337954544
 31
0.0
  0
LINE
  5
21B2
330
1F
100
AcDbEntity
  8
0
100
AcDbLine
 10
2.419988637017354
 20
85.08066597275444
 30
0.0
 11
0.580010840738396
 21
85.0193333795454
 31
0.0
  0
LINE
  5
21B3
330
1F
100
AcDbEntity
  8
0
100
AcDbLine
 10
2.999999738878385
 20
89.31966643535741
 30
0.0
 11
2.999999738878385
 21
85.68033291694145
 31
0.0
  0
LINE
  5
21B4
330
1F
100
AcDbEntity
  8
0
100
AcDbLine
 10
9.699999738877409
 20
72.47381375458144
 30
0.0
 11
7.99999973887736
 21
72.47381375458144
 31
0.0
  0
POINT
  5
21B5
330
1F
100
AcDbEntity
  8
0
100
AcDbPoint
 10
-0.0000002611216132
 20
75.99999967615044
 30
0.0
  0
ARC
  5
21B6
330
1F
100
AcDbEntity
  8
0
100
AcDbCircle
 10
2.399999738878363
 20
75.31966643535742
 30
0.0
 40
0.6
100
AcDbArc
 50
0.0
 51
88.09084756699943
  0
ARC
  5
21B7
330
1F
100
AcDbEntity
  8
0
100
AcDbCircle
 10
2.399999738878363
 20
78.68033291694145
 30
0.0
 40
0.6
100
AcDbArc
 50
271.909152432994
 51
0.0
  0
LINE
  5
21B8
330
1F
100
AcDbEntity
  8
0
100
AcDbLine
 10
9.499999738878386
 20
72.99999967615043
 30
0.0
 11
7.99999973887736
 21
72.99999967615043
 31
0.0
  0
ARC
  5
21B9
330
1F
100
AcDbEntity
  8
0
100
AcDbCircle
 10
0.5999997388784096
 20
77.41966643535744
 30
0.0
 40
0.6
100
AcDbArc
 50
91.90915243299405
 51
180.0
  0
ARC
  5
21BA
330
1F
100
AcDbEntity
  8
0
100
AcDbCircle
 10
0.5999997388784096
 20
76.58033291694242
 30
0.0
 40
0.6
100
AcDbArc
 50
180.0
 51
268.0908475670059
  0
LINE
  5
21BB
330
1F
100
AcDbEntity
  8
0
100
AcDbLine
 10
-0.0000002611216132
 20
77.41966643535744
 30
0.0
 11
-0.0000002611216132
 21
76.58033291694242
 31
0.0
  0
LINE
  5
21BC
330
1F
100
AcDbEntity
  8
0
100
AcDbLine
 10
0.580010840738396
 20
75.98066597275442
 30
0.0
 11
2.419988637017354
 21
75.91933337954543
 31
0.0
  0
LINE
  5
21BD
330
1F
100
AcDbEntity
  8
0
100
AcDbLine
 10
2.419988637017354
 20
78.08066597275445
 30
0.0
 11
0.580010840738396
 21
78.0193333795454
 31
0.0
  0
LINE
  5
21BE
330
1F
100
AcDbEntity
  8
0
100
AcDbLine
 10
-0.0000002611216132
 20
64.61966643535845
 30
0.0
 11
-0.0000002611216132
 21
59.58033291694139
 31
0.0
  0
ARC
  5
21BF
330
1F
100
AcDbEntity
  8
0
100
AcDbCircle
 10
0.5999997388773865
 20
64.41966643535744
 30
0.0
 40
0.6
100
AcDbArc
 50
91.90915243299405
 51
180.0
  0
LINE
  5
21C0
330
1F
100
AcDbEntity
  8
0
100
AcDbLine
 10
0.580010840738396
 20
65.0193333795454
 30
0.0
 11
2.999999738877361
 21
65.09999967614942
 31
0.0
  0
ARC
  5
21C1
330
1F
100
AcDbEntity
  8
0
100
AcDbCircle
 10
0.5999997388773865
 20
64.61966643535845
 30
0.0
 40
0.6
100
AcDbArc
 50
91.90915243299405
 51
180.0
  0
LINE
  5
21C2
330
1F
100
AcDbEntity
  8
0
100
AcDbLine
 10
0.580010840738396
 20
65.21933337954546
 30
0.0
 11
2.999999738877361
 21
65.29999967615044
 31
0.0
  0
POINT
  5
21C3
330
1F
100
AcDbEntity
  8
0
100
AcDbPoint
 10
-0.0000002611216132
 20
68.99999967615042
 30
0.0
  0
ARC
  5
21C4
330
1F
100
AcDbEntity
  8
0
100
AcDbCircle
 10
2.399999738878363
 20
64.68033291694142
 30
0.0
 40
0.6
100
AcDbArc
 50
271.9091524329875
 51
0.0
  0
ARC
  5
21C5
330
1F
100
AcDbEntity
  8
0
100
AcDbCircle
 10
2.399999738878363
 20
68.31966643535742
 30
0.0
 40
0.6
100
AcDbArc
 50
0.0
 51
88.09084756699943
  0
ARC
  5
21C6
330
1F
100
AcDbEntity
  8
0
100
AcDbCircle
 10
0.5999997388784096
 20
69.58033291694244
 30
0.0
 40
0.6
100
AcDbArc
 50
180.0
 51
268.0908475670059
  0
ARC
  5
21C7
330
1F
100
AcDbEntity
  8
0
100
AcDbCircle
 10
0.5999997388784096
 20
63.41966643535744
 30
0.0
 40
0.6
100
AcDbArc
 50
91.90915243299405
 51
180.0
  0
LINE
  5
21C8
330
1F
100
AcDbEntity
  8
0
100
AcDbLine
 10
-0.0000002611216132
 20
70.41966643535744
 30
0.0
 11
-0.0000002611216132
 21
69.58033291694244
 31
0.0
  0
LINE
  5
21C9
330
1F
100
AcDbEntity
  8
0
100
AcDbLine
 10
2.419988637017354
 20
64.08066597275446
 30
0.0
 11
0.580010840738396
 21
64.01933337954542
 31
0.0
  0
LINE
  5
21CA
330
1F
100
AcDbEntity
  8
0
100
AcDbLine
 10
2.999999738878385
 20
68.31966643535742
 30
0.0
 11
2.999999738878385
 21
64.68033291694142
 31
0.0
  0
LINE
  5
21CB
330
1F
100
AcDbEntity
  8
0
100
AcDbLine
 10
0.580010840738396
 20
68.98066597275442
 30
0.0
 11
2.419988637017354
 21
68.91933337954544
 31
0.0
  0
LINE
  5
21CC
330
1F
100
AcDbEntity
  8
0
100
AcDbLine
 10
5.999999738878386
 20
70.97381375458144
 30
0.0
 11
4.999999738878385
 21
70.97381375458144
 31
0.0
  0
LINE
  5
21CD
330
1F
100
AcDbEntity
  8
0
100
AcDbLine
 10
4.999999738878385
 20
70.99999967615044
 30
0.0
 11
3.699999738878318
 21
70.99999967615044
 31
0.0
  0
ARC
  5
21CE
330
1F
100
AcDbEntity
  8
0
100
AcDbCircle
 10
2.399999738878363
 20
71.68033291694145
 30
0.0
 40
0.6
100
AcDbArc
 50
271.909152432994
 51
0.0
  0
LINE
  5
21CF
330
1F
100
AcDbEntity
  8
0
100
AcDbLine
 10
2.419988637017354
 20
71.08066597275445
 30
0.0
 11
0.580010840738396
 21
71.0193333795454
 31
0.0
  0
ARC
  5
21D0
330
1F
100
AcDbEntity
  8
0
100
AcDbCircle
 10
0.5999997388773865
 20
70.41966643535744
 30
0.0
 40
0.6
100
AcDbArc
 50
91.90915243299405
 51
180.0
  0
ARC
  5
21D1
330
1F
100
AcDbEntity
  8
0
100
AcDbCircle
 10
0.5999997388773865
 20
59.58033291694139
 30
0.0
 40
0.6
100
AcDbArc
 50
180.0
 51
268.0908475670059
  0
LINE
  5
21D2
330
1F
100
AcDbEntity
  8
0
100
AcDbLine
 10
0.580010840738396
 20
58.9806659727544
 30
0.0
 11
2.999999738877361
 21
58.89999967614944
 31
0.0
  0
POINT
  5
21D3
330
1F
100
AcDbEntity
  8
0
100
AcDbPoint
 10
-0.0000002611216132
 20
54.9999996761494
 30
0.0
  0
POINT
  5
21D4
330
1F
100
AcDbEntity
  8
0
100
AcDbPoint
 10
-0.0000002611216132
 20
61.9999996761494
 30
0.0
  0
ARC
  5
21D5
330
1F
100
AcDbEntity
  8
0
100
AcDbCircle
 10
2.399999738878363
 20
57.68033291694143
 30
0.0
 40
0.6
100
AcDbArc
 50
271.909152432994
 51
0.0
  0
ARC
  5
21D6
330
1F
100
AcDbEntity
  8
0
100
AcDbCircle
 10
2.399999738878363
 20
61.31966643535743
 30
0.0
 40
0.6
100
AcDbArc
 50
0.0
 51
88.09084756699943
  0
ARC
  5
21D7
330
1F
100
AcDbEntity
  8
0
100
AcDbCircle
 10
0.5999997388784096
 20
62.58033291694243
 30
0.0
 40
0.6
100
AcDbArc
 50
180.0
 51
268.0908475670059
  0
ARC
  5
21D8
330
1F
100
AcDbEntity
  8
0
100
AcDbCircle
 10
0.5999997388784096
 20
56.41966643535742
 30
0.0
 40
0.6
100
AcDbArc
 50
91.90915243299405
 51
180.0
  0
ARC
  5
21D9
330
1F
100
AcDbEntity
  8
0
100
AcDbCircle
 10
0.5999997388784096
 20
55.58033291694243
 30
0.0
 40
0.6
100
AcDbArc
 50
180.0
 51
268.0908475670059
  0
LINE
  5
21DA
330
1F
100
AcDbEntity
  8
0
100
AcDbLine
 10
-0.0000002611216132
 20
56.41966643535742
 30
0.0
 11
-0.0000002611216132
 21
55.58033291694243
 31
0.0
  0
LINE
  5
21DB
330
1F
100
AcDbEntity
  8
0
100
AcDbLine
 10
0.580010840738396
 20
54.98066597275443
 30
0.0
 11
2.419988637017354
 21
54.91933337954545
 31
0.0
  0
LINE
  5
21DC
330
1F
100
AcDbEntity
  8
0
100
AcDbLine
 10
2.419988637017354
 20
57.08066597275443
 30
0.0
 11
0.580010840738396
 21
57.0193333795454
 31
0.0
  0
LINE
  5
21DD
330
1F
100
AcDbEntity
  8
0
100
AcDbLine
 10
2.999999738878385
 20
61.31966643535743
 30
0.0
 11
2.999999738878385
 21
57.68033291694143
 31
0.0
  0
LINE
  5
21DE
330
1F
100
AcDbEntity
  8
0
100
AcDbLine
 10
0.580010840738396
 20
61.98066597275442
 30
0.0
 11
2.419988637017354
 21
61.91933337954543
 31
0.0
  0
ARC
  5
21DF
330
1F
100
AcDbEntity
  8
0
100
AcDbCircle
 10
2.399999738878363
 20
54.31966643535742
 30
0.0
 40
0.6
100
AcDbArc
 50
0.0
 51
88.09084756699943
  0
ARC
  5
21E0
330
1F
100
AcDbEntity
  8
0
100
AcDbCircle
 10
2.399999738878363
 20
36.68033291694143
 30
0.0
 40
0.6
100
AcDbArc
 50
271.909152432994
 51
0.0
  0
LINE
  5
21E1
330
1F
100
AcDbEntity
  8
0
100
AcDbLine
 10
2.999999738878385
 20
47.31966643535741
 30
0.0
 11
2.999999738878385
 21
43.68033291694143
 31
0.0
  0
POINT
  5
21E2
330
1F
100
AcDbEntity
  8
0
100
AcDbPoint
 10
-0.0000002611216132
 20
47.99999967615041
 30
0.0
  0
ARC
  5
21E3
330
1F
100
AcDbEntity
  8
0
100
AcDbCircle
 10
2.399999738878363
 20
47.31966643535741
 30
0.0
 40
0.6
100
AcDbArc
 50
0.0
 51
88.09084756699943
  0
ARC
  5
21E4
330
1F
100
AcDbEntity
  8
0
100
AcDbCircle
 10
2.399999738878363
 20
50.68033291694145
 30
0.0
 40
0.6
100
AcDbArc
 50
271.909152432994
 51
0.0
  0
ARC
  5
21E5
330
1F
100
AcDbEntity
  8
0
100
AcDbCircle
 10
0.5999997388773865
 20
49.41966643535742
 30
0.0
 40
0.6
100
AcDbArc
 50
91.90915243299405
 51
180.0
  0
ARC
  5
21E6
330
1F
100
AcDbEntity
  8
0
100
AcDbCircle
 10
0.5999997388784096
 20
48.58033291694243
 30
0.0
 40
0.6
100
AcDbArc
 50
180.0
 51
268.0908475670059
  0
LINE
  5
21E7
330
1F
100
AcDbEntity
  8
0
100
AcDbLine
 10
-0.0000002611216132
 20
49.41966643535742
 30
0.0
 11
-0.0000002611216132
 21
48.58033291694243
 31
0.0
  0
LINE
  5
21E8
330
1F
100
AcDbEntity
  8
0
100
AcDbLine
 10
0.580010840738396
 20
47.9806659727544
 30
0.0
 11
2.419988637017354
 21
47.9193333795454
 31
0.0
  0
LINE
  5
21E9
330
1F
100
AcDbEntity
  8
0
100
AcDbLine
 10
2.419988637017354
 20
50.08066597275444
 30
0.0
 11
0.580010840738396
 21
50.0193333795454
 31
0.0
  0
POINT
  5
21EA
330
1F
100
AcDbEntity
  8
0
100
AcDbPoint
 10
-0.0000002611216132
 20
40.99999967614938
 30
0.0
  0
ARC
  5
21EB
330
1F
100
AcDbEntity
  8
0
100
AcDbCircle
 10
2.399999738878363
 20
40.31966643535739
 30
0.0
 40
0.6
100
AcDbArc
 50
0.0
 51
88.09084756699943
  0
ARC
  5
21EC
330
1F
100
AcDbEntity
  8
0
100
AcDbCircle
 10
2.399999738878363
 20
43.68033291694143
 30
0.0
 40
0.6
100
AcDbArc
 50
271.909152432994
 51
0.0
  0
ARC
  5
21ED
330
1F
100
AcDbEntity
  8
0
100
AcDbCircle
 10
0.5999997388773865
 20
42.41966643535742
 30
0.0
 40
0.6
100
AcDbArc
 50
91.90915243299405
 51
180.0
  0
ARC
  5
21EE
330
1F
100
AcDbEntity
  8
0
100
AcDbCircle
 10
0.5999997388773865
 20
41.58033291694239
 30
0.0
 40
0.6
100
AcDbArc
 50
180.0
 51
268.0908475670059
  0
LINE
  5
21EF
330
1F
100
AcDbEntity
  8
0
100
AcDbLine
 10
-0.0000002611216132
 20
42.41966643535742
 30
0.0
 11
-0.0000002611216132
 21
41.58033291694239
 31
0.0
  0
LINE
  5
21F0
330
1F
100
AcDbEntity
  8
0
100
AcDbLine
 10
0.580010840738396
 20
40.98066597275439
 30
0.0
 11
2.419988637017354
 21
40.91933337954542
 31
0.0
  0
LINE
  5
21F1
330
1F
100
AcDbEntity
  8
0
100
AcDbLine
 10
2.419988637017354
 20
43.08066597275444
 30
0.0
 11
0.580010840738396
 21
43.01933337954539
 31
0.0
  0
LINE
  5
21F2
330
1F
100
AcDbEntity
  8
0
100
AcDbLine
 10
2.999999738878385
 20
40.31966643535739
 30
0.0
 11
2.999999738878385
 21
36.68033291694143
 31
0.0
  0
ARC
  5
21F3
330
1F
100
AcDbEntity
  8
0
100
AcDbCircle
 10
0.5999997388773865
 20
27.58033291694243
 30
0.0
 40
0.6
100
AcDbArc
 50
180.0
 51
268.0908475670059
  0
LINE
  5
21F4
330
1F
100
AcDbEntity
  8
0
100
AcDbLine
 10
9.699999738877409
 20
31.47381375458143
 30
0.0
 11
9.699999738877409
 21
22.47381375458143
 31
0.0
  0
LINE
  5
21F5
330
1F
100
AcDbEntity
  8
0
100
AcDbLine
 10
7.99999973887736
 20
31.47381375458143
 30
0.0
 11
7.99999973887736
 21
22.47381375458143
 31
0.0
  0
LINE
  5
21F6
330
1F
100
AcDbEntity
  8
0
100
AcDbLine
 10
4.999999738878385
 20
32.99999967615041
 30
0.0
 11
4.999999738878385
 21
20.99999967614939
 31
0.0
  0
LINE
  5
21F7
330
1F
100
AcDbEntity
  8
0
100
AcDbLine
 10
4.499999738878385
 20
32.99999967615041
 30
0.0
 11
4.499999738878385
 21
20.99999967615042
 31
0.0
  0
LINE
  5
21F8
330
1F
100
AcDbEntity
  8
0
100
AcDbLine
 10
3.699999738878318
 20
32.99999967615041
 30
0.0
 11
3.699999738878318
 21
21.09999967614942
 31
0.0
  0
LINE
  5
21F9
330
1F
100
AcDbEntity
  8
0
100
AcDbLine
 10
9.499999738878386
 20
30.99999967615042
 30
0.0
 11
9.499999738878386
 21
22.99999967615041
 31
0.0
  0
LINE
  5
21FA
330
1F
100
AcDbEntity
  8
0
100
AcDbLine
 10
8.699999738878316
 20
30.99999967615042
 30
0.0
 11
8.699999738878316
 21
22.99999967615041
 31
0.0
  0
LINE
  5
21FB
330
1F
100
AcDbEntity
  8
0
100
AcDbLine
 10
8.099999738878409
 20
30.99999967615042
 30
0.0
 11
8.099999738878409
 21
22.99999967615041
 31
0.0
  0
ARC
  5
21FC
330
1F
100
AcDbEntity
  8
0
100
AcDbCircle
 10
2.399999738878363
 20
29.68033291694142
 30
0.0
 40
0.6
100
AcDbArc
 50
271.909152432994
 51
0.0
  0
ARC
  5
21FD
330
1F
100
AcDbEntity
  8
0
100
AcDbCircle
 10
0.5999997388784096
 20
28.41966643535738
 30
0.0
 40
0.6
100
AcDbArc
 50
91.90915243299405
 51
180.0
  0
LINE
  5
21FE
330
1F
100
AcDbEntity
  8
0
100
AcDbLine
 10
-0.0000002611216132
 20
28.41966643535738
 30
0.0
 11
-0.0000002611216132
 21
27.58033291694243
 31
0.0
  0
LINE
  5
21FF
330
1F
100
AcDbEntity
  8
0
100
AcDbLine
 10
2.419988637017354
 20
29.08066597275444
 30
0.0
 11
0.580010840738396
 21
29.0193333795454
 31
0.0
  0
LINE
  5
2200
330
1F
100
AcDbEntity
  8
0
100
AcDbLine
 10
5.999999738878386
 20
32.9738137545824
 30
0.0
 11
4.999999738878385
 21
32.9738137545824
 31
0.0
  0
LINE
  5
2201
330
1F
100
AcDbEntity
  8
0
100
AcDbLine
 10
9.699999738877409
 20
31.47381375458143
 30
0.0
 11
7.99999973887736
 21
31.47381375458143
 31
0.0
  0
LINE
  5
2202
330
1F
100
AcDbEntity
  8
0
100
AcDbLine
 10
4.999999738878385
 20
32.99999967615041
 30
0.0
 11
3.699999738878318
 21
32.99999967615041
 31
0.0
  0
POINT
  5
2203
330
1F
100
AcDbEntity
  8
0
100
AcDbPoint
 10
-0.0000002611216132
 20
33.99999967615041
 30
0.0
  0
ARC
  5
2204
330
1F
100
AcDbEntity
  8
0
100
AcDbCircle
 10
2.399999738878363
 20
33.31966643535739
 30
0.0
 40
0.6
100
AcDbArc
 50
0.0
 51
88.09084756699943
  0
LINE
  5
2205
330
1F
100
AcDbEntity
  8
0
100
AcDbLine
 10
9.499999738878386
 20
30.99999967615042
 30
0.0
 11
7.99999973887736
 21
30.99999967615042
 31
0.0
  0
ARC
  5
2206
330
1F
100
AcDbEntity
  8
0
100
AcDbCircle
 10
0.5999997388773865
 20
35.41966643535742
 30
0.0
 40
0.6
100
AcDbArc
 50
91.90915243299405
 51
180.0
  0
ARC
  5
2207
330
1F
100
AcDbEntity
  8
0
100
AcDbCircle
 10
0.5999997388784096
 20
34.58033291694243
 30
0.0
 40
0.6
100
AcDbArc
 50
180.0
 51
268.0908475670059
  0
LINE
  5
2208
330
1F
100
AcDbEntity
  8
0
100
AcDbLine
 10
-0.0000002611216132
 20
35.41966643535742
 30
0.0
 11
-0.0000002611216132
 21
34.58033291694243
 31
0.0
  0
LINE
  5
2209
330
1F
100
AcDbEntity
  8
0
100
AcDbLine
 10
0.580010840738396
 20
33.98066597275442
 30
0.0
 11
2.419988637017354
 21
33.91933337954542
 31
0.0
  0
LINE
  5
220A
330
1F
100
AcDbEntity
  8
0
100
AcDbLine
 10
2.419988637017354
 20
36.08066597275444
 30
0.0
 11
0.580010840738396
 21
36.01933337954538
 31
0.0
  0
LINE
  5
220B
330
1F
100
AcDbEntity
  8
0
100
AcDbLine
 10
2.999999738878385
 20
33.31966643535739
 30
0.0
 11
2.999999738878385
 21
29.68033291694142
 31
0.0
  0
LINE
  5
220C
330
1F
100
AcDbEntity
  8
0
100
AcDbLine
 10
5.999999738878386
 20
20.97381375458144
 30
0.0
 11
4.999999738878385
 21
20.97381375458144
 31
0.0
  0
LINE
  5
220D
330
1F
100
AcDbEntity
  8
0
100
AcDbLine
 10
4.999999738878385
 20
20.99999967615042
 30
0.0
 11
3.699999738878318
 21
20.99999967615042
 31
0.0
  0
LINE
  5
220E
330
1F
100
AcDbEntity
  8
0
100
AcDbLine
 10
9.699999738877409
 20
22.47381375458143
 30
0.0
 11
7.99999973887736
 21
22.47381375458143
 31
0.0
  0
POINT
  5
220F
330
1F
100
AcDbEntity
  8
0
100
AcDbPoint
 10
-0.0000002611216132
 20
21.99999967614939
 30
0.0
  0
POINT
  5
2210
330
1F
100
AcDbEntity
  8
0
100
AcDbPoint
 10
-0.0000002611216132
 20
26.99999967614939
 30
0.0
  0
ARC
  5
2211
330
1F
100
AcDbEntity
  8
0
100
AcDbCircle
 10
2.499999738878385
 20
22.58361071014343
 30
0.0
 40
0.5
100
AcDbArc
 50
271.909152432994
 51
0.0
  0
ARC
  5
2212
330
1F
100
AcDbEntity
  8
0
100
AcDbCircle
 10
2.399999738878363
 20
26.31966643535742
 30
0.0
 40
0.6
100
AcDbArc
 50
0.0
 51
88.09084756699943
  0
LINE
  5
2213
330
1F
100
AcDbEntity
  8
0
100
AcDbLine
 10
9.499999738878386
 20
22.99999967615041
 30
0.0
 11
7.99999973887736
 21
22.99999967615041
 31
0.0
  0
LINE
  5
2214
330
1F
100
AcDbEntity
  8
0
100
AcDbLine
 10
2.516657153994398
 20
22.08388825665343
 30
0.0
 11
0.580010840738396
 21
22.01933337954539
 31
0.0
  0
LINE
  5
2215
330
1F
100
AcDbEntity
  8
0
100
AcDbLine
 10
2.999999738878385
 20
26.31966643535742
 30
0.0
 11
2.999999738878385
 21
22.58361071014343
 31
0.0
  0
LINE
  5
2216
330
1F
100
AcDbEntity
  8
0
100
AcDbLine
 10
0.580010840738396
 20
26.98066597275442
 30
0.0
 11
2.419988637017354
 21
26.91933337954543
 31
0.0
  0
ARC
  5
2217
330
1F
100
AcDbEntity
  8
0
100
AcDbCircle
 10
0.5999997388784096
 20
21.41966643535738
 30
0.0
 40
0.6
100
AcDbArc
 50
91.90915243299405
 51
180.0
  0
LINE
  5
223D
330
1F
100
AcDbEntity
  8
0
100
AcDbLine
 10
57.99999973887839
 20
3.585959911413397
 30
0.0
 11
4.999999738878385
 21
4.97381375458144
 31
0.0
  0
LINE
  5
223E
330
1F
100
AcDbEntity
  8
0
100
AcDbLine
 10
3.999999738878385
 20
4.999999676150419
 30
0.0
 11
57.99999973887839
 21
3.585959911413397
 31
0.0
  0
LINE
  5
223F
330
1F
100
AcDbEntity
  8
0
100
AcDbLine
 10
-0.0000002611216132
 20
-0.0000003238495764
 30
0.0
 11
57.99999973887839
 21
-0.0000003238495764
 31
0.0
  0
LINE
  5
2240
330
1F
100
AcDbEntity
  8
0
100
AcDbLine
 10
3.999999738878385
 20
4.999999676150419
 30
0.0
 11
-0.0000002611216132
 21
4.895255989873418
 31
0.0
  0
LINE
  5
2241
330
1F
100
AcDbEntity
  8
0
100
AcDbLine
 10
31.09999973887835
 20
3.799999676149409
 30
0.0
 11
31.09999973887835
 21
-0.0000003238495764
 31
0.0
  0
LINE
  5
2242
330
1F
100
AcDbEntity
  8
0
100
AcDbLine
 10
26.8999997388774
 20
3.799999676149409
 30
0.0
 11
26.8999997388774
 21
-0.0000003238495764
 31
0.0
  0
LINE
  5
2243
330
1F
100
AcDbEntity
  8
0
100
AcDbLine
 10
23.49999973887836
 20
3.799999676149409
 30
0.0
 11
34.49999973887837
 21
3.799999676149409
 31
0.0
  0
LINE
  5
2244
330
1F
100
AcDbEntity
  8
0
100
AcDbLine
 10
23.49999973887836
 20
4.489374205550459
 30
0.0
 11
23.49999973887836
 21
3.799999676149409
 31
0.0
  0
LINE
  5
2245
330
1F
100
AcDbEntity
  8
0
100
AcDbLine
 10
34.49999973887837
 20
4.201329068290418
 30
0.0
 11
34.49999973887837
 21
3.799999676149409
 31
0.0
  0
LINE
  5
2246
330
1F
100
AcDbEntity
  8
0
100
AcDbLine
 10
57.99999973887839
 20
-0.0000003238495764
 30
0.0
 11
57.99999973887839
 21
3.585959911413397
 31
0.0
  0
LINE
  5
2247
330
1F
100
AcDbEntity
  8
0
100
AcDbLine
 10
41.14999973887838
 20
120.9738137545812
 30
0.0
 11
41.14999973887838
 21
124.3738137545812
 31
0.0
  0
LINE
  5
2248
330
1F
100
AcDbEntity
  8
0
100
AcDbLine
 10
41.14999973887838
 20
124.3738137545812
 30
0.0
 11
47.44999973887842
 21
124.3738137545812
 31
0.0
  0
LINE
  5
2249
330
1F
100
AcDbEntity
  8
0
100
AcDbLine
 10
47.44999973887842
 20
124.3738137545812
 30
0.0
 11
47.44999973887842
 21
120.9738137545812
 31
0.0
  0
LINE
  5
224A
330
1F
100
AcDbEntity
  8
0
100
AcDbLine
 10
15.59999973887737
 20
126.2738137545813
 30
0.0
 11
15.59999973887737
 21
127.5738137545813
 31
0.0
  0
LINE
  5
224B
330
1F
100
AcDbEntity
  8
0
100
AcDbLine
 10
15.59999973887737
 20
127.5738137545813
 30
0.0
 11
24.94499973887746
 21
127.5738137545813
 31
0.0
  0
LINE
  5
224C
330
1F
100
AcDbEntity
  8
0
100
AcDbLine
 10
24.94499973887746
 20
127.5738137545813
 30
0.0
 11
24.94499973887746
 21
120.9738137545812
 31
0.0
  0
LINE
  5
224D
330
1F
100
AcDbEntity
  8
0
100
AcDbLine
 10
15.1999997388774
 20
121.9738137545812
 30
0.0
 11
15.1999997388774
 21
126.2738137545813
 31
0.0
  0
LINE
  5
224E
330
1F
100
AcDbEntity
  8
0
100
AcDbLine
 10
15.1999997388774
 20
126.2738137545813
 30
0.0
 11
21.09999973887743
 21
126.2738137545813
 31
0.0
  0
LINE
  5
224F
330
1F
100
AcDbEntity
  8
0
100
AcDbLine
 10
21.09999973887743
 20
126.2738137545813
 30
0.0
 11
21.09999973887743
 21
121.9738137545812
 31
0.0
  0
LINE
  5
2250
330
1F
100
AcDbEntity
  8
0
100
AcDbLine
 10
14.09999973887841
 20
120.9738137545812
 30
0.0
 11
14.09999973887841
 21
121.9738137545812
 31
0.0
  0
LINE
  5
2251
330
1F
100
AcDbEntity
  8
0
100
AcDbLine
 10
14.09999973887841
 20
121.9738137545812
 30
0.0
 11
22.69999973887744
 21
121.9738137545812
 31
0.0
  0
LINE
  5
2252
330
1F
100
AcDbEntity
  8
0
100
AcDbLine
 10
22.69999973887744
 20
121.9738137545812
 30
0.0
 11
22.69999973887744
 21
120.9738137545812
 31
0.0
  0
LINE
  5
22CC
330
1F
100
AcDbEntity
  8
2_カバ_
  6
Continuous
100
AcDbLine
 10
33.49999973887836
 20
70.97381375458161
 30
0.0
 11
33.49999973887836
 21
96.97381375458164
 31
0.0
  0
LINE
  5
22CD
330
1F
100
AcDbEntity
  8
2_カバ_
  6
Continuous
100
AcDbLine
 10
54.49999973887838
 20
96.97381375458164
 30
0.0
 11
54.49999973887838
 21
70.97381375458259
 31
0.0
  0
LINE
  5
22CE
330
1F
100
AcDbEntity
  8
0
100
AcDbLine
 10
15.99999973887836
 20
103.9738137545809
 30
0.0
 11
15.99999973887836
 21
21.97381375458155
 31
0.0
  0
LINE
  5
22CF
330
1F
100
AcDbEntity
  8
0
100
AcDbLine
 10
56.99999973887838
 20
21.97381375458155
 30
0.0
 11
56.99999973887838
 21
103.9738137545809
 31
0.0
  0
LINE
  5
22D0
330
1F
100
AcDbEntity
  8
2_カバ_
  6
Continuous
100
AcDbLine
 10
56.99999973887838
 20
63.97381375458161
 30
0.0
 11
15.99999973887838
 21
63.97381375458256
 31
0.0
  0
LINE
  5
22D1
330
1F
100
AcDbEntity
  8
2_カバ_
  6
Continuous
100
AcDbLine
 10
56.99999973887838
 20
61.97381375458161
 30
0.0
 11
15.99999973887838
 21
61.97381375458161
 31
0.0
  0
LINE
  5
22D2
330
1F
100
AcDbEntity
  8
2_カバ_
  6
Continuous
100
AcDbLine
 10
56.99999973887838
 20
56.97381375458161
 30
0.0
 11
15.99999973887838
 21
56.97381375458161
 31
0.0
  0
LINE
  5
22D3
330
1F
100
AcDbEntity
  8
2_カバ_
  6
Continuous
100
AcDbLine
 10
56.99999973887838
 20
54.97381375458161
 30
0.0
 11
15.99999973887838
 21
54.97381375458161
 31
0.0
  0
LINE
  5
22D4
330
1F
100
AcDbEntity
  8
2_カバ_
  6
Continuous
100
AcDbLine
 10
54.49999973887838
 20
48.97381375458161
 30
0.0
 11
33.49999973887836
 21
48.97381375458161
 31
0.0
  0
LINE
  5
22D5
330
1F
100
AcDbEntity
  8
2_カバ_
  6
Continuous
100
AcDbLine
 10
48.99999973887839
 20
53.47381375458161
 30
0.0
 11
38.99999973887839
 21
53.47381375458161
 31
0.0
  0
LINE
  5
22D6
330
1F
100
AcDbEntity
  8
2_カバ_
  6
Continuous
100
AcDbLine
 10
38.99999973887839
 20
49.97381375458161
 30
0.0
 11
48.99999973887839
 21
49.97381375458161
 31
0.0
  0
LINE
  5
22D7
330
1F
100
AcDbEntity
  8
2_カバ_
  6
Continuous
100
AcDbLine
 10
56.99999973887838
 20
70.97381375458161
 30
0.0
 11
15.99999973887838
 21
70.97381375458161
 31
0.0
  0
LINE
  5
22D8
330
1F
100
AcDbEntity
  8
2_カバ_
  6
Continuous
100
AcDbLine
 10
56.99999973887838
 20
68.97381375458161
 30
0.0
 11
15.99999973887838
 21
68.97381375458161
 31
0.0
  0
LINE
  5
22D9
330
1F
100
AcDbEntity
  8
0
100
AcDbLine
 10
15.99999973887836
 20
21.97381375458155
 30
0.0
 11
57.99999973887839
 21
21.97381375458155
 31
0.0
  0
LINE
  5
22DA
330
1F
100
AcDbEntity
  8
0
100
AcDbLine
 10
56.99999973887838
 20
42.97381375458156
 30
0.0
 11
15.99999973887836
 21
42.97381375458156
 31
0.0
  0
LINE
  5
22DB
330
1F
100
AcDbEntity
  8
0
100
AcDbLine
 10
56.99999973887838
 20
40.97381375458157
 30
0.0
 11
15.99999973887836
 21
40.97381375458157
 31
0.0
  0
LINE
  5
22DC
330
1F
100
AcDbEntity
  8
0
100
AcDbLine
 10
56.99999973887838
 20
35.97381375458157
 30
0.0
 11
15.99999973887836
 21
35.97381375458157
 31
0.0
  0
LINE
  5
22DD
330
1F
100
AcDbEntity
  8
0
100
AcDbLine
 10
56.99999973887838
 20
33.97381375458153
 30
0.0
 11
15.99999973887836
 21
33.97381375458153
 31
0.0
  0
LINE
  5
22DE
330
1F
100
AcDbEntity
  8
0
100
AcDbLine
 10
56.99999973887838
 20
28.97381375458155
 30
0.0
 11
15.99999973887836
 21
28.97381375458155
 31
0.0
  0
LINE
  5
22DF
330
1F
100
AcDbEntity
  8
0
100
AcDbLine
 10
56.99999973887838
 20
26.97381375458155
 30
0.0
 11
15.99999973887836
 21
26.97381375458155
 31
0.0
  0
LINE
  5
22E0
330
1F
100
AcDbEntity
  8
2_カバ_
  6
Continuous
100
AcDbLine
 10
32.99999973887835
 20
49.97381375458161
 30
0.0
 11
15.99999973887838
 21
49.97381375458161
 31
0.0
  0
LINE
  5
22E1
330
1F
100
AcDbEntity
  8
2_カバ_
  6
Continuous
100
AcDbLine
 10
32.99999973887835
 20
47.97381375458161
 30
0.0
 11
15.99999973887838
 21
47.97381375458161
 31
0.0
  0
LINE
  5
22E2
330
1F
100
AcDbEntity
  8
2_カバ_
  6
Continuous
100
AcDbLine
 10
33.49999973887836
 20
56.97381375458161
 30
0.0
 11
33.49999973887836
 21
61.97381375458161
 31
0.0
  0
LINE
  5
22E3
330
1F
100
AcDbEntity
  8
2_カバ_
  6
Continuous
100
AcDbLine
 10
33.49999973887836
 20
48.97381375458161
 30
0.0
 11
33.49999973887836
 21
54.97381375458161
 31
0.0
  0
LINE
  5
22E4
330
1F
100
AcDbEntity
  8
2_カバ_
  6
Continuous
100
AcDbLine
 10
32.99999973887835
 20
47.97381375458161
 30
0.0
 11
32.99999973887835
 21
49.97381375458161
 31
0.0
  0
LINE
  5
22E5
330
1F
100
AcDbEntity
  8
2_カバ_
  6
Continuous
100
AcDbLine
 10
38.49999973887836
 20
52.97381375458257
 30
0.0
 11
38.49999973887836
 21
50.47381375458162
 31
0.0
  0
ARC
  5
22E6
330
1F
100
AcDbEntity
  8
2_カバ_
  6
Continuous
100
AcDbCircle
 10
38.99999973887839
 20
50.47381375458162
 30
0.0
 40
0.5
100
AcDbArc
 50
180.0
 51
270.0
  0
ARC
  5
22E7
330
1F
100
AcDbEntity
  8
2_カバ_
  6
Continuous
100
AcDbCircle
 10
38.99999973887839
 20
52.97381375458257
 30
0.0
 40
0.5
100
AcDbArc
 50
90.0
 51
180.0
  0
LINE
  5
22E8
330
1F
100
AcDbEntity
  8
2_カバ_
  6
Continuous
100
AcDbLine
 10
33.49999973887836
 20
63.97381375458161
 30
0.0
 11
33.49999973887836
 21
68.97381375458161
 31
0.0
  0
LINE
  5
22E9
330
1F
100
AcDbEntity
  8
0
100
AcDbLine
 10
54.99999973887836
 20
26.97381375458155
 30
0.0
 11
54.99999973887836
 21
28.97381375458155
 31
0.0
  0
LINE
  5
22EA
330
1F
100
AcDbEntity
  8
0
100
AcDbLine
 10
55.9999997388784
 20
26.97381375458155
 30
0.0
 11
55.9999997388784
 21
28.97381375458155
 31
0.0
  0
LINE
  5
22EB
330
1F
100
AcDbEntity
  8
0
100
AcDbLine
 10
54.99999973887836
 20
33.97381375458153
 30
0.0
 11
54.99999973887836
 21
35.97381375458157
 31
0.0
  0
LINE
  5
22EC
330
1F
100
AcDbEntity
  8
0
100
AcDbLine
 10
55.9999997388784
 20
33.97381375458153
 30
0.0
 11
55.9999997388784
 21
35.97381375458157
 31
0.0
  0
LINE
  5
22ED
330
1F
100
AcDbEntity
  8
0
100
AcDbLine
 10
54.99999973887836
 20
40.97381375458157
 30
0.0
 11
54.99999973887836
 21
42.97381375458156
 31
0.0
  0
LINE
  5
22EE
330
1F
100
AcDbEntity
  8
0
100
AcDbLine
 10
55.9999997388784
 20
40.97381375458157
 30
0.0
 11
55.9999997388784
 21
42.97381375458156
 31
0.0
  0
LINE
  5
22EF
330
1F
100
AcDbEntity
  8
2_カバ_
  6
Continuous
100
AcDbLine
 10
54.49999973887838
 20
61.97381375458161
 30
0.0
 11
54.49999973887838
 21
56.9738137545826
 31
0.0
  0
LINE
  5
22F0
330
1F
100
AcDbEntity
  8
2_カバ_
  6
Continuous
100
AcDbLine
 10
49.49999973887838
 20
50.47381375458162
 30
0.0
 11
49.49999973887838
 21
52.97381375458162
 31
0.0
  0
ARC
  5
22F1
330
1F
100
AcDbEntity
  8
2_カバ_
  6
Continuous
100
AcDbCircle
 10
48.99999973887839
 20
50.47381375458162
 30
0.0
 40
0.5
100
AcDbArc
 50
270.0
 51
0.0
  0
ARC
  5
22F2
330
1F
100
AcDbEntity
  8
2_カバ_
  6
Continuous
100
AcDbCircle
 10
48.99999973887839
 20
52.97381375458162
 30
0.0
 40
0.5
100
AcDbArc
 50
0.0
 51
90.0
  0
LINE
  5
22F3
330
1F
100
AcDbEntity
  8
2_カバ_
  6
Continuous
100
AcDbLine
 10
54.49999973887838
 20
54.97381375458161
 30
0.0
 11
54.49999973887838
 21
48.97381375458161
 31
0.0
  0
LINE
  5
22F4
330
1F
100
AcDbEntity
  8
2_カバ_
  6
Continuous
100
AcDbLine
 10
56.99999973887838
 20
49.97381375458161
 30
0.0
 11
54.99999973887838
 21
49.97381375458161
 31
0.0
  0
LINE
  5
22F5
330
1F
100
AcDbEntity
  8
2_カバ_
  6
Continuous
100
AcDbLine
 10
56.99999973887838
 20
47.97381375458161
 30
0.0
 11
54.99999973887838
 21
47.97381375458161
 31
0.0
  0
LINE
  5
22F6
330
1F
100
AcDbEntity
  8
2_カバ_
  6
Continuous
100
AcDbLine
 10
54.99999973887838
 20
47.97381375458161
 30
0.0
 11
54.99999973887838
 21
49.97381375458161
 31
0.0
  0
LINE
  5
22F7
330
1F
100
AcDbEntity
  8
2_カバ_
  6
Continuous
100
AcDbLine
 10
55.9999997388784
 20
47.97381375458161
 30
0.0
 11
55.9999997388784
 21
49.97381375458161
 31
0.0
  0
LINE
  5
22F8
330
1F
100
AcDbEntity
  8
2_カバ_
  6
Continuous
100
AcDbLine
 10
54.99999973887838
 20
54.97381375458161
 30
0.0
 11
54.99999973887838
 21
56.97381375458161
 31
0.0
  0
LINE
  5
22F9
330
1F
100
AcDbEntity
  8
2_カバ_
  6
Continuous
100
AcDbLine
 10
55.9999997388784
 20
54.97381375458161
 30
0.0
 11
55.9999997388784
 21
56.97381375458161
 31
0.0
  0
LINE
  5
22FA
330
1F
100
AcDbEntity
  8
2_カバ_
  6
Continuous
100
AcDbLine
 10
54.49999973887838
 20
68.97381375458161
 30
0.0
 11
54.49999973887838
 21
63.97381375458161
 31
0.0
  0
LINE
  5
22FB
330
1F
100
AcDbEntity
  8
2_カバ_
  6
Continuous
100
AcDbLine
 10
54.99999973887838
 20
61.97381375458161
 30
0.0
 11
54.99999973887838
 21
63.97381375458161
 31
0.0
  0
LINE
  5
22FC
330
1F
100
AcDbEntity
  8
2_カバ_
  6
Continuous
100
AcDbLine
 10
55.9999997388784
 20
61.97381375458161
 30
0.0
 11
55.9999997388784
 21
63.97381375458161
 31
0.0
  0
LINE
  5
22FD
330
1F
100
AcDbEntity
  8
2_カバ_
  6
Continuous
100
AcDbLine
 10
54.99999973887838
 20
68.97381375458161
 30
0.0
 11
54.99999973887838
 21
70.97381375458161
 31
0.0
  0
LINE
  5
22FE
330
1F
100
AcDbEntity
  8
2_カバ_
  6
Continuous
100
AcDbLine
 10
55.9999997388784
 20
68.97381375458161
 30
0.0
 11
55.9999997388784
 21
70.97381375458161
 31
0.0
  0
LINE
  5
22FF
330
1F
100
AcDbEntity
  8
2_カバ_
  6
Continuous
100
AcDbLine
 10
15.99999973887838
 20
103.9738137545814
 30
0.0
 11
57.99999973887839
 21
103.9738137545814
 31
0.0
  0
LINE
  5
2300
330
1F
100
AcDbEntity
  8
2_カバ_
  6
Continuous
100
AcDbLine
 10
56.99999973887838
 20
98.97381375458159
 30
0.0
 11
15.99999973887838
 21
98.97381375458159
 31
0.0
  0
LINE
  5
2301
330
1F
100
AcDbEntity
  8
2_カバ_
  6
Continuous
100
AcDbLine
 10
56.99999973887838
 20
96.97381375458164
 30
0.0
 11
15.99999973887838
 21
96.97381375458164
 31
0.0
  0
LINE
  5
2302
330
1F
100
AcDbEntity
  8
2_カバ_
  6
Continuous
100
AcDbLine
 10
32.99999973887835
 20
91.97381375458158
 30
0.0
 11
15.99999973887838
 21
91.97381375458158
 31
0.0
  0
LINE
  5
2303
330
1F
100
AcDbEntity
  8
2_カバ_
  6
Continuous
100
AcDbLine
 10
32.99999973887835
 20
89.97381375458164
 30
0.0
 11
15.99999973887838
 21
89.97381375458164
 31
0.0
  0
LINE
  5
2304
330
1F
100
AcDbEntity
  8
2_カバ_
  6
Continuous
100
AcDbLine
 10
32.99999973887835
 20
84.97381375458164
 30
0.0
 11
15.99999973887838
 21
84.97381375458164
 31
0.0
  0
LINE
  5
2305
330
1F
100
AcDbEntity
  8
2_カバ_
  6
Continuous
100
AcDbLine
 10
32.99999973887835
 20
82.97381375458163
 30
0.0
 11
15.99999973887838
 21
82.97381375458163
 31
0.0
  0
LINE
  5
2306
330
1F
100
AcDbEntity
  8
2_カバ_
  6
Continuous
100
AcDbLine
 10
32.99999973887835
 20
77.97381375458164
 30
0.0
 11
15.99999973887838
 21
77.97381375458164
 31
0.0
  0
LINE
  5
2307
330
1F
100
AcDbEntity
  8
2_カバ_
  6
Continuous
100
AcDbLine
 10
32.99999973887835
 20
75.97381375458161
 30
0.0
 11
15.99999973887838
 21
75.97381375458161
 31
0.0
  0
LINE
  5
2308
330
1F
100
AcDbEntity
  8
2_カバ_
  6
Continuous
100
AcDbLine
 10
32.99999973887835
 20
89.97381375458164
 30
0.0
 11
32.99999973887835
 21
91.97381375458158
 31
0.0
  0
LINE
  5
2309
330
1F
100
AcDbEntity
  8
2_カバ_
  6
DASHDOT
100
AcDbLine
 10
38.16147273082439
 20
81.9738137545826
 30
0.0
 11
27.60032675779338
 21
81.9738137545826
 31
0.0
  0
CIRCLE
  5
230A
330
1F
100
AcDbEntity
  8
2_カバ_
  6
Continuous
100
AcDbCircle
 10
35.49999973887835
 20
81.9738137545826
 30
0.0
 40
1.25
  0
LINE
  5
230B
330
1F
100
AcDbEntity
  8
2_カバ_
  6
Continuous
100
AcDbLine
 10
32.99999973887835
 20
75.97381375458161
 30
0.0
 11
32.99999973887835
 21
77.97381375458164
 31
0.0
  0
LINE
  5
230C
330
1F
100
AcDbEntity
  8
2_カバ_
  6
Continuous
100
AcDbLine
 10
32.99999973887835
 20
82.97381375458163
 30
0.0
 11
32.99999973887835
 21
84.97381375458164
 31
0.0
  0
LINE
  5
230D
330
1F
100
AcDbEntity
  8
2_カバ_
  6
DASHDOT
100
AcDbLine
 10
35.49999973887835
 20
85.10321433097061
 30
0.0
 11
35.49999973887835
 21
79.01837299725056
 31
0.0
  0
LINE
  5
230E
330
1F
100
AcDbEntity
  8
2_カバ_
  6
Continuous
100
AcDbLine
 10
33.49999973887836
 20
98.97381375458159
 30
0.0
 11
33.49999973887836
 21
103.9738137545814
 31
0.0
  0
LINE
  5
230F
330
1F
100
AcDbEntity
  8
2_カバ_
  6
Continuous
100
AcDbLine
 10
55.9999997388784
 20
89.97381375458164
 30
0.0
 11
55.9999997388784
 21
91.97381375458158
 31
0.0
  0
LINE
  5
2310
330
1F
100
AcDbEntity
  8
2_カバ_
  6
Continuous
100
AcDbLine
 10
53.4999997388784
 20
86.97381375458162
 30
0.0
 11
53.4999997388784
 21
91.97381375458158
 31
0.0
  0
LINE
  5
2311
330
1F
100
AcDbEntity
  8
2_カバ_
  6
Continuous
100
AcDbLine
 10
54.99999973887838
 20
89.97381375458164
 30
0.0
 11
54.99999973887838
 21
91.97381375458158
 31
0.0
  0
LINE
  5
2312
330
1F
100
AcDbEntity
  8
2_カバ_
  6
Continuous
100
AcDbLine
 10
49.99999973887838
 20
91.9738137545826
 30
0.0
 11
49.99999973887838
 21
86.97381375458162
 31
0.0
  0
LINE
  5
2313
330
1F
100
AcDbEntity
  8
2_カバ_
  6
DASHDOT
100
AcDbLine
 10
48.92110985682736
 20
89.47381375458162
 30
0.0
 11
55.66961786288242
 21
89.47381375458162
 31
0.0
  0
LINE
  5
2314
330
1F
100
AcDbEntity
  8
2_カバ_
  6
Continuous
100
AcDbLine
 10
52.99999973887839
 20
86.47381375458165
 30
0.0
 11
50.49999973887839
 21
86.47381375458165
 31
0.0
  0
ARC
  5
2315
330
1F
100
AcDbEntity
  8
2_カバ_
  6
Continuous
100
AcDbCircle
 10
50.49999973887839
 20
86.97381375458162
 30
0.0
 40
0.5
100
AcDbArc
 50
180.0
 51
270.0
  0
LINE
  5
2316
330
1F
100
AcDbEntity
  8
2_カバ_
  6
Continuous
100
AcDbLine
 10
56.99999973887838
 20
77.97381375458164
 30
0.0
 11
54.99999973887838
 21
77.97381375458164
 31
0.0
  0
LINE
  5
2317
330
1F
100
AcDbEntity
  8
2_カバ_
  6
Continuous
100
AcDbLine
 10
56.99999973887838
 20
75.97381375458161
 30
0.0
 11
54.99999973887838
 21
75.97381375458161
 31
0.0
  0
LINE
  5
2318
330
1F
100
AcDbEntity
  8
2_カバ_
  6
Continuous
100
AcDbLine
 10
54.99999973887838
 20
75.97381375458161
 30
0.0
 11
54.99999973887838
 21
77.97381375458259
 31
0.0
  0
LINE
  5
2319
330
1F
100
AcDbEntity
  8
2_カバ_
  6
Continuous
100
AcDbLine
 10
55.9999997388784
 20
75.97381375458161
 30
0.0
 11
55.9999997388784
 21
77.97381375458259
 31
0.0
  0
LINE
  5
231A
330
1F
100
AcDbEntity
  8
2_カバ_
  6
Continuous
100
AcDbLine
 10
56.99999973887838
 20
89.97381375458164
 30
0.0
 11
54.99999973887838
 21
89.97381375458164
 31
0.0
  0
LINE
  5
231B
330
1F
100
AcDbEntity
  8
2_カバ_
  6
Continuous
100
AcDbLine
 10
56.99999973887838
 20
82.97381375458163
 30
0.0
 11
54.99999973887838
 21
82.97381375458163
 31
0.0
  0
LINE
  5
231C
330
1F
100
AcDbEntity
  8
2_カバ_
  6
Continuous
100
AcDbLine
 10
56.99999973887838
 20
84.97381375458164
 30
0.0
 11
54.99999973887838
 21
84.97381375458164
 31
0.0
  0
ARC
  5
231D
330
1F
100
AcDbEntity
  8
2_カバ_
  6
Continuous
100
AcDbCircle
 10
52.99999973887839
 20
86.97381375458162
 30
0.0
 40
0.5
100
AcDbArc
 50
270.0
 51
0.0
  0
LINE
  5
231E
330
1F
100
AcDbEntity
  8
2_カバ_
  6
Continuous
100
AcDbLine
 10
54.99999973887838
 20
82.97381375458163
 30
0.0
 11
54.99999973887838
 21
84.97381375458164
 31
0.0
  0
LINE
  5
231F
330
1F
100
AcDbEntity
  8
2_カバ_
  6
Continuous
100
AcDbLine
 10
55.9999997388784
 20
82.97381375458163
 30
0.0
 11
55.9999997388784
 21
84.97381375458164
 31
0.0
  0
LINE
  5
2320
330
1F
100
AcDbEntity
  8
2_カバ_
  6
Continuous
100
AcDbLine
 10
52.99999973887839
 20
92.47381375458159
 30
0.0
 11
50.49999973887839
 21
92.47381375458259
 31
0.0
  0
ARC
  5
2321
330
1F
100
AcDbEntity
  8
2_カバ_
  6
Continuous
100
AcDbCircle
 10
50.49999973887839
 20
91.9738137545826
 30
0.0
 40
0.5
100
AcDbArc
 50
89.99999999999673
 51
180.0
  0
LINE
  5
2322
330
1F
100
AcDbEntity
  8
2_カバ_
  6
Continuous
100
AcDbLine
 10
55.9999997388784
 20
96.97381375458164
 30
0.0
 11
55.9999997388784
 21
98.97381375458159
 31
0.0
  0
LINE
  5
2323
330
1F
100
AcDbEntity
  8
2_カバ_
  6
Continuous
100
AcDbLine
 10
54.99999973887838
 20
96.97381375458164
 30
0.0
 11
54.99999973887838
 21
98.97381375458159
 31
0.0
  0
LINE
  5
2324
330
1F
100
AcDbEntity
  8
2_カバ_
  6
Continuous
100
AcDbLine
 10
56.99999973887838
 20
91.97381375458158
 30
0.0
 11
54.99999973887838
 21
91.97381375458158
 31
0.0
  0
ARC
  5
2325
330
1F
100
AcDbEntity
  8
2_カバ_
  6
Continuous
100
AcDbCircle
 10
52.99999973887839
 20
91.97381375458158
 30
0.0
 40
0.5
100
AcDbArc
 50
0.0
 51
90.0
  0
LINE
  5
2326
330
1F
100
AcDbEntity
  8
2_カバ_
  6
Continuous
100
AcDbLine
 10
54.49999973887838
 20
103.9738137545814
 30
0.0
 11
54.49999973887838
 21
98.97381375458159
 31
0.0
  0
ENDSEC
  0
SECTION
  2
OBJECTS
  0
DICTIONARY
  5
C
330
0
100
AcDbDictionary
281
     1
  3
ACAD_GROUP
350
D
  3
ACAD_LAYOUT
350
1A
  3
ACAD_MLINESTYLE
350
17
  3
ACAD_PLOTSETTINGS
350
19
  3
ACAD_PLOTSTYLENAME
350
E
  3
ACDBHEADERROUNDTRIPXREC
350
23A3
  3
ACDBVARIABLEDICTIONARY
350
AE8
  0
DICTIONARY
  5
2B2
330
2
100
AcDbDictionary
280
     1
281
     1
  3
ACAD_LAYERSTATES
360
2B3
  0
DICTIONARY
  5
B0E
330
1F
100
AcDbDictionary
280
     1
281
     1
  3
ACAD_LAYOUTSELFREF
360
239B
  0
DICTIONARY
  5
B0C
330
1B
100
AcDbDictionary
280
     1
281
     1
  3
ACAD_LAYOUTSELFREF
360
239A
  0
DICTIONARY
  5
D
102
{ACAD_REACTORS
330
C
102
}
330
C
100
AcDbDictionary
281
     1
  0
DICTIONARY
  5
1A
102
{ACAD_REACTORS
330
C
102
}
330
C
100
AcDbDictionary
281
     1
  3
Model
350
239F
  3
ﾚｲｱｳﾄ1
350
23A0
  0
DICTIONARY
  5
17
102
{ACAD_REACTORS
330
C
102
}
330
C
100
AcDbDictionary
281
     1
  3
STANDARD
350
18
  0
DICTIONARY
  5
19
102
{ACAD_REACTORS
330
C
102
}
330
C
100
AcDbDictionary
281
     1
  0
ACDBDICTIONARYWDFLT
  5
E
102
{ACAD_REACTORS
330
C
102
}
330
C
100
AcDbDictionary
281
     1
  3
Normal
350
F
100
AcDbDictionaryWithDefault
340
F
  0
DICTIONARY
  5
23A3
102
{ACAD_REACTORS
330
C
102
}
330
C
100
AcDbDictionary
281
     1
  3
CEPSNTYPE
350
23AD
  3
FINGERPRINTGUID
350
23AE
  3
HYPERLINKBASE
350
23A6
  3
INSUNITS
350
23AC
  3
LAYOUTDICT
350
23A8
  3
LWETCUNION
350
23AB
  3
PLOTSETDICT
350
23A9
  3
PLOTSTYLNAMDICT
350
23AA
  3
PSVPSCALE
350
23B0
  3
PUCSBASE
350
23B3
  3
PUCSORGBACK
350
23B9
  3
PUCSORGBOTTOM
350
23B5
  3
PUCSORGFRONT
350
23B8
  3
PUCSORGLEFT
350
23B6
  3
PUCSORGRIGHT
350
23B7
  3
PUCSORGTOP
350
23B4
  3
PUCSORTHOREF
350
23B1
  3
PUCSORTHOVIEW
350
23B2
  3
STYLESHEET
350
23A7
  3
TSTACKALIGN
350
23A4
  3
TSTACKSIZE
350
23A5
  3
UCSBASE
350
23BC
  3
UCSORGBACK
350
23C2
  3
UCSORGBOTTOM
350
23BE
  3
UCSORGFRONT
350
23C1
  3
UCSORGLEFT
350
23BF
  3
UCSORGRIGHT
350
23C0
  3
UCSORGTOP
350
23BD
  3
UCSORTHOREF
350
23BA
  3
UCSORTHOVIEW
350
23BB
  3
VERSIONGUID
350
23AF
  0
DICTIONARY
  5
AE8
102
{ACAD_REACTORS
330
C
102
}
330
C
100
AcDbDictionary
281
     1
  3
DIMASSOC
350
AEA
  3
HIDETEXT
350
AE9
  0
DICTIONARY
  5
2B3
102
{ACAD_REACTORS
330
2B2
102
}
330
2B2
100
AcDbDictionary
281
     1
  0
XRECORD
  5
239B
102
{ACAD_REACTORS
330
B0E
102
}
330
B0E
100
AcDbXrecord
280
     1
340
1F
  0
XRECORD
  5
239A
102
{ACAD_REACTORS
330
B0C
102
}
330
B0C
100
AcDbXrecord
280
     1
340
1B
  0
LAYOUT
  5
239F
102
{ACAD_REACTORS
330
1A
102
}
330
1A
100
AcDbPlotSettings
  1

  2
8F大型複合機B_C7780
  4

  6

 40
0.0
 41
0.0
 42
0.0
 43
0.0
 44
0.0
 45
0.0
 46
0.0
 47
0.0
 48
0.0
 49
0.0
140
0.0
141
0.0
142
1.0
143
1.0
 70
  1712
 72
     0
 73
     0
 74
     0
  7

 75
     0
147
1.0
148
0.0
149
0.0
100
AcDbLayout
  1
Model
 70
     1
 71
     0
 10
0.0
 20
0.0
 11
12.0
 21
9.0
 12
0.0
 22
0.0
 32
0.0
 14
0.0
 24
0.0
 34
0.0
 15
0.0
 25
0.0
 35
0.0
146
0.0
 13
0.0
 23
0.0
 33
0.0
 16
1.0
 26
0.0
 36
0.0
 17
0.0
 27
1.0
 37
0.0
 76
     0
330
1F
  0
LAYOUT
  5
23A0
102
{ACAD_REACTORS
330
1A
102
}
330
1A
100
AcDbPlotSettings
  1

  2
8F大型複合機B_C7780
  4

  6

 40
0.0
 41
0.0
 42
0.0
 43
0.0
 44
0.0
 45
0.0
 46
0.0
 47
0.0
 48
0.0
 49
0.0
140
0.0
141
0.0
142
1.0
143
1.0
 70
   688
 72
     0
 73
     0
 74
     5
  7

 75
    16
147
1.0
148
0.0
149
0.0
100
AcDbLayout
  1
ﾚｲｱｳﾄ1
 70
     1
 71
     1
 10
0.0
 20
0.0
 11
420.0
 21
297.0
 12
0.0
 22
0.0
 32
0.0
 14
1.000000000000000E+20
 24
1.000000000000000E+20
 34
1.000000000000000E+20
 15
-1.000000000000000E+20
 25
-1.000000000000000E+20
 35
-1.000000000000000E+20
146
0.0
 13
0.0
 23
0.0
 33
0.0
 16
1.0
 26
0.0
 36
0.0
 17
0.0
 27
1.0
 37
0.0
 76
     0
330
1B
  0
MLINESTYLE
  5
18
102
{ACAD_REACTORS
330
17
102
}
330
17
100
AcDbMlineStyle
  2
STANDARD
 70
     0
  3

 62
   256
 51
90.0
 52
90.0
 71
     2
 49
0.5
 62
   256
  6
BYLAYER
 49
-0.5
 62
   256
  6
BYLAYER
  0
ACDBPLACEHOLDER
  5
F
102
{ACAD_REACTORS
330
E
102
}
330
E
  0
XRECORD
  5
23AD
102
{ACAD_REACTORS
330
23A3
102
}
330
23A3
100
AcDbXrecord
280
     1
 90
        0
  0
XRECORD
  5
23AE
102
{ACAD_REACTORS
330
23A3
102
}
330
23A3
100
AcDbXrecord
280
     1
  1
{DFE87AFF-CEDA-490C-9593-3352DB0660B4}
  0
XRECORD
  5
23A6
102
{ACAD_REACTORS
330
23A3
102
}
330
23A3
100
AcDbXrecord
280
     1
  1

  0
XRECORD
  5
23AC
102
{ACAD_REACTORS
330
23A3
102
}
330
23A3
100
AcDbXrecord
280
     1
 90
        4
  0
XRECORD
  5
23A8
102
{ACAD_REACTORS
330
23A3
102
}
330
23A3
100
AcDbXrecord
280
     1
340
1A
  0
XRECORD
  5
23AB
102
{ACAD_REACTORS
330
23A3
102
}
330
23A3
100
AcDbXrecord
280
     1
 90
    10781
  0
XRECORD
  5
23A9
102
{ACAD_REACTORS
330
23A3
102
}
330
23A3
100
AcDbXrecord
280
     1
340
19
  0
XRECORD
  5
23AA
102
{ACAD_REACTORS
330
23A3
102
}
330
23A3
100
AcDbXrecord
280
     1
340
E
  0
XRECORD
  5
23B0
102
{ACAD_REACTORS
330
23A3
102
}
330
23A3
100
AcDbXrecord
280
     1
 40
0.0
  0
XRECORD
  5
23B3
102
{ACAD_REACTORS
330
23A3
102
}
330
23A3
100
AcDbXrecord
280
     1
340
0
  0
XRECORD
  5
23B9
102
{ACAD_REACTORS
330
23A3
102
}
330
23A3
100
AcDbXrecord
280
     1
 10
0.0
 20
0.0
 30
0.0
  0
XRECORD
  5
23B5
102
{ACAD_REACTORS
330
23A3
102
}
330
23A3
100
AcDbXrecord
280
     1
 10
0.0
 20
0.0
 30
0.0
  0
XRECORD
  5
23B8
102
{ACAD_REACTORS
330
23A3
102
}
330
23A3
100
AcDbXrecord
280
     1
 10
0.0
 20
0.0
 30
0.0
  0
XRECORD
  5
23B6
102
{ACAD_REACTORS
330
23A3
102
}
330
23A3
100
AcDbXrecord
280
     1
 10
0.0
 20
0.0
 30
0.0
  0
XRECORD
  5
23B7
102
{ACAD_REACTORS
330
23A3
102
}
330
23A3
100
AcDbXrecord
280
     1
 10
0.0
 20
0.0
 30
0.0
  0
XRECORD
  5
23B4
102
{ACAD_REACTORS
330
23A3
102
}
330
23A3
100
AcDbXrecord
280
     1
 10
0.0
 20
0.0
 30
0.0
  0
XRECORD
  5
23B1
102
{ACAD_REACTORS
330
23A3
102
}
330
23A3
100
AcDbXrecord
280
     1
340
0
  0
XRECORD
  5
23B2
102
{ACAD_REACTORS
330
23A3
102
}
330
23A3
100
AcDbXrecord
280
     1
 70
     0
  0
XRECORD
  5
23A7
102
{ACAD_REACTORS
330
23A3
102
}
330
23A3
100
AcDbXrecord
280
     1
  1

  0
XRECORD
  5
23A4
102
{ACAD_REACTORS
330
23A3
102
}
330
23A3
100
AcDbXrecord
280
     1
 90
        1
  0
XRECORD
  5
23A5
102
{ACAD_REACTORS
330
23A3
102
}
330
23A3
100
AcDbXrecord
280
     1
 90
       70
  0
XRECORD
  5
23BC
102
{ACAD_REACTORS
330
23A3
102
}
330
23A3
100
AcDbXrecord
280
     1
340
0
  0
XRECORD
  5
23C2
102
{ACAD_REACTORS
330
23A3
102
}
330
23A3
100
AcDbXrecord
280
     1
 10
0.0
 20
0.0
 30
0.0
  0
XRECORD
  5
23BE
102
{ACAD_REACTORS
330
23A3
102
}
330
23A3
100
AcDbXrecord
280
     1
 10
0.0
 20
0.0
 30
0.0
  0
XRECORD
  5
23C1
102
{ACAD_REACTORS
330
23A3
102
}
330
23A3
100
AcDbXrecord
280
     1
 10
0.0
 20
0.0
 30
0.0
  0
XRECORD
  5
23BF
102
{ACAD_REACTORS
330
23A3
102
}
330
23A3
100
AcDbXrecord
280
     1
 10
0.0
 20
0.0
 30
0.0
  0
XRECORD
  5
23C0
102
{ACAD_REACTORS
330
23A3
102
}
330
23A3
100
AcDbXrecord
280
     1
 10
0.0
 20
0.0
 30
0.0
  0
XRECORD
  5
23BD
102
{ACAD_REACTORS
330
23A3
102
}
330
23A3
100
AcDbXrecord
280
     1
 10
0.0
 20
0.0
 30
0.0
  0
XRECORD
  5
23BA
102
{ACAD_REACTORS
330
23A3
102
}
330
23A3
100
AcDbXrecord
280
     1
340
0
  0
XRECORD
  5
23BB
102
{ACAD_REACTORS
330
23A3
102
}
330
23A3
100
AcDbXrecord
280
     1
 70
     0
  0
XRECORD
  5
23AF
102
{ACAD_REACTORS
330
23A3
102
}
330
23A3
100
AcDbXrecord
280
     1
  1
{8C1845D4-D767-4FF1-94AE-D2F9ED1D77ED}
  0
DICTIONARYVAR
  5
AEA
102
{ACAD_REACTORS
330
AE8
102
}
330
AE8
100
DictionaryVariables
280
     0
  1
2
  0
DICTIONARYVAR
  5
AE9
102
{ACAD_REACTORS
330
AE8
102
}
330
AE8
100
DictionaryVariables
280
     0
  1
1
  0
ENDSEC
  0
EOF
