  0
SECTION
  2
HEADER
  9
$ACADVER
  1
AC1015
  9
$ACADMAINTVER
 70
     6
  9
$DWGCODEPAGE
  3
ANSI_932
  9
$INSBASE
 10
0.0
 20
0.0
 30
0.0
  9
$EXTMIN
 10
171.4836676975181
 20
183.2491236667248
 30
0.0
  9
$EXTMAX
 10
469.4349174522045
 20
649.6655082002755
 30
0.0
  9
$LIMMIN
 10
0.0
 20
0.0
  9
$LIMMAX
 10
420.0
 20
297.0
  9
$ORTHOMODE
 70
     0
  9
$REGENMODE
 70
     1
  9
$FILLMODE
 70
     1
  9
$QTEXTMODE
 70
     0
  9
$MIRRTEXT
 70
     1
  9
$LTSCALE
 40
1.0
  9
$ATTMODE
 70
     1
  9
$TEXTSIZE
 40
2.5
  9
$TRACEWID
 40
1.0
  9
$TEXTSTYLE
  7
Standard
  9
$CLAYER
  8
0
  9
$CELTYPE
  6
ByLayer
  9
$CECOLOR
 62
   256
  9
$CELTSCALE
 40
1.0
  9
$DISPSILH
 70
     0
  9
$DIMSCALE
 40
1.0
  9
$DIMASZ
 40
2.5
  9
$DIMEXO
 40
1.0
  9
$DIMDLI
 40
8.0
  9
$DIMRND
 40
0.0
  9
$DIMDLE
 40
0.0
  9
$DIMEXE
 40
1.0
  9
$DIMTP
 40
0.0
  9
$DIMTM
 40
0.0
  9
$DIMTXT
 40
2.5
  9
$DIMCEN
 40
0.0
  9
$DIMTSZ
 40
0.0
  9
$DIMTOL
 70
     0
  9
$DIMLIM
 70
     0
  9
$DIMTIH
 70
     0
  9
$DIMTOH
 70
     0
  9
$DIMSE1
 70
     0
  9
$DIMSE2
 70
     0
  9
$DIMTAD
 70
     3
  9
$DIMZIN
 70
     9
  9
$DIMBLK
  1
Open
  9
$DIMASO
 70
     1
  9
$DIMSHO
 70
     1
  9
$DIMPOST
  1

  9
$DIMAPOST
  1

  9
$DIMALT
 70
     0
  9
$DIMALTD
 70
     2
  9
$DIMALTF
 40
25.4
  9
$DIMLFAC
 40
1.0
  9
$DIMTOFL
 70
     1
  9
$DIMTVP
 40
0.0
  9
$DIMTIX
 70
     0
  9
$DIMSOXD
 70
     0
  9
$DIMSAH
 70
     0
  9
$DIMBLK1
  1

  9
$DIMBLK2
  1

  9
$DIMSTYLE
  2
iai
  9
$DIMCLRD
 70
     3
  9
$DIMCLRE
 70
     3
  9
$DIMCLRT
 70
     2
  9
$DIMTFAC
 40
1.0
  9
$DIMGAP
 40
1.0
  9
$DIMJUST
 70
     0
  9
$DIMSD1
 70
     0
  9
$DIMSD2
 70
     0
  9
$DIMTOLJ
 70
     1
  9
$DIMTZIN
 70
    12
  9
$DIMALTZ
 70
     0
  9
$DIMALTTZ
 70
     0
  9
$DIMUPT
 70
     0
  9
$DIMDEC
 70
     5
  9
$DIMTDEC
 70
     5
  9
$DIMALTU
 70
     2
  9
$DIMALTTD
 70
     2
  9
$DIMTXSTY
  7
romans
  9
$DIMAUNIT
 70
     0
  9
$DIMADEC
 70
     5
  9
$DIMALTRND
 40
0.0
  9
$DIMAZIN
 70
     2
  9
$DIMDSEP
 70
    46
  9
$DIMATFIT
 70
     3
  9
$DIMFRAC
 70
     2
  9
$DIMLDRBLK
  1
Open
  9
$DIMLUNIT
 70
     2
  9
$DIMLWD
 70
    -1
  9
$DIMLWE
 70
    -1
  9
$DIMTMOVE
 70
     0
  9
$LUNITS
 70
     2
  9
$LUPREC
 70
     4
  9
$SKETCHINC
 40
1.0
  9
$FILLETRAD
 40
10.0
  9
$AUNITS
 70
     0
  9
$AUPREC
 70
     0
  9
$MENU
  1
.
  9
$ELEVATION
 40
0.0
  9
$PELEVATION
 40
0.0
  9
$THICKNESS
 40
0.0
  9
$LIMCHECK
 70
     0
  9
$CHAMFERA
 40
10.0
  9
$CHAMFERB
 40
10.0
  9
$CHAMFERC
 40
20.0
  9
$CHAMFERD
 40
0.0
  9
$SKPOLY
 70
     0
  9
$TDCREATE
 40
2456868.557116956
  9
$TDUCREATE
 40
2456868.182116956
  9
$TDUPDATE
 40
2456868.693420636
  9
$TDUUPDATE
 40
2456868.318420636
  9
$TDINDWG
 40
0.0077696528
  9
$TDUSRTIMER
 40
0.0077696065
  9
$USRTIMER
 70
     1
  9
$ANGBASE
 50
0.0
  9
$ANGDIR
 70
     0
  9
$PDMODE
 70
     0
  9
$PDSIZE
 40
0.0
  9
$PLINEWID
 40
0.0
  9
$SPLFRAME
 70
     0
  9
$SPLINETYPE
 70
     6
  9
$SPLINESEGS
 70
     8
  9
$HANDSEED
  5
1189
  9
$SURFTAB1
 70
     6
  9
$SURFTAB2
 70
     6
  9
$SURFTYPE
 70
     6
  9
$SURFU
 70
     6
  9
$SURFV
 70
     6
  9
$UCSBASE
  2

  9
$UCSNAME
  2

  9
$UCSORG
 10
0.0
 20
0.0
 30
0.0
  9
$UCSXDIR
 10
1.0
 20
0.0
 30
0.0
  9
$UCSYDIR
 10
0.0
 20
1.0
 30
0.0
  9
$UCSORTHOREF
  2

  9
$UCSORTHOVIEW
 70
     0
  9
$UCSORGTOP
 10
0.0
 20
0.0
 30
0.0
  9
$UCSORGBOTTOM
 10
0.0
 20
0.0
 30
0.0
  9
$UCSORGLEFT
 10
0.0
 20
0.0
 30
0.0
  9
$UCSORGRIGHT
 10
0.0
 20
0.0
 30
0.0
  9
$UCSORGFRONT
 10
0.0
 20
0.0
 30
0.0
  9
$UCSORGBACK
 10
0.0
 20
0.0
 30
0.0
  9
$PUCSBASE
  2

  9
$PUCSNAME
  2

  9
$PUCSORG
 10
0.0
 20
0.0
 30
0.0
  9
$PUCSXDIR
 10
1.0
 20
0.0
 30
0.0
  9
$PUCSYDIR
 10
0.0
 20
1.0
 30
0.0
  9
$PUCSORTHOREF
  2

  9
$PUCSORTHOVIEW
 70
     0
  9
$PUCSORGTOP
 10
0.0
 20
0.0
 30
0.0
  9
$PUCSORGBOTTOM
 10
0.0
 20
0.0
 30
0.0
  9
$PUCSORGLEFT
 10
0.0
 20
0.0
 30
0.0
  9
$PUCSORGRIGHT
 10
0.0
 20
0.0
 30
0.0
  9
$PUCSORGFRONT
 10
0.0
 20
0.0
 30
0.0
  9
$PUCSORGBACK
 10
0.0
 20
0.0
 30
0.0
  9
$USERI1
 70
     0
  9
$USERI2
 70
     0
  9
$USERI3
 70
     0
  9
$USERI4
 70
     0
  9
$USERI5
 70
     0
  9
$USERR1
 40
0.0
  9
$USERR2
 40
0.0
  9
$USERR3
 40
0.0
  9
$USERR4
 40
0.0
  9
$USERR5
 40
0.0
  9
$WORLDVIEW
 70
     1
  9
$SHADEDGE
 70
     3
  9
$SHADEDIF
 70
    70
  9
$TILEMODE
 70
     1
  9
$MAXACTVP
 70
    64
  9
$PINSBASE
 10
0.0
 20
0.0
 30
0.0
  9
$PLIMCHECK
 70
     0
  9
$PEXTMIN
 10
1.000000000000000E+20
 20
1.000000000000000E+20
 30
1.000000000000000E+20
  9
$PEXTMAX
 10
-1.000000000000000E+20
 20
-1.000000000000000E+20
 30
-1.000000000000000E+20
  9
$PLIMMIN
 10
0.0
 20
0.0
  9
$PLIMMAX
 10
420.0
 20
297.0
  9
$UNITMODE
 70
     0
  9
$VISRETAIN
 70
     1
  9
$PLINEGEN
 70
     0
  9
$PSLTSCALE
 70
     1
  9
$TREEDEPTH
 70
  3020
  9
$CMLSTYLE
  2
Standard
  9
$CMLJUST
 70
     0
  9
$CMLSCALE
 40
20.0
  9
$PROXYGRAPHICS
 70
     1
  9
$MEASUREMENT
 70
     1
  9
$CELWEIGHT
370
    -1
  9
$ENDCAPS
280
     0
  9
$JOINSTYLE
280
     0
  9
$LWDISPLAY
290
     0
  9
$INSUNITS
 70
     4
  9
$HYPERLINKBASE
  1

  9
$STYLESHEET
  1

  9
$XEDIT
290
     1
  9
$CEPSNTYPE
380
     0
  9
$PSTYLEMODE
290
     1
  9
$FINGERPRINTGUID
  2
{6D6E30E4-4B3E-490F-9FE7-04AA8BA112B8}
  9
$VERSIONGUID
  2
{64BFA8D8-69EC-495E-B394-19DC85D4CFFE}
  9
$EXTNAMES
290
     1
  9
$PSVPSCALE
 40
0.0
  9
$OLESTARTUP
290
     0
  0
ENDSEC
  0
SECTION
  2
CLASSES
  0
CLASS
  1
ACDBDICTIONARYWDFLT
  2
AcDbDictionaryWithDefault
  3
AutoCAD 2000
 90
        0
280
     0
281
     0
  0
CLASS
  1
ACDBPLACEHOLDER
  2
AcDbPlaceHolder
  3
AutoCAD 2000
 90
        0
280
     0
281
     0
  0
CLASS
  1
LAYOUT
  2
AcDbLayout
  3
AutoCAD 2000
 90
        0
280
     0
281
     0
  0
CLASS
  1
DICTIONARYVAR
  2
AcDbDictionaryVar
  3
AutoCAD 2000
 90
        0
280
     0
281
     0
  0
ENDSEC
  0
SECTION
  2
TABLES
  0
TABLE
  2
VPORT
  5
8
330
0
100
AcDbSymbolTable
 70
     2
  0
VPORT
  5
1167
330
8
100
AcDbSymbolTableRecord
100
AcDbViewportTableRecord
  2
*Active
 70
     0
 10
0.0
 20
0.0
 11
1.0
 21
1.0
 12
320.4599583480259
 22
416.449232321748
 13
0.0
 23
0.0
 14
10.0
 24
10.0
 15
10.0
 25
10.0
 16
0.0
 26
0.0
 36
1.0
 17
0.0
 27
0.0
 37
0.0
 40
470.6866408232817
 41
2.319634703196347
 42
50.0
 43
0.0
 44
0.0
 50
0.0
 51
0.0
 71
     0
 72
   100
 73
     1
 74
     3
 75
     0
 76
     0
 77
     0
 78
     0
281
     0
 65
     1
110
0.0
120
0.0
130
0.0
111
1.0
121
0.0
131
0.0
112
0.0
122
1.0
132
0.0
 79
     0
146
0.0
  0
ENDTAB
  0
TABLE
  2
LTYPE
  5
5
330
0
100
AcDbSymbolTable
 70
     2
  0
LTYPE
  5
14
330
5
100
AcDbSymbolTableRecord
100
AcDbLinetypeTableRecord
  2
ByBlock
 70
     0
  3

 72
    65
 73
     0
 40
0.0
  0
LTYPE
  5
15
330
5
100
AcDbSymbolTableRecord
100
AcDbLinetypeTableRecord
  2
ByLayer
 70
     0
  3

 72
    65
 73
     0
 40
0.0
  0
LTYPE
  5
16
330
5
100
AcDbSymbolTableRecord
100
AcDbLinetypeTableRecord
  2
Continuous
 70
     0
  3
Solid line
 72
    65
 73
     0
 40
0.0
  0
LTYPE
  5
EEF
330
5
100
AcDbSymbolTableRecord
100
AcDbLinetypeTableRecord
  2
DASHDOT
 70
     0
  3
__ . __ . __ . __ . __ . __ . __ . __ . __ . __
 72
    65
 73
     4
 40
7.5
 49
6.0
 74
     0
 49
-0.5
 74
     0
 49
0.5
 74
     0
 49
-0.5
 74
     0
  0
ENDTAB
  0
TABLE
  2
LAYER
  5
2
102
{ACAD_XDICTIONARY
360
4C8
102
}
330
0
100
AcDbSymbolTable
 70
     6
  0
LAYER
  5
10
330
2
100
AcDbSymbolTableRecord
100
AcDbLayerTableRecord
  2
0
 70
     0
 62
     7
  6
Continuous
370
    -3
390
F
  0
LAYER
  5
4C2
330
2
100
AcDbSymbolTableRecord
100
AcDbLayerTableRecord
  2
DEFPOINTS
 70
     0
 62
    -7
  6
Continuous
290
     0
370
    -3
390
F
  0
LAYER
  5
4C3
330
2
100
AcDbSymbolTableRecord
100
AcDbLayerTableRecord
  2
1
 70
     0
 62
     3
  6
Continuous
370
    -3
390
F
  0
LAYER
  5
4C4
330
2
100
AcDbSymbolTableRecord
100
AcDbLayerTableRecord
  2
3_表示パネル
 70
     0
 62
     7
  6
Continuous
370
    -3
390
F
  0
LAYER
  5
4C5
330
2
100
AcDbSymbolTableRecord
100
AcDbLayerTableRecord
  2
外形
 70
     0
 62
     3
  6
Continuous
370
    25
390
F
  0
LAYER
  5
EF0
330
2
100
AcDbSymbolTableRecord
100
AcDbLayerTableRecord
  2
2_カバ_
 70
     0
 62
     7
  6
Continuous
370
    -3
390
F
  0
ENDTAB
  0
TABLE
  2
STYLE
  5
3
330
0
100
AcDbSymbolTable
 70
     2
  0
STYLE
  5
11
330
3
100
AcDbSymbolTableRecord
100
AcDbTextStyleTableRecord
  2
Standard
 70
     0
 40
0.0
 41
1.0
 50
0.0
 71
     0
 42
2.5
  3
txt
  4

  0
STYLE
  5
A88
330
3
100
AcDbSymbolTableRecord
100
AcDbTextStyleTableRecord
  2
romans
 70
     0
 40
0.0
 41
0.8
 50
0.0
 71
     0
 42
3.5
  3
romans.shx
  4
bigfont.shx
  0
ENDTAB
  0
TABLE
  2
VIEW
  5
6
330
0
100
AcDbSymbolTable
 70
     0
  0
ENDTAB
  0
TABLE
  2
UCS
  5
7
330
0
100
AcDbSymbolTable
 70
     0
  0
ENDTAB
  0
TABLE
  2
APPID
  5
9
330
0
100
AcDbSymbolTable
 70
     1
  0
APPID
  5
12
330
9
100
AcDbSymbolTableRecord
100
AcDbRegAppTableRecord
  2
ACAD
 70
     0
  0
ENDTAB
  0
TABLE
  2
DIMSTYLE
  5
A
330
0
100
AcDbSymbolTable
 70
     1
100
AcDbDimStyleTable
 71
     1
340
A89
  0
DIMSTYLE
105
A89
330
A
100
AcDbSymbolTableRecord
100
AcDbDimStyleTableRecord
  2
iai
 70
     0
 41
2.5
 42
1.0
 43
8.0
 44
1.0
 73
     0
 74
     0
 77
     3
 78
     9
 79
     2
140
2.5
141
0.0
147
1.0
172
     1
176
     3
177
     3
178
     2
179
     5
271
     5
272
     5
276
     2
284
    12
340
A88
341
9F6
342
9F6
371
    -1
372
    -1
  0
ENDTAB
  0
TABLE
  2
BLOCK_RECORD
  5
1
330
0
100
AcDbSymbolTable
 70
     4
  0
BLOCK_RECORD
  5
1F
330
1
100
AcDbSymbolTableRecord
100
AcDbBlockTableRecord
  2
*Model_Space
340
22
  0
BLOCK_RECORD
  5
1B
330
1
100
AcDbSymbolTableRecord
100
AcDbBlockTableRecord
  2
*Paper_Space
340
1E
  0
BLOCK_RECORD
  5
23
330
1
100
AcDbSymbolTableRecord
100
AcDbBlockTableRecord
  2
*Paper_Space0
340
26
  0
BLOCK_RECORD
  5
2A5
330
1
100
AcDbSymbolTableRecord
100
AcDbBlockTableRecord
  2
A$C60EC01A6
340
0
102
{BLKREFS
331
7F4
102
}
  0
BLOCK_RECORD
  5
31A
330
1
100
AcDbSymbolTableRecord
100
AcDbBlockTableRecord
  2
A$C582506EE
340
0
102
{BLKREFS
331
7F5
102
}
  0
BLOCK_RECORD
  5
9F6
330
1
100
AcDbSymbolTableRecord
100
AcDbBlockTableRecord
  2
_Open
340
0
  0
ENDTAB
  0
ENDSEC
  0
SECTION
  2
BLOCKS
  0
BLOCK
  5
20
330
1F
100
AcDbEntity
  8
0
100
AcDbBlockBegin
  2
*Model_Space
 70
     0
 10
0.0
 20
0.0
 30
0.0
  3
*Model_Space
  1

  0
ENDBLK
  5
21
330
1F
100
AcDbEntity
  8
0
100
AcDbBlockEnd
  0
BLOCK
  5
1C
330
1B
100
AcDbEntity
 67
     1
  8
0
100
AcDbBlockBegin
  2
*Paper_Space
 70
     0
 10
0.0
 20
0.0
 30
0.0
  3
*Paper_Space
  1

  0
ENDBLK
  5
1D
330
1B
100
AcDbEntity
 67
     1
  8
0
100
AcDbBlockEnd
  0
BLOCK
  5
24
330
23
100
AcDbEntity
  8
0
100
AcDbBlockBegin
  2
*Paper_Space0
 70
     0
 10
0.0
 20
0.0
 30
0.0
  3
*Paper_Space0
  1

  0
ENDBLK
  5
25
330
23
100
AcDbEntity
  8
0
100
AcDbBlockEnd
  0
BLOCK
  5
318
330
2A5
100
AcDbEntity
  8
0
100
AcDbBlockBegin
  2
A$C60EC01A6
 70
     0
 10
0.0
 20
0.0
 30
0.0
  3
A$C60EC01A6
  1
A$C60EC01A6
  0
LINE
  5
2A6
330
2A5
100
AcDbEntity
  8
0
  6
Continuous
100
AcDbLine
 10
4.900000121918309
 20
88.20000090088797
 30
0.0
 11
4.900000121918309
 21
1.900000900887789
 31
0.0
  0
LINE
  5
2A7
330
2A5
100
AcDbEntity
  8
0
  6
Continuous
100
AcDbLine
 10
15.50000012191822
 20
56.30000090088742
 30
0.0
 11
15.50000012191822
 21
1.900000900887789
 31
0.0
  0
LINE
  5
2A8
330
2A5
100
AcDbEntity
  8
0
  6
Continuous
370
     9
100
AcDbLine
 10
47.40000000000009
 20
169.4000010602317
 30
0.0
 11
47.40000000000009
 21
0.0000010602316252
 31
0.0
  0
LINE
  5
2A9
330
2A5
100
AcDbEntity
  8
0
  6
Continuous
370
     9
100
AcDbLine
 10
47.40000000000009
 20
169.4000010602317
 30
0.0
 11
0.0
 21
169.4000010602317
 31
0.0
  0
LINE
  5
2AA
330
2A5
100
AcDbEntity
  8
0
  6
Continuous
100
AcDbLine
 10
17.50000012191821
 20
118.9000009008877
 30
0.0
 11
17.50000012191821
 21
92.70000090088798
 31
0.0
  0
LINE
  5
2AB
330
2A5
100
AcDbEntity
  8
0
  6
Continuous
100
AcDbLine
 10
4.900000121918309
 20
118.9000009008877
 30
0.0
 11
4.900000121918309
 21
92.70000090088798
 31
0.0
  0
LINE
  5
2AC
330
2A5
100
AcDbEntity
  8
0
  6
Continuous
100
AcDbLine
 10
0.0
 20
169.4000010602317
 30
0.0
 11
0.0
 21
20.32227817897545
 31
0.0
  0
LINE
  5
2AD
330
2A5
100
AcDbEntity
  8
0
  6
Continuous
100
AcDbLine
 10
4.900000121918309
 20
155.8000009008874
 30
0.0
 11
4.900000121918309
 21
122.8000009008874
 31
0.0
  0
LINE
  5
2AE
330
2A5
100
AcDbEntity
  8
0
  6
Continuous
100
AcDbLine
 10
14.80000012191793
 20
155.8000009008874
 30
0.0
 11
14.80000012191793
 21
147.8000009008874
 31
0.0
  0
LINE
  5
2AF
330
2A5
100
AcDbEntity
  8
0
  6
Continuous
100
AcDbLine
 10
14.20000012191803
 20
139.6000009008875
 30
0.0
 11
14.20000012191803
 21
122.8000009008874
 31
0.0
  0
LINE
  5
2B0
330
2A5
100
AcDbEntity
  8
0
  6
Continuous
100
AcDbLine
 10
4.900000121918309
 20
118.9000009008877
 30
0.0
 11
17.50000012191821
 21
118.9000009008877
 31
0.0
  0
LINE
  5
2B1
330
2A5
100
AcDbEntity
  8
0
  6
Continuous
100
AcDbLine
 10
4.900000121918309
 20
122.8000009008874
 30
0.0
 11
14.20000012191803
 21
122.8000009008874
 31
0.0
  0
LINE
  5
2B2
330
2A5
100
AcDbEntity
  8
0
  6
Continuous
100
AcDbLine
 10
17.80000012191794
 20
147.8000009008874
 30
0.0
 11
17.80000012191794
 21
139.6000009008875
 31
0.0
  0
LINE
  5
2B3
330
2A5
100
AcDbEntity
  8
0
  6
Continuous
100
AcDbLine
 10
14.20000012191803
 20
139.6000009008875
 30
0.0
 11
17.80000012191794
 21
139.6000009008875
 31
0.0
  0
LINE
  5
2B4
330
2A5
100
AcDbEntity
  8
0
  6
Continuous
100
AcDbLine
 10
14.80000012191793
 20
147.8000009008874
 30
0.0
 11
17.80000012191794
 21
147.8000009008874
 31
0.0
  0
CIRCLE
  5
2B5
330
2A5
100
AcDbEntity
  8
0
  6
Continuous
100
AcDbCircle
 10
13.50000012191822
 20
164.5000009008875
 30
0.0
 40
1.399999999999999
  0
CIRCLE
  5
2B6
330
2A5
100
AcDbEntity
  8
0
  6
Continuous
100
AcDbCircle
 10
8.40000012191831
 20
164.5000009008875
 30
0.0
 40
1.399999999999999
  0
CIRCLE
  5
2B7
330
2A5
100
AcDbEntity
  8
0
  6
Continuous
100
AcDbCircle
 10
13.50000012191822
 20
159.7000009008879
 30
0.0
 40
1.399999999999999
  0
LINE
  5
2B8
330
2A5
100
AcDbEntity
  8
0
  6
Continuous
100
AcDbLine
 10
14.80000012191793
 20
155.8000009008874
 30
0.0
 11
4.900000121918309
 21
155.8000009008874
 31
0.0
  0
CIRCLE
  5
2B9
330
2A5
100
AcDbEntity
  8
0
  6
Continuous
100
AcDbCircle
 10
8.40000012191831
 20
159.7000009008879
 30
0.0
 40
1.399999999999999
  0
LINE
  5
2BA
330
2A5
100
AcDbEntity
  8
0
  6
Continuous
100
AcDbLine
 10
30.50000012191822
 20
47.30000090088788
 30
0.0
 11
30.50000012191822
 21
1.900000900887789
 31
0.0
  0
LINE
  5
2BB
330
2A5
100
AcDbEntity
  8
0
  6
Continuous
100
AcDbLine
 10
41.90000012191922
 20
47.30000090088788
 30
0.0
 11
41.90000012191922
 21
1.900000900887789
 31
0.0
  0
LINE
  5
2BC
330
2A5
100
AcDbEntity
  8
0
  6
Continuous
100
AcDbLine
 10
4.900000121918309
 20
88.20000090088797
 30
0.0
 11
4.900000121918309
 21
1.900000900887789
 31
0.0
  0
LINE
  5
2BD
330
2A5
100
AcDbEntity
  8
0
  6
Continuous
100
AcDbLine
 10
15.50000012191822
 20
56.30000090088742
 30
0.0
 11
15.50000012191822
 21
1.900000900887789
 31
0.0
  0
LINE
  5
2BE
330
2A5
100
AcDbEntity
  8
0
  6
Continuous
100
AcDbLine
 10
2.899999999996906
 20
14.70000106023143
 30
0.0
 11
2.899999999995998
 21
0.0000010602316252
 31
0.0
  0
LINE
  5
2BF
330
2A5
100
AcDbEntity
  8
0
  6
Continuous
100
AcDbLine
 10
47.40000000000009
 20
169.4000010602317
 30
0.0
 11
47.40000000000009
 21
0.0000010602316252
 31
0.0
  0
LINE
  5
2C0
330
2A5
100
AcDbEntity
  8
0
  6
Continuous
100
AcDbLine
 10
2.899999999995998
 20
0.0000010602316252
 30
0.0
 11
47.40000000000009
 21
0.0000010602316252
 31
0.0
  0
LINE
  5
2C1
330
2A5
100
AcDbEntity
  8
0
  6
Continuous
100
AcDbLine
 10
41.90000012191922
 20
1.900000900887789
 30
0.0
 11
30.50000012191822
 21
1.900000900887789
 31
0.0
  0
LINE
  5
2C2
330
2A5
100
AcDbEntity
  8
0
  6
Continuous
100
AcDbLine
 10
15.50000012191822
 20
1.900000900887789
 30
0.0
 11
4.900000121918309
 21
1.900000900887789
 31
0.0
  0
LINE
  5
2C3
330
2A5
100
AcDbEntity
  8
0
  6
Continuous
100
AcDbLine
 10
41.90000012191922
 20
84.20000090088752
 30
0.0
 11
30.50000012191822
 21
84.20000090088752
 31
0.0
  0
LINE
  5
2C4
330
2A5
100
AcDbEntity
  8
0
  6
Continuous
100
AcDbLine
 10
41.90000012191922
 20
49.5000009008877
 30
0.0
 11
30.50000012191822
 21
49.5000009008877
 31
0.0
  0
LINE
  5
2C5
330
2A5
100
AcDbEntity
  8
0
  6
Continuous
100
AcDbLine
 10
41.90000012191922
 20
47.30000090088788
 30
0.0
 11
30.50000012191822
 21
47.30000090088788
 31
0.0
  0
LINE
  5
2C6
330
2A5
100
AcDbEntity
  8
0
  6
Continuous
100
AcDbLine
 10
47.40000000000009
 20
169.4000010602317
 30
0.0
 11
0.0
 21
169.4000010602317
 31
0.0
  0
LINE
  5
2C7
330
2A5
100
AcDbEntity
  8
0
  6
Continuous
100
AcDbLine
 10
17.50000012191821
 20
118.9000009008877
 30
0.0
 11
17.50000012191821
 21
92.70000090088798
 31
0.0
  0
LINE
  5
2C8
330
2A5
100
AcDbEntity
  8
0
  6
Continuous
100
AcDbLine
 10
4.900000121918309
 20
118.9000009008877
 30
0.0
 11
4.900000121918309
 21
92.70000090088798
 31
0.0
  0
LINE
  5
2C9
330
2A5
100
AcDbEntity
  8
0
  6
Continuous
100
AcDbLine
 10
0.0
 20
169.4000010602317
 30
0.0
 11
0.0
 21
20.32227817897545
 31
0.0
  0
LINE
  5
2CA
330
2A5
100
AcDbEntity
  8
0
  6
Continuous
100
AcDbLine
 10
15.50000012191822
 20
73.30000090088742
 30
0.0
 11
15.50000012191822
 21
59.90000090088778
 31
0.0
  0
LINE
  5
2CB
330
2A5
100
AcDbEntity
  8
0
  6
Continuous
100
AcDbLine
 10
30.50000012191822
 20
63.80000090088742
 30
0.0
 11
30.50000012191822
 21
49.5000009008877
 31
0.0
  0
LINE
  5
2CC
330
2A5
100
AcDbEntity
  8
0
  6
Continuous
100
AcDbLine
 10
17.10000012191811
 20
59.90000090088778
 30
0.0
 11
17.10000012191811
 21
56.30000090088742
 31
0.0
  0
LINE
  5
2CD
330
2A5
100
AcDbEntity
  8
0
  6
Continuous
100
AcDbLine
 10
15.50000012191822
 20
59.90000090088778
 30
0.0
 11
17.10000012191811
 21
59.90000090088778
 31
0.0
  0
LINE
  5
2CE
330
2A5
100
AcDbEntity
  8
0
  6
Continuous
100
AcDbLine
 10
15.50000012191822
 20
56.30000090088742
 30
0.0
 11
17.10000012191811
 21
56.30000090088742
 31
0.0
  0
LINE
  5
2CF
330
2A5
100
AcDbEntity
  8
0
  6
Continuous
100
AcDbLine
 10
15.50000012191822
 20
88.20000090088797
 30
0.0
 11
15.50000012191822
 21
76.90000090088779
 31
0.0
  0
LINE
  5
2D0
330
2A5
100
AcDbEntity
  8
0
  6
Continuous
100
AcDbLine
 10
30.50000012191822
 20
79.80000090088744
 30
0.0
 11
30.50000012191822
 21
84.20000090088752
 31
0.0
  0
LINE
  5
2D1
330
2A5
100
AcDbEntity
  8
0
  6
Continuous
100
AcDbLine
 10
15.50000012191822
 20
76.90000090088779
 30
0.0
 11
17.10000012191811
 21
76.90000090088779
 31
0.0
  0
LINE
  5
2D2
330
2A5
100
AcDbEntity
  8
0
  6
Continuous
100
AcDbLine
 10
15.50000012191822
 20
73.30000090088742
 30
0.0
 11
17.10000012191811
 21
73.30000090088742
 31
0.0
  0
LINE
  5
2D3
330
2A5
100
AcDbEntity
  8
0
  6
Continuous
100
AcDbLine
 10
17.10000012191811
 20
76.90000090088779
 30
0.0
 11
17.10000012191811
 21
73.30000090088742
 31
0.0
  0
LINE
  5
2D4
330
2A5
100
AcDbEntity
  8
0
  6
Continuous
100
AcDbLine
 10
26.90000012191831
 20
79.80000090088744
 30
0.0
 11
26.90000012191831
 21
63.80000090088742
 31
0.0
  0
LINE
  5
2D5
330
2A5
100
AcDbEntity
  8
0
  6
Continuous
100
AcDbLine
 10
30.50000012191822
 20
63.80000090088742
 30
0.0
 11
26.90000012191831
 21
63.80000090088742
 31
0.0
  0
LINE
  5
2D6
330
2A5
100
AcDbEntity
  8
0
  6
Continuous
100
AcDbLine
 10
30.50000012191822
 20
79.80000090088744
 30
0.0
 11
26.90000012191831
 21
79.80000090088744
 31
0.0
  0
LINE
  5
2D7
330
2A5
100
AcDbEntity
  8
0
  6
Continuous
100
AcDbLine
 10
4.900000121918309
 20
92.70000090088798
 30
0.0
 11
17.50000012191821
 21
92.70000090088798
 31
0.0
  0
LINE
  5
2D8
330
2A5
100
AcDbEntity
  8
0
  6
Continuous
100
AcDbLine
 10
4.900000121918309
 20
88.20000090088797
 30
0.0
 11
15.50000012191822
 21
88.20000090088797
 31
0.0
  0
LINE
  5
2D9
330
2A5
100
AcDbEntity
  8
0
  6
Continuous
100
AcDbLine
 10
4.900000121918309
 20
155.8000009008874
 30
0.0
 11
4.900000121918309
 21
122.8000009008874
 31
0.0
  0
LINE
  5
2DA
330
2A5
100
AcDbEntity
  8
0
  6
Continuous
100
AcDbLine
 10
14.80000012191793
 20
155.8000009008874
 30
0.0
 11
14.80000012191793
 21
147.8000009008874
 31
0.0
  0
LINE
  5
2DB
330
2A5
100
AcDbEntity
  8
0
  6
Continuous
100
AcDbLine
 10
14.20000012191803
 20
139.6000009008875
 30
0.0
 11
14.20000012191803
 21
122.8000009008874
 31
0.0
  0
LINE
  5
2DC
330
2A5
100
AcDbEntity
  8
0
  6
Continuous
100
AcDbLine
 10
4.900000121918309
 20
118.9000009008877
 30
0.0
 11
17.50000012191821
 21
118.9000009008877
 31
0.0
  0
LINE
  5
2DD
330
2A5
100
AcDbEntity
  8
0
  6
Continuous
100
AcDbLine
 10
4.900000121918309
 20
122.8000009008874
 30
0.0
 11
14.20000012191803
 21
122.8000009008874
 31
0.0
  0
LINE
  5
2DE
330
2A5
100
AcDbEntity
  8
0
  6
Continuous
100
AcDbLine
 10
17.80000012191794
 20
147.8000009008874
 30
0.0
 11
17.80000012191794
 21
139.6000009008875
 31
0.0
  0
LINE
  5
2DF
330
2A5
100
AcDbEntity
  8
0
  6
Continuous
100
AcDbLine
 10
14.20000012191803
 20
139.6000009008875
 30
0.0
 11
17.80000012191794
 21
139.6000009008875
 31
0.0
  0
LINE
  5
2E0
330
2A5
100
AcDbEntity
  8
0
  6
Continuous
100
AcDbLine
 10
14.80000012191793
 20
147.8000009008874
 30
0.0
 11
17.80000012191794
 21
147.8000009008874
 31
0.0
  0
CIRCLE
  5
2E1
330
2A5
100
AcDbEntity
  8
0
  6
Continuous
100
AcDbCircle
 10
13.50000012191822
 20
164.5000009008875
 30
0.0
 40
1.399999999999999
  0
CIRCLE
  5
2E2
330
2A5
100
AcDbEntity
  8
0
  6
Continuous
100
AcDbCircle
 10
8.40000012191831
 20
164.5000009008875
 30
0.0
 40
1.399999999999999
  0
CIRCLE
  5
2E3
330
2A5
100
AcDbEntity
  8
0
  6
Continuous
100
AcDbCircle
 10
13.50000012191822
 20
159.7000009008879
 30
0.0
 40
1.399999999999999
  0
LINE
  5
2E4
330
2A5
100
AcDbEntity
  8
0
  6
Continuous
100
AcDbLine
 10
14.80000012191793
 20
155.8000009008874
 30
0.0
 11
4.900000121918309
 21
155.8000009008874
 31
0.0
  0
CIRCLE
  5
2E5
330
2A5
100
AcDbEntity
  8
0
  6
Continuous
100
AcDbCircle
 10
8.40000012191831
 20
159.7000009008879
 30
0.0
 40
1.399999999999999
  0
LINE
  5
2E6
330
2A5
100
AcDbEntity
  8
0
  6
Continuous
100
AcDbLine
 10
41.90000012191922
 20
84.20000090088752
 30
0.0
 11
41.90000012191922
 21
49.5000009008877
 31
0.0
  0
ARC
  5
2E7
330
2A5
100
AcDbEntity
  8
0
  6
Continuous
100
AcDbCircle
 10
-3.999999999998181
 20
14.70000106023189
 30
0.0
 40
6.899999999995542
100
AcDbArc
 50
0.0
 51
54.56984163989043
  0
LINE
  5
2E8
330
2A5
100
AcDbEntity
  8
0
100
AcDbLine
 10
28.59985163883129
 20
112.0199993142769
 30
0.0
 11
36.59985163883129
 21
112.0199993142769
 31
0.0
  0
ARC
  5
2E9
330
2A5
100
AcDbEntity
  8
0
100
AcDbCircle
 10
39.59985163883128
 20
115.5199993142767
 30
0.0
 40
1.0
100
AcDbArc
 50
270.0
 51
0.0
  0
LINE
  5
2EA
330
2A5
100
AcDbEntity
  8
0
100
AcDbLine
 10
40.59985163883129
 20
115.5199993142767
 30
0.0
 11
40.59985163883129
 21
120.5199993142769
 31
0.0
  0
ARC
  5
2EB
330
2A5
100
AcDbEntity
  8
0
100
AcDbCircle
 10
39.59985163883128
 20
120.5199993142769
 30
0.0
 40
1.0
100
AcDbArc
 50
0.0
 51
90.0
  0
LINE
  5
2EC
330
2A5
100
AcDbEntity
  8
0
100
AcDbLine
 10
28.09985163883129
 20
112.0199993142769
 30
0.0
 11
37.09985163883128
 21
112.0199993142769
 31
0.0
  0
LINE
  5
2ED
330
2A5
100
AcDbEntity
  8
0
100
AcDbLine
 10
39.09985163883084
 20
114.5199993142767
 30
0.0
 11
39.59985163883128
 21
114.5199993142767
 31
0.0
  0
ARC
  5
2EE
330
2A5
100
AcDbEntity
  8
0
100
AcDbCircle
 10
39.59985163883128
 20
115.5199993142767
 30
0.0
 40
1.0
100
AcDbArc
 50
270.0
 51
0.0
  0
LINE
  5
2EF
330
2A5
100
AcDbEntity
  8
0
100
AcDbLine
 10
40.59985163883129
 20
115.5199993142767
 30
0.0
 11
40.59985163883129
 21
120.5199993142769
 31
0.0
  0
ARC
  5
2F0
330
2A5
100
AcDbEntity
  8
0
100
AcDbCircle
 10
39.59985163883128
 20
120.5199993142769
 30
0.0
 40
1.0
100
AcDbArc
 50
0.0
 51
90.0
  0
LINE
  5
2F1
330
2A5
100
AcDbEntity
  8
0
100
AcDbLine
 10
39.59985163883128
 20
121.5199993142769
 30
0.0
 11
39.09985163883175
 21
121.5199993142769
 31
0.0
  0
LINE
  5
2F2
330
2A5
100
AcDbEntity
  8
0
100
AcDbLine
 10
38.09985163883175
 20
122.5199993142769
 30
0.0
 11
38.09985163883128
 21
124.0199993142767
 31
0.0
  0
LINE
  5
2F3
330
2A5
100
AcDbEntity
  8
0
100
AcDbLine
 10
37.09985163883128
 20
125.0199993142767
 30
0.0
 11
28.09985163883129
 21
125.0199993142767
 31
0.0
  0
LINE
  5
2F4
330
2A5
100
AcDbEntity
  8
0
100
AcDbLine
 10
27.09985163883129
 20
124.0199993142767
 30
0.0
 11
27.09985163883129
 21
113.0199993142769
 31
0.0
  0
LINE
  5
2F5
330
2A5
100
AcDbEntity
  8
0
 48
5.0
100
AcDbLine
 10
38.09985163883084
 20
113.5199993142767
 30
0.0
 11
38.09985163883128
 21
113.0199993142769
 31
0.0
  0
ARC
  5
2F6
330
2A5
100
AcDbEntity
  8
0
100
AcDbCircle
 10
28.09985163883129
 20
124.0199993142767
 30
0.0
 40
1.0
100
AcDbArc
 50
90.0
 51
180.0
  0
ARC
  5
2F7
330
2A5
100
AcDbEntity
  8
0
100
AcDbCircle
 10
28.09985163883129
 20
113.0199993142769
 30
0.0
 40
1.0
100
AcDbArc
 50
180.0
 51
270.0
  0
ARC
  5
2F8
330
2A5
100
AcDbEntity
  8
0
100
AcDbCircle
 10
37.09985163883128
 20
124.0199993142767
 30
0.0
 40
1.0
100
AcDbArc
 50
0.0
 51
90.0
  0
ARC
  5
2F9
330
2A5
100
AcDbEntity
  8
0
100
AcDbCircle
 10
37.09985163883128
 20
113.0199993142769
 30
0.0
 40
1.0
100
AcDbArc
 50
270.0
 51
0.0
  0
ARC
  5
2FA
330
2A5
100
AcDbEntity
  8
0
100
AcDbCircle
 10
39.09985163883084
 20
113.5199993142767
 30
0.0
 40
1.0
100
AcDbArc
 50
90.0
 51
180.0
  0
ARC
  5
2FB
330
2A5
100
AcDbEntity
  8
0
100
AcDbCircle
 10
39.09985163883175
 20
122.5199993142769
 30
0.0
 40
1.0
100
AcDbArc
 50
180.0
 51
270.0
  0
LINE
  5
2FC
330
2A5
100
AcDbEntity
  8
0
100
AcDbLine
 10
28.59985163883038
 20
105.2299993142764
 30
0.0
 11
36.59985163883038
 21
105.2299993142764
 31
0.0
  0
ARC
  5
2FD
330
2A5
100
AcDbEntity
  8
0
100
AcDbCircle
 10
39.59985163883038
 20
101.7299993142764
 30
0.0
 40
1.0
100
AcDbArc
 50
0.0
 51
90.0
  0
LINE
  5
2FE
330
2A5
100
AcDbEntity
  8
0
100
AcDbLine
 10
40.59985163883037
 20
101.7299993142764
 30
0.0
 11
40.59985163883037
 21
96.72999931427648
 31
0.0
  0
ARC
  5
2FF
330
2A5
100
AcDbEntity
  8
0
100
AcDbCircle
 10
39.59985163883038
 20
96.72999931427648
 30
0.0
 40
1.0
100
AcDbArc
 50
270.0
 51
0.0
  0
LINE
  5
300
330
2A5
100
AcDbEntity
  8
0
100
AcDbLine
 10
28.09985163883037
 20
105.2299993142764
 30
0.0
 11
37.09985163883038
 21
105.2299993142764
 31
0.0
  0
LINE
  5
301
330
2A5
100
AcDbEntity
  8
0
100
AcDbLine
 10
39.09985163882992
 20
102.7299993142764
 30
0.0
 11
39.59985163883038
 21
102.7299993142764
 31
0.0
  0
ARC
  5
302
330
2A5
100
AcDbEntity
  8
0
100
AcDbCircle
 10
39.59985163883038
 20
101.7299993142764
 30
0.0
 40
1.0
100
AcDbArc
 50
0.0
 51
90.0
  0
LINE
  5
303
330
2A5
100
AcDbEntity
  8
0
100
AcDbLine
 10
40.59985163883037
 20
101.7299993142764
 30
0.0
 11
40.59985163883037
 21
96.72999931427648
 31
0.0
  0
ARC
  5
304
330
2A5
100
AcDbEntity
  8
0
100
AcDbCircle
 10
39.59985163883038
 20
96.72999931427648
 30
0.0
 40
1.0
100
AcDbArc
 50
270.0
 51
0.0
  0
LINE
  5
305
330
2A5
100
AcDbEntity
  8
0
100
AcDbLine
 10
39.59985163883038
 20
95.72999931427649
 30
0.0
 11
39.09985163883084
 21
95.72999931427649
 31
0.0
  0
LINE
  5
306
330
2A5
100
AcDbEntity
  8
0
100
AcDbLine
 10
38.09985163883084
 20
94.72999931427649
 30
0.0
 11
38.09985163883037
 21
93.22999931427649
 31
0.0
  0
LINE
  5
307
330
2A5
100
AcDbEntity
  8
0
100
AcDbLine
 10
37.09985163883038
 20
92.22999931427649
 30
0.0
 11
28.09985163883037
 21
92.22999931427649
 31
0.0
  0
LINE
  5
308
330
2A5
100
AcDbEntity
  8
0
100
AcDbLine
 10
27.09985163883038
 20
93.22999931427649
 30
0.0
 11
27.09985163883038
 21
104.2299993142764
 31
0.0
  0
LINE
  5
309
330
2A5
100
AcDbEntity
  8
0
 48
5.0
100
AcDbLine
 10
38.09985163882992
 20
103.7299993142764
 30
0.0
 11
38.09985163883037
 21
104.2299993142764
 31
0.0
  0
ARC
  5
30A
330
2A5
100
AcDbEntity
  8
0
100
AcDbCircle
 10
28.09985163883037
 20
93.22999931427649
 30
0.0
 40
1.0
100
AcDbArc
 50
180.0
 51
270.0
  0
ARC
  5
30B
330
2A5
100
AcDbEntity
  8
0
100
AcDbCircle
 10
28.09985163883037
 20
104.2299993142764
 30
0.0
 40
1.0
100
AcDbArc
 50
90.0
 51
180.0
  0
ARC
  5
30C
330
2A5
100
AcDbEntity
  8
0
100
AcDbCircle
 10
37.09985163883038
 20
93.22999931427649
 30
0.0
 40
1.0
100
AcDbArc
 50
270.0
 51
0.0
  0
ARC
  5
30D
330
2A5
100
AcDbEntity
  8
0
100
AcDbCircle
 10
37.09985163883038
 20
104.2299993142764
 30
0.0
 40
1.0
100
AcDbArc
 50
0.0
 51
90.0
  0
ARC
  5
30E
330
2A5
100
AcDbEntity
  8
0
100
AcDbCircle
 10
39.09985163882992
 20
103.7299993142764
 30
0.0
 40
1.0
100
AcDbArc
 50
180.0
 51
270.0
  0
ARC
  5
30F
330
2A5
100
AcDbEntity
  8
0
100
AcDbCircle
 10
39.09985163883084
 20
94.72999931427649
 30
0.0
 40
1.0
100
AcDbArc
 50
90.0
 51
180.0
  0
LINE
  5
310
330
2A5
100
AcDbEntity
  8
0
 62
     0
100
AcDbLine
 10
40.89985163883102
 20
135.1749993142779
 30
0.0
 11
40.89985163883102
 21
132.4749993142771
 31
0.0
  0
LINE
  5
311
330
2A5
100
AcDbEntity
  8
0
 62
     0
100
AcDbLine
 10
39.29985163883064
 20
132.4749993142771
 30
0.0
 11
39.29985163883064
 21
135.1749993142779
 31
0.0
  0
LINE
  5
312
330
2A5
100
AcDbEntity
  8
0
 62
     0
100
AcDbLine
 10
40.89985163883102
 20
135.1749993142779
 30
0.0
 11
39.29985163883064
 21
135.1749993142779
 31
0.0
  0
LINE
  5
313
330
2A5
100
AcDbEntity
  8
0
 62
     0
100
AcDbLine
 10
40.89985163883102
 20
132.4749993142771
 30
0.0
 11
39.29985163883064
 21
132.4749993142771
 31
0.0
  0
LINE
  5
314
330
2A5
100
AcDbEntity
  8
0
 62
     0
100
AcDbLine
 10
40.89985163883102
 20
129.6750033143175
 30
0.0
 11
40.89985163883102
 21
126.9750033143167
 31
0.0
  0
LINE
  5
315
330
2A5
100
AcDbEntity
  8
0
 62
     0
100
AcDbLine
 10
39.29985163883064
 20
126.9750033143167
 30
0.0
 11
39.29985163883064
 21
129.6750033143175
 31
0.0
  0
LINE
  5
316
330
2A5
100
AcDbEntity
  8
0
 62
     0
100
AcDbLine
 10
40.89985163883102
 20
129.6750033143175
 30
0.0
 11
39.29985163883064
 21
129.6750033143175
 31
0.0
  0
LINE
  5
317
330
2A5
100
AcDbEntity
  8
0
 62
     0
100
AcDbLine
 10
40.89985163883102
 20
126.9750033143167
 30
0.0
 11
39.29985163883064
 21
126.9750033143167
 31
0.0
  0
ENDBLK
  5
319
330
2A5
100
AcDbEntity
  8
0
100
AcDbBlockEnd
  0
BLOCK
  5
4BF
330
31A
100
AcDbEntity
  8
0
100
AcDbBlockBegin
  2
A$C582506EE
 70
     0
 10
0.0
 20
0.0
 30
0.0
  3
A$C582506EE
  1
A$C582506EE
  0
LINE
  5
31B
330
31A
100
AcDbEntity
  8
0
100
AcDbLine
 10
7.730001379685289
 20
29.59999664164252
 30
0.0
 11
7.380001379684927
 21
29.59999664164252
 31
0.0
  0
LINE
  5
31C
330
31A
100
AcDbEntity
  8
0
100
AcDbLine
 10
7.730001379685289
 20
9.809996641642555
 30
0.0
 11
7.380001379684927
 21
9.809996641642555
 31
0.0
  0
LINE
  5
31D
330
31A
100
AcDbEntity
  8
0
100
AcDbLine
 10
6.780001379684562
 20
7.859996641642737
 30
0.0
 11
7.730001379685289
 21
7.859996641642737
 31
0.0
  0
ARC
  5
31E
330
31A
100
AcDbEntity
  8
0
100
AcDbCircle
 10
7.330001379684745
 20
9.009996641642372
 30
0.0
 40
0.4
100
AcDbArc
 50
270.0
 51
0.0
  0
LINE
  5
31F
330
31A
100
AcDbEntity
  8
0
100
AcDbLine
 10
7.730001379685289
 20
9.609996641642736
 30
0.0
 11
7.380001379684927
 21
9.609996641642736
 31
0.0
  0
LINE
  5
320
330
31A
100
AcDbEntity
  8
0
100
AcDbLine
 10
7.250001379684817
 20
8.559996641642554
 30
0.0
 11
7.730001379685289
 21
8.559996641642554
 31
0.0
  0
ARC
  5
321
330
31A
100
AcDbEntity
  8
0
100
AcDbCircle
 10
7.330001379684745
 20
0.7999966416423378
 30
0.0
 40
0.4
100
AcDbArc
 50
0.0
 51
90.0
  0
LINE
  5
322
330
31A
100
AcDbEntity
  8
0
100
AcDbLine
 10
7.250001379684817
 20
1.249996641642155
 30
0.0
 11
7.730001379685289
 21
1.249996641642155
 31
0.0
  0
LINE
  5
323
330
31A
100
AcDbEntity
  8
0
100
AcDbLine
 10
7.380001379684927
 20
0.1999966416428833
 30
0.0
 11
7.730001379685289
 21
0.1999966416428833
 31
0.0
  0
LINE
  5
324
330
31A
100
AcDbEntity
  8
0
100
AcDbLine
 10
7.380001379684927
 20
-0.0000033583578443
 30
0.0
 11
7.730001379685289
 21
-0.0000033583578443
 31
0.0
  0
LINE
  5
325
330
31A
100
AcDbEntity
  8
0
100
AcDbLine
 10
7.730001379685289
 20
1.949996641642883
 30
0.0
 11
6.780001379684562
 21
1.949996641642883
 31
0.0
  0
LINE
  5
326
330
31A
100
AcDbEntity
  8
0
100
AcDbLine
 10
7.360001379684489
 20
4.204996641642082
 30
0.0
 11
7.730001379685289
 21
4.204996641642082
 31
0.0
  0
LINE
  5
327
330
31A
100
AcDbEntity
  8
0
100
AcDbLine
 10
7.730001379685289
 20
5.604996641642627
 30
0.0
 11
7.360001379684489
 21
5.604996641642627
 31
0.0
  0
LINE
  5
328
330
31A
100
AcDbEntity
  8
0
100
AcDbLine
 10
7.360001379684489
 20
5.304996641642446
 30
0.0
 11
7.730001379685289
 21
5.304996641642446
 31
0.0
  0
LINE
  5
329
330
31A
100
AcDbEntity
  8
0
100
AcDbLine
 10
7.360001379684489
 20
4.504996641642263
 30
0.0
 11
7.730001379685289
 21
4.504996641642263
 31
0.0
  0
LINE
  5
32A
330
31A
100
AcDbEntity
  8
0
100
AcDbLine
 10
7.730001379685289
 20
25.39499664164258
 30
0.0
 11
7.360001379684489
 21
25.39499664164258
 31
0.0
  0
LINE
  5
32B
330
31A
100
AcDbEntity
  8
0
100
AcDbLine
 10
7.360001379684489
 20
25.0949966416424
 30
0.0
 11
7.730001379685289
 21
25.0949966416424
 31
0.0
  0
LINE
  5
32C
330
31A
100
AcDbEntity
  8
0
100
AcDbLine
 10
6.780001379684562
 20
27.64999664164179
 30
0.0
 11
7.730001379685289
 21
27.64999664164179
 31
0.0
  0
ARC
  5
32D
330
31A
100
AcDbEntity
  8
0
100
AcDbCircle
 10
7.330001379684745
 20
28.79999664164234
 30
0.0
 40
0.4
100
AcDbArc
 50
270.0
 51
0.0
  0
LINE
  5
32E
330
31A
100
AcDbEntity
  8
0
100
AcDbLine
 10
7.730001379685289
 20
29.39999664164179
 30
0.0
 11
7.380001379684927
 21
29.39999664164179
 31
0.0
  0
LINE
  5
32F
330
31A
100
AcDbEntity
  8
0
100
AcDbLine
 10
7.250001379684817
 20
28.34999664164252
 30
0.0
 11
7.730001379685289
 21
28.34999664164252
 31
0.0
  0
ARC
  5
330
330
31A
100
AcDbEntity
  8
0
100
AcDbCircle
 10
7.330001379684745
 20
20.5899966416423
 30
0.0
 40
0.4
100
AcDbArc
 50
0.0
 51
90.0
  0
LINE
  5
331
330
31A
100
AcDbEntity
  8
0
100
AcDbLine
 10
7.250001379684817
 20
21.03999664164212
 30
0.0
 11
7.730001379685289
 21
21.03999664164212
 31
0.0
  0
LINE
  5
332
330
31A
100
AcDbEntity
  8
0
100
AcDbLine
 10
7.380001379684927
 20
19.98999664164193
 30
0.0
 11
7.730001379685289
 21
19.98999664164193
 31
0.0
  0
LINE
  5
333
330
31A
100
AcDbEntity
  8
0
100
AcDbLine
 10
7.380001379684927
 20
19.7899966416421
 30
0.0
 11
7.730001379685289
 21
19.7899966416421
 31
0.0
  0
LINE
  5
334
330
31A
100
AcDbEntity
  8
0
100
AcDbLine
 10
7.730001379685289
 20
21.73999664164193
 30
0.0
 11
6.780001379684562
 21
21.73999664164193
 31
0.0
  0
LINE
  5
335
330
31A
100
AcDbEntity
  8
0
100
AcDbLine
 10
7.360001379684489
 20
24.29499664164223
 30
0.0
 11
7.730001379685289
 21
24.29499664164223
 31
0.0
  0
LINE
  5
336
330
31A
100
AcDbEntity
  8
0
100
AcDbLine
 10
7.360001379684489
 20
23.99499664164204
 30
0.0
 11
7.730001379685289
 21
23.99499664164204
 31
0.0
  0
LINE
  5
337
330
31A
100
AcDbEntity
  8
0
100
AcDbLine
 10
7.730001379685289
 20
1.249996641642155
 30
0.0
 11
7.730001379685289
 21
8.559996641642554
 31
0.0
  0
LINE
  5
338
330
31A
100
AcDbEntity
  8
0
100
AcDbLine
 10
7.730001379685289
 20
21.03999664164212
 30
0.0
 11
7.730001379685289
 21
28.34999664164252
 31
0.0
  0
LINE
  5
339
330
31A
100
AcDbEntity
  8
0
100
AcDbLine
 10
7.730001379685289
 20
28.79999664164234
 30
0.0
 11
7.730001379685289
 21
29.59999664164252
 31
0.0
  0
LINE
  5
33A
330
31A
100
AcDbEntity
  8
0
100
AcDbLine
 10
7.730001379685289
 20
9.009996641642372
 30
0.0
 11
7.730001379685289
 21
9.809996641642555
 31
0.0
  0
LINE
  5
33B
330
31A
100
AcDbEntity
  8
0
100
AcDbLine
 10
7.730001379685289
 20
19.7899966416421
 30
0.0
 11
7.730001379685289
 21
20.5899966416423
 31
0.0
  0
LINE
  5
33C
330
31A
100
AcDbEntity
  8
0
100
AcDbLine
 10
7.730001379685289
 20
-0.0000033583578443
 30
0.0
 11
7.730001379685289
 21
0.7999966416423378
 31
0.0
  0
LINE
  5
33D
330
31A
100
AcDbEntity
  8
0
100
AcDbLine
 10
4.166515116909521
 20
8.2416630610428
 30
0.0
 11
4.680001379685108
 21
8.609996641642737
 31
0.0
  0
LINE
  5
33E
330
31A
100
AcDbEntity
  8
0
100
AcDbLine
 10
0.680001379685109
 20
8.509996641642374
 30
0.0
 11
0.680001379685109
 21
7.994996641642045
 31
0.0
  0
LINE
  5
33F
330
31A
100
AcDbEntity
  8
0
100
AcDbLine
 10
1.030001379684563
 20
6.654996641642809
 30
0.0
 11
1.030001379684563
 21
8.509996641642374
 31
0.0
  0
LINE
  5
340
330
31A
100
AcDbEntity
  8
0
100
AcDbLine
 10
3.193487642459786
 20
8.2416630610428
 30
0.0
 11
2.701770289134855
 21
8.594381383842572
 31
0.0
  0
ARC
  5
341
330
31A
100
AcDbEntity
  8
0
100
AcDbCircle
 10
1.680001379685108
 20
8.059996641642554
 30
0.0
 40
0.5
100
AcDbArc
 50
90.0
 51
180.0
  0
LINE
  5
342
330
31A
100
AcDbEntity
  8
0
100
AcDbLine
 10
5.230001379685289
 20
8.554996641642446
 30
0.0
 11
6.230001379685289
 21
7.554996641642446
 31
0.0
  0
LINE
  5
343
330
31A
100
AcDbEntity
  8
0
100
AcDbLine
 10
6.680001379685107
 20
7.204996641642082
 30
0.0
 11
6.680001379685107
 21
8.509996641642374
 31
0.0
  0
LINE
  5
344
330
31A
100
AcDbEntity
  8
0
100
AcDbLine
 10
7.250001379684817
 20
7.859996641642737
 30
0.0
 11
7.250001379684817
 21
8.559996641642554
 31
0.0
  0
LINE
  5
345
330
31A
100
AcDbEntity
  8
0
100
AcDbLine
 10
4.390001379685145
 20
23.90999664164201
 30
0.0
 11
4.390001379685145
 21
22.93999664164175
 31
0.0
  0
LINE
  5
346
330
31A
100
AcDbEntity
  8
0
100
AcDbLine
 10
2.970001379685071
 20
23.90999664164201
 30
0.0
 11
2.970001379685071
 21
22.93999664164175
 31
0.0
  0
LINE
  5
347
330
31A
100
AcDbEntity
  8
0
100
AcDbLine
 10
4.290001379684781
 20
27.09999664164252
 30
0.0
 11
4.290001379684781
 21
22.28999664164212
 31
0.0
  0
LINE
  5
348
330
31A
100
AcDbEntity
  8
0
100
AcDbLine
 10
0.3000013796849998
 20
23.24499664164203
 30
0.0
 11
0.3000013796849998
 21
26.14499664164259
 31
0.0
  0
LINE
  5
349
330
31A
100
AcDbEntity
  8
0
100
AcDbLine
 10
0.3409535863352175
 20
23.24499664164203
 30
0.0
 11
0.3409535863352175
 21
26.14499664164259
 31
0.0
  0
LINE
  5
34A
330
31A
100
AcDbEntity
  8
0
100
AcDbLine
 10
1.230001379685289
 20
22.94499664164186
 30
0.0
 11
1.230001379685289
 21
26.44499664164186
 31
0.0
  0
LINE
  5
34B
330
31A
100
AcDbEntity
  8
0
100
AcDbLine
 10
1.48000137968529
 20
28.04999664164233
 30
0.0
 11
1.48000137968529
 21
21.3399966416423
 31
0.0
  0
LINE
  5
34C
330
31A
100
AcDbEntity
  8
0
100
AcDbLine
 10
3.070001379684526
 20
27.09999664164252
 30
0.0
 11
3.070001379684526
 21
22.28999664164212
 31
0.0
  0
LINE
  5
34D
330
31A
100
AcDbEntity
  8
0
100
AcDbLine
 10
6.330001379684745
 20
22.04499664164222
 30
0.0
 11
6.330001379684745
 21
27.3449966416424
 31
0.0
  0
LINE
  5
34E
330
31A
100
AcDbEntity
  8
0
100
AcDbLine
 10
7.025227675959739
 20
26.99499664164203
 30
0.0
 11
7.025227675959739
 21
22.39499664164259
 31
0.0
  0
LINE
  5
34F
330
31A
100
AcDbEntity
  8
0
100
AcDbLine
 10
7.360001379684489
 20
26.69499664164186
 30
0.0
 11
7.360001379684489
 21
22.69499664164186
 31
0.0
  0
LINE
  5
350
330
31A
100
AcDbEntity
  8
0
100
AcDbLine
 10
4.730001379685289
 20
29.42999664164244
 30
0.0
 11
1.830001379684745
 21
29.42999664164244
 31
0.0
  0
LINE
  5
351
330
31A
100
AcDbEntity
  8
0
100
AcDbLine
 10
4.166515116909521
 20
28.03166306104185
 30
0.0
 11
3.193487642459786
 21
28.03166306104185
 31
0.0
  0
LINE
  5
352
330
31A
100
AcDbEntity
  8
0
100
AcDbLine
 10
4.161873148035283
 20
28.0299966416419
 30
0.0
 11
3.198129611334933
 21
28.0299966416419
 31
0.0
  0
LINE
  5
353
330
31A
100
AcDbEntity
  8
0
100
AcDbLine
 10
2.970001379685071
 20
27.29999664164234
 30
0.0
 11
4.390001379685145
 21
27.29999664164234
 31
0.0
  0
LINE
  5
354
330
31A
100
AcDbEntity
  8
0
100
AcDbLine
 10
3.070001379684526
 20
27.09999664164252
 30
0.0
 11
4.290001379684781
 21
27.09999664164252
 31
0.0
  0
LINE
  5
355
330
31A
100
AcDbEntity
  8
0
100
AcDbLine
 10
4.390001379685145
 20
26.44999664164197
 30
0.0
 11
4.390001379685145
 21
25.47999664164263
 31
0.0
  0
LINE
  5
356
330
31A
100
AcDbEntity
  8
0
100
AcDbLine
 10
4.34158923220957
 20
25.47999664164263
 30
0.0
 11
4.739952662760059
 21
25.47999664164263
 31
0.0
  0
LINE
  5
357
330
31A
100
AcDbEntity
  8
0
100
AcDbLine
 10
4.34158923220957
 20
25.17999664164245
 30
0.0
 11
4.34158923220957
 21
25.47999664164263
 31
0.0
  0
LINE
  5
358
330
31A
100
AcDbEntity
  8
0
100
AcDbLine
 10
4.488572808259505
 20
25.17999664164245
 30
0.0
 11
4.488572808259505
 21
25.47999664164263
 31
0.0
  0
LINE
  5
359
330
31A
100
AcDbEntity
  8
0
100
AcDbLine
 10
4.34158923220957
 20
25.17999664164245
 30
0.0
 11
4.739952662760059
 21
25.17999664164245
 31
0.0
  0
LINE
  5
35A
330
31A
100
AcDbEntity
  8
0
100
AcDbLine
 10
4.740001379684598
 20
25.17999664164245
 30
0.0
 11
4.740001379684598
 21
25.47999664164263
 31
0.0
  0
LINE
  5
35B
330
31A
100
AcDbEntity
  8
0
100
AcDbLine
 10
4.390001379685145
 20
27.29999664164234
 30
0.0
 11
4.390001379685145
 21
26.74999664164214
 31
0.0
  0
LINE
  5
35C
330
31A
100
AcDbEntity
  8
0
100
AcDbLine
 10
4.34158923220957
 20
26.74999664164214
 30
0.0
 11
4.739952662760059
 21
26.74999664164214
 31
0.0
  0
LINE
  5
35D
330
31A
100
AcDbEntity
  8
0
100
AcDbLine
 10
4.34158923220957
 20
26.44999664164197
 30
0.0
 11
4.739952662760059
 21
26.44999664164197
 31
0.0
  0
LINE
  5
35E
330
31A
100
AcDbEntity
  8
0
100
AcDbLine
 10
4.34158923220957
 20
26.44999664164197
 30
0.0
 11
4.34158923220957
 21
26.74999664164214
 31
0.0
  0
LINE
  5
35F
330
31A
100
AcDbEntity
  8
0
100
AcDbLine
 10
4.488572808259505
 20
26.44999664164197
 30
0.0
 11
4.488572808259505
 21
26.74999664164214
 31
0.0
  0
LINE
  5
360
330
31A
100
AcDbEntity
  8
0
100
AcDbLine
 10
4.740001379684598
 20
26.44999664164197
 30
0.0
 11
4.740001379684598
 21
26.74999664164214
 31
0.0
  0
LINE
  5
361
330
31A
100
AcDbEntity
  8
0
100
AcDbLine
 10
4.390001379685145
 20
27.29999664164234
 30
0.0
 11
4.290001379684781
 21
27.09999664164252
 31
0.0
  0
LINE
  5
362
330
31A
100
AcDbEntity
  8
0
100
AcDbLine
 10
4.161819134534653
 20
28.0300507838424
 30
0.0
 11
4.166515116909521
 21
28.03166306104185
 31
0.0
  0
LINE
  5
363
330
31A
100
AcDbEntity
  8
0
100
AcDbLine
 10
4.166515116909521
 20
28.03166306104185
 30
0.0
 11
4.680001379685108
 21
28.39999664164178
 31
0.0
  0
ARC
  5
364
330
31A
100
AcDbEntity
  8
0
100
AcDbCircle
 10
0.3000013796849998
 20
27.48499664164274
 30
0.0
 40
0.3
100
AcDbArc
 50
90.0
 51
180.0
  0
LINE
  5
365
330
31A
100
AcDbEntity
  8
0
100
AcDbLine
 10
0.680001379685109
 20
28.29999664164232
 30
0.0
 11
0.680001379685109
 21
27.78499664164201
 31
0.0
  0
LINE
  5
366
330
31A
100
AcDbEntity
  8
0
100
AcDbLine
 10
1.030001379684563
 20
26.44499664164186
 30
0.0
 11
1.030001379684563
 21
28.29999664164232
 31
0.0
  0
LINE
  5
367
330
31A
100
AcDbEntity
  8
0
100
AcDbLine
 10
1.180001379685107
 20
27.84999664164252
 30
0.0
 11
1.180001379685107
 21
26.44499664164186
 31
0.0
  0
SPLINE
  5
368
330
31A
100
AcDbEntity
  8
0
100
AcDbSpline
210
0.0
220
0.0
230
1.0
 70
     8
 71
     3
 72
    15
 73
    11
 74
     9
 42
0.0000000001
 43
0.0000000001
 44
0.0000000001
 12
-1.0
 22
0.0000000000000003
 32
0.0
 13
-0.0000000000000003
 23
-1.0
 33
0.0
 40
0.0
 40
0.0
 40
0.0
 40
0.0
 40
0.0549104034383476
 40
0.1112943695380119
 40
0.1688458398557621
 40
0.2272617165085032
 40
0.286189130145604
 40
0.3453715916121502
 40
0.4047062933587143
 40
0.4640323935828296
 40
0.4640323935828296
 40
0.4640323935828296
 40
0.4640323935828296
 10
0.6335375942103383
 20
26.44499664164186
 30
0.0
 10
0.6152341263975557
 20
26.44499664164186
 30
0.0
 10
0.5780376369881786
 20
26.4412532377659
 30
0.0
 10
0.5239010772917299
 20
26.42463025459774
 30
0.0
 10
0.4730043104716765
 20
26.39718646788168
 30
0.0
 10
0.4277546370649362
 20
26.35984219381551
 30
0.0
 10
0.3902612208789426
 20
26.3140092466633
 30
0.0
 10
0.3622024247632167
 20
26.2615062028242
 30
0.0
 10
0.3448735061397653
 20
26.20443393884814
 30
0.0
 10
0.3409535863352175
 20
26.16477200838396
 30
0.0
 10
0.3409535863352175
 20
26.14499664164259
 30
0.0
 11
0.6335375942103383
 21
26.44499664164186
 31
0.0
 11
0.5788983036850368
 21
26.4395468401176
 31
0.0
 11
0.5249818861097994
 21
26.4230492175925
 31
0.0
 11
0.4743044359852321
 21
26.39577344474173
 31
0.0
 11
0.4292342559351711
 21
26.35861037819222
 31
0.0
 11
0.391910911035211
 21
26.31300985184179
 31
0.0
 11
0.3640200186596303
 21
26.26081155811744
 31
0.0
 11
0.3467835206852214
 21
26.20403559516716
 31
0.0
 11
0.3409535863352175
 21
26.14499664164259
 31
0.0
  0
SPLINE
  5
369
330
31A
100
AcDbEntity
  8
0
100
AcDbSpline
210
0.0
220
0.0
230
1.0
 70
     8
 71
     3
 72
    15
 73
    11
 74
     9
 42
0.0000000001
 43
0.0000000001
 44
0.0000000001
 12
0.0000000000000003
 22
1.0
 32
0.0
 13
1.0
 23
-0.0000000000000003
 33
0.0
 40
0.0
 40
0.0
 40
0.0
 40
0.0
 40
0.0601976440144101
 40
0.1203434046987037
 40
0.1802921062117115
 40
0.2397999660839125
 40
0.2983669952289761
 40
0.3552634378523413
 40
0.4097143636444935
 40
0.4611969379708662
 40
0.4611969379708662
 40
0.4611969379708662
 40
0.4611969379708662
 10
0.3000013796849998
 20
26.14499664164259
 30
0.0
 10
0.3000013796849998
 20
26.16506252298072
 30
0.0
 10
0.3040322359781412
 20
26.20529065598226
 30
0.0
 10
0.3218421192807473
 20
26.26308352409739
 30
0.0
 10
0.3505584473514842
 20
26.31606209040948
 30
0.0
 10
0.3887041939523556
 20
26.36201269892053
 30
0.0
 10
0.434248948293975
 20
26.39903800023683
 30
0.0
 10
0.4846131778883193
 20
26.42573755708336
 30
0.0
 10
0.5368957597006462
 20
26.4414950738564
 30
0.0
 10
0.5722928914012941
 20
26.44499664164186
 30
0.0
 10
0.5894537495100849
 20
26.44499664164186
 30
0.0
 11
0.3000013796849998
 21
26.14499664164259
 31
0.0
 11
0.3059999391348356
 21
26.20489466856679
 31
0.0
 11
0.3237022014350259
 21
26.26237633901701
 31
0.0
 11
0.3522651082598713
 21
26.315083142817
 31
0.0
 11
0.3902861203600878
 21
26.36086073586692
 31
0.0
 11
0.4357565575351147
 21
26.3977732844919
 31
0.0
 11
0.486055504560227
 21
26.42436691364173
 31
0.0
 11
0.5382143252850256
 21
26.43999895574188
 31
0.0
 11
0.5894537495100849
 21
26.44499664164186
 31
0.0
  0
LINE
  5
36A
330
31A
100
AcDbEntity
  8
0
100
AcDbLine
 10
0.3000013796849998
 20
27.78499664164201
 30
0.0
 11
1.030001379684563
 21
27.78499664164201
 31
0.0
  0
LINE
  5
36B
330
31A
100
AcDbEntity
  8
0
100
AcDbLine
 10
0.3000013796849998
 20
26.79499664164223
 30
0.0
 11
1.030001379684563
 21
26.79499664164223
 31
0.0
  0
LINE
  5
36C
330
31A
100
AcDbEntity
  8
0
100
AcDbLine
 10
2.970001379685071
 20
26.44999664164197
 30
0.0
 11
2.970001379685071
 21
25.47999664164263
 31
0.0
  0
LINE
  5
36D
330
31A
100
AcDbEntity
  8
0
100
AcDbLine
 10
2.620001379684707
 20
25.17999664164245
 30
0.0
 11
2.620001379684707
 21
25.47999664164263
 31
0.0
  0
LINE
  5
36E
330
31A
100
AcDbEntity
  8
0
100
AcDbLine
 10
2.871429951109803
 20
25.17999664164245
 30
0.0
 11
2.871429951109803
 21
25.47999664164263
 31
0.0
  0
LINE
  5
36F
330
31A
100
AcDbEntity
  8
0
100
AcDbLine
 10
3.018413527159736
 20
25.17999664164245
 30
0.0
 11
3.018413527159736
 21
25.47999664164263
 31
0.0
  0
LINE
  5
370
330
31A
100
AcDbEntity
  8
0
100
AcDbLine
 10
2.620050096610156
 20
25.47999664164263
 30
0.0
 11
3.018413527159736
 21
25.47999664164263
 31
0.0
  0
LINE
  5
371
330
31A
100
AcDbEntity
  8
0
100
AcDbLine
 10
2.620050096610156
 20
25.17999664164245
 30
0.0
 11
3.018413527159736
 21
25.17999664164245
 31
0.0
  0
LINE
  5
372
330
31A
100
AcDbEntity
  8
0
100
AcDbLine
 10
2.970001379685071
 20
27.29999664164234
 30
0.0
 11
2.970001379685071
 21
26.74999664164214
 31
0.0
  0
LINE
  5
373
330
31A
100
AcDbEntity
  8
0
100
AcDbLine
 10
2.620001379684707
 20
26.44999664164197
 30
0.0
 11
2.620001379684707
 21
26.74999664164214
 31
0.0
  0
LINE
  5
374
330
31A
100
AcDbEntity
  8
0
100
AcDbLine
 10
2.620050096610156
 20
26.74999664164214
 30
0.0
 11
3.018413527159736
 21
26.74999664164214
 31
0.0
  0
LINE
  5
375
330
31A
100
AcDbEntity
  8
0
100
AcDbLine
 10
2.871429951109803
 20
26.44999664164197
 30
0.0
 11
2.871429951109803
 21
26.74999664164214
 31
0.0
  0
LINE
  5
376
330
31A
100
AcDbEntity
  8
0
100
AcDbLine
 10
3.018413527159736
 20
26.44999664164197
 30
0.0
 11
3.018413527159736
 21
26.74999664164214
 31
0.0
  0
LINE
  5
377
330
31A
100
AcDbEntity
  8
0
100
AcDbLine
 10
2.620050096610156
 20
26.44999664164197
 30
0.0
 11
3.018413527159736
 21
26.44999664164197
 31
0.0
  0
LINE
  5
378
330
31A
100
AcDbEntity
  8
0
100
AcDbLine
 10
3.070001379684526
 20
27.09999664164252
 30
0.0
 11
2.970001379685071
 21
27.29999664164234
 31
0.0
  0
LINE
  5
379
330
31A
100
AcDbEntity
  8
0
100
AcDbLine
 10
0.680001379685109
 20
26.79499664164223
 30
0.0
 11
0.680001379685109
 21
26.44499664164186
 31
0.0
  0
LINE
  5
37A
330
31A
100
AcDbEntity
  8
0
100
AcDbLine
 10
0.6335375942094288
 20
26.44499664164186
 30
0.0
 11
1.229926632410297
 21
26.44499664164186
 31
0.0
  0
ARC
  5
37B
330
31A
100
AcDbEntity
  8
0
100
AcDbCircle
 10
0.3000013796849998
 20
27.09499664164241
 30
0.0
 40
0.3
100
AcDbArc
 50
180.0
 51
270.0
  0
LINE
  5
37C
330
31A
100
AcDbEntity
  8
0
100
AcDbLine
 10
0.3000013796849998
 20
26.14499664164259
 30
0.0
 11
0.3409535863352175
 21
26.14499664164259
 31
0.0
  0
LINE
  5
37D
330
31A
100
AcDbEntity
  8
0
100
AcDbLine
 10
0.0000013796848179
 20
27.09499664164241
 30
0.0
 11
0.0000013796848179
 21
27.48499664164183
 31
0.0
  0
LINE
  5
37E
330
31A
100
AcDbEntity
  8
0
100
AcDbLine
 10
0.3347750834095677
 20
26.79499664164223
 30
0.0
 11
0.3347750834095677
 21
27.78499664164201
 31
0.0
  0
LINE
  5
37F
330
31A
100
AcDbEntity
  8
0
100
AcDbLine
 10
1.680001379685108
 20
28.34999664164252
 30
0.0
 11
2.749705350459861
 21
28.34999664164252
 31
0.0
  0
LINE
  5
380
330
31A
100
AcDbEntity
  8
0
100
AcDbLine
 10
1.48000137968529
 20
28.04999664164233
 30
0.0
 11
3.167929175110201
 21
28.04999664164233
 31
0.0
  0
ELLIPSE
  5
381
330
31A
100
AcDbEntity
  8
0
100
AcDbEllipse
 10
2.452921693959523
 20
28.38272571269181
 30
0.0
 11
-0.25
 21
0.0000000000000001
 31
0.0
210
0.0
220
0.0
230
1.0
 40
0.0690837158
 41
-3.045580582599998
 42
-1.570805125099998
  0
LINE
  5
382
330
31A
100
AcDbEntity
  8
0
100
AcDbLine
 10
3.198183624834654
 20
28.0300507838424
 30
0.0
 11
3.193487642459786
 21
28.03166306104185
 31
0.0
  0
LINE
  5
383
330
31A
100
AcDbEntity
  8
0
100
AcDbLine
 10
2.600001379685181
 20
28.34999664164252
 30
0.0
 11
2.600001379685181
 21
28.39657378294258
 31
0.0
  0
LINE
  5
384
330
31A
100
AcDbEntity
  8
0
100
AcDbLine
 10
3.193487642459786
 20
28.03166306104185
 30
0.0
 11
2.701770289134855
 21
28.38438138384253
 31
0.0
  0
ARC
  5
385
330
31A
100
AcDbEntity
  8
0
100
AcDbCircle
 10
1.130001379684927
 20
28.29999664164232
 30
0.0
 40
0.45
100
AcDbArc
 50
90.0
 51
180.0
  0
LINE
  5
386
330
31A
100
AcDbEntity
  8
0
100
AcDbLine
 10
1.530001379684563
 20
28.39999664164178
 30
0.0
 11
1.530001379684563
 21
29.12999664164226
 31
0.0
  0
ARC
  5
387
330
31A
100
AcDbEntity
  8
0
100
AcDbCircle
 10
1.130001379684927
 20
28.29999664164232
 30
0.0
 40
0.1
100
AcDbArc
 50
90.0
 51
180.0
  0
ARC
  5
388
330
31A
100
AcDbEntity
  8
0
100
AcDbCircle
 10
1.680001379685108
 20
27.84999664164252
 30
0.0
 40
0.5
100
AcDbArc
 50
90.0
 51
180.0
  0
LINE
  5
389
330
31A
100
AcDbEntity
  8
0
100
AcDbLine
 10
1.530001379684563
 20
28.74999664164214
 30
0.0
 11
1.130001379684927
 21
28.74999664164214
 31
0.0
  0
LINE
  5
38A
330
31A
100
AcDbEntity
  8
0
100
AcDbLine
 10
1.48000137968529
 20
28.04999664164233
 30
0.0
 11
1.326447989084499
 21
28.20355003224221
 31
0.0
  0
ARC
  5
38B
330
31A
100
AcDbEntity
  8
0
100
AcDbCircle
 10
1.830001379684745
 20
29.12999664164226
 30
0.0
 40
0.3
100
AcDbArc
 50
90.0
 51
180.0
  0
LINE
  5
38C
330
31A
100
AcDbEntity
  8
0
100
AcDbLine
 10
4.34158923220957
 20
23.90999664164201
 30
0.0
 11
4.34158923220957
 21
24.20999664164218
 31
0.0
  0
LINE
  5
38D
330
31A
100
AcDbEntity
  8
0
100
AcDbLine
 10
4.488572808259505
 20
23.90999664164201
 30
0.0
 11
4.488572808259505
 21
24.20999664164218
 31
0.0
  0
LINE
  5
38E
330
31A
100
AcDbEntity
  8
0
100
AcDbLine
 10
4.740001379684598
 20
23.90999664164201
 30
0.0
 11
4.740001379684598
 21
24.20999664164218
 31
0.0
  0
LINE
  5
38F
330
31A
100
AcDbEntity
  8
0
100
AcDbLine
 10
4.34158923220957
 20
24.20999664164218
 30
0.0
 11
4.739952662760059
 21
24.20999664164218
 31
0.0
  0
LINE
  5
390
330
31A
100
AcDbEntity
  8
0
100
AcDbLine
 10
4.34158923220957
 20
23.90999664164201
 30
0.0
 11
4.739952662760059
 21
23.90999664164201
 31
0.0
  0
LINE
  5
391
330
31A
100
AcDbEntity
  8
0
100
AcDbLine
 10
2.620001379684707
 20
23.90999664164201
 30
0.0
 11
2.620001379684707
 21
24.20999664164218
 31
0.0
  0
LINE
  5
392
330
31A
100
AcDbEntity
  8
0
100
AcDbLine
 10
2.871429951109803
 20
23.90999664164201
 30
0.0
 11
2.871429951109803
 21
24.20999664164218
 31
0.0
  0
LINE
  5
393
330
31A
100
AcDbEntity
  8
0
100
AcDbLine
 10
3.018413527159736
 20
23.90999664164201
 30
0.0
 11
3.018413527159736
 21
24.20999664164218
 31
0.0
  0
LINE
  5
394
330
31A
100
AcDbEntity
  8
0
100
AcDbLine
 10
2.620050096610156
 20
24.20999664164218
 30
0.0
 11
3.018413527159736
 21
24.20999664164218
 31
0.0
  0
LINE
  5
395
330
31A
100
AcDbEntity
  8
0
100
AcDbLine
 10
2.620050096610156
 20
23.90999664164201
 30
0.0
 11
3.018413527159736
 21
23.90999664164201
 31
0.0
  0
LINE
  5
396
330
31A
100
AcDbEntity
  8
0
100
AcDbLine
 10
4.390001379685145
 20
25.17999664164245
 30
0.0
 11
4.390001379685145
 21
24.20999664164218
 31
0.0
  0
LINE
  5
397
330
31A
100
AcDbEntity
  8
0
100
AcDbLine
 10
2.970001379685071
 20
25.17999664164245
 30
0.0
 11
2.970001379685071
 21
24.20999664164218
 31
0.0
  0
LINE
  5
398
330
31A
100
AcDbEntity
  8
0
100
AcDbLine
 10
5.230001379685289
 20
28.34499664164241
 30
0.0
 11
6.230001379685289
 21
27.3449966416424
 31
0.0
  0
LINE
  5
399
330
31A
100
AcDbEntity
  8
0
100
AcDbLine
 10
6.680001379685107
 20
26.99499664164203
 30
0.0
 11
6.680001379685107
 21
28.29999664164232
 31
0.0
  0
LINE
  5
39A
330
31A
100
AcDbEntity
  8
0
100
AcDbLine
 10
7.250001379684817
 20
27.64999664164179
 30
0.0
 11
7.250001379684817
 21
28.34999664164252
 31
0.0
  0
LINE
  5
39B
330
31A
100
AcDbEntity
  8
0
100
AcDbLine
 10
6.230001379685289
 20
27.3449966416424
 30
0.0
 11
6.680001379685107
 21
27.3449966416424
 31
0.0
  0
ARC
  5
39C
330
31A
100
AcDbEntity
  8
0
100
AcDbCircle
 10
7.060001379685218
 20
26.69499664164277
 30
0.0
 40
0.3
100
AcDbArc
 50
0.0
 51
90.0
  0
LINE
  5
39D
330
31A
100
AcDbEntity
  8
0
100
AcDbLine
 10
6.330001379684745
 20
26.99499664164203
 30
0.0
 11
7.060001379685218
 21
26.99499664164203
 31
0.0
  0
LINE
  5
39E
330
31A
100
AcDbEntity
  8
0
100
AcDbLine
 10
6.780001379684562
 20
26.99499664164203
 30
0.0
 11
6.780001379684562
 21
27.64999664164179
 31
0.0
  0
LINE
  5
39F
330
31A
100
AcDbEntity
  8
0
100
AcDbLine
 10
7.080001379684745
 20
26.99499664164203
 30
0.0
 11
7.080001379684745
 21
27.64999664164179
 31
0.0
  0
ARC
  5
3A0
330
31A
100
AcDbEntity
  8
0
100
AcDbCircle
 10
6.23000137968438
 20
28.29999664164232
 30
0.0
 40
0.1
100
AcDbArc
 50
0.0
 51
90.0
  0
ARC
  5
3A1
330
31A
100
AcDbEntity
  8
0
100
AcDbCircle
 10
5.930001379685107
 20
28.75999664164237
 30
0.0
 40
0.3
100
AcDbArc
 50
0.0
 51
90.0
  0
ARC
  5
3A2
330
31A
100
AcDbEntity
  8
0
100
AcDbCircle
 10
6.23000137968438
 20
28.29999664164232
 30
0.0
 40
0.45
100
AcDbArc
 50
0.0
 51
90.0
  0
LINE
  5
3A3
330
31A
100
AcDbEntity
  8
0
100
AcDbLine
 10
7.330001379684745
 20
28.74999664164214
 30
0.0
 11
6.230001379685289
 21
28.74999664164214
 31
0.0
  0
LINE
  5
3A4
330
31A
100
AcDbEntity
  8
0
100
AcDbLine
 10
6.230001379685289
 20
28.34999664164252
 30
0.0
 11
6.314550490510099
 21
28.34999664164252
 31
0.0
  0
LINE
  5
3A5
330
31A
100
AcDbEntity
  8
0
100
AcDbLine
 10
6.680001379685107
 20
28.29999664164232
 30
0.0
 11
6.230001379685289
 21
28.29999664164232
 31
0.0
  0
LINE
  5
3A6
330
31A
100
AcDbEntity
  8
0
100
AcDbLine
 10
7.380001379684927
 20
28.79999664164234
 30
0.0
 11
7.380001379684927
 21
29.59999664164252
 31
0.0
  0
ARC
  5
3A7
330
31A
100
AcDbEntity
  8
0
100
AcDbCircle
 10
7.330001379684745
 20
28.79999664164234
 30
0.0
 40
0.05
100
AcDbArc
 50
270.0
 51
0.0
  0
LINE
  5
3A8
330
31A
100
AcDbEntity
  8
0
100
AcDbLine
 10
6.666836129934835
 20
28.39999664164178
 30
0.0
 11
7.430001379685107
 21
28.39999664164178
 31
0.0
  0
LINE
  5
3A9
330
31A
100
AcDbEntity
  8
0
100
AcDbLine
 10
6.673418754809517
 20
28.34999664164252
 30
0.0
 11
7.250001379684817
 21
28.34999664164252
 31
0.0
  0
LINE
  5
3AA
330
31A
100
AcDbEntity
  8
0
100
AcDbLine
 10
6.680001379685107
 20
28.04999664164233
 30
0.0
 11
7.250001379684817
 21
28.04999664164233
 31
0.0
  0
LINE
  5
3AB
330
31A
100
AcDbEntity
  8
0
100
AcDbLine
 10
7.430001379685107
 20
28.41316189139206
 30
0.0
 11
7.430001379685107
 21
28.39999664164178
 31
0.0
  0
ARC
  5
3AC
330
31A
100
AcDbEntity
  8
0
100
AcDbCircle
 10
5.530001379684564
 20
28.75999664164237
 30
0.0
 40
0.3
100
AcDbArc
 50
90.0
 51
180.0
  0
LINE
  5
3AD
330
31A
100
AcDbEntity
  8
0
100
AcDbLine
 10
5.030001379684563
 20
28.39999664164178
 30
0.0
 11
5.030001379684563
 21
29.12999664164226
 31
0.0
  0
LINE
  5
3AE
330
31A
100
AcDbEntity
  8
0
100
AcDbLine
 10
5.230001379685289
 20
28.74999664164214
 30
0.0
 11
5.030001379684563
 21
28.74999664164214
 31
0.0
  0
LINE
  5
3AF
330
31A
100
AcDbEntity
  8
0
100
AcDbLine
 10
5.230001379685289
 20
28.75999664164237
 30
0.0
 11
5.230001379685289
 21
28.34499664164241
 31
0.0
  0
LINE
  5
3B0
330
31A
100
AcDbEntity
  8
0
100
AcDbLine
 10
6.230001379685289
 20
28.29999664164232
 30
0.0
 11
6.230001379685289
 21
28.75999664164237
 31
0.0
  0
LINE
  5
3B1
330
31A
100
AcDbEntity
  8
0
100
AcDbLine
 10
5.930001379685107
 20
29.05999664164255
 30
0.0
 11
5.530001379684564
 21
29.05999664164255
 31
0.0
  0
LINE
  5
3B2
330
31A
100
AcDbEntity
  8
0
100
AcDbLine
 10
5.030001379684563
 20
29.09522293791678
 30
0.0
 11
1.530001379684563
 21
29.09522293791678
 31
0.0
  0
LINE
  5
3B3
330
31A
100
AcDbEntity
  8
0
100
AcDbLine
 10
5.230001379685289
 20
28.39999664164178
 30
0.0
 11
1.130001379684927
 21
28.39999664164178
 31
0.0
  0
ARC
  5
3B4
330
31A
100
AcDbEntity
  8
0
100
AcDbCircle
 10
4.73000137968438
 20
29.12999664164226
 30
0.0
 40
0.3
100
AcDbArc
 50
0.0
 51
90.0
  0
LINE
  5
3B5
330
31A
100
AcDbEntity
  8
0
100
AcDbLine
 10
4.610297408909445
 20
28.34999664164252
 30
0.0
 11
5.230001379685289
 21
28.34999664164252
 31
0.0
  0
LINE
  5
3B6
330
31A
100
AcDbEntity
  8
0
100
AcDbLine
 10
4.192073584260015
 20
28.04999664164233
 30
0.0
 11
5.525001379684454
 21
28.04999664164233
 31
0.0
  0
LINE
  5
3B7
330
31A
100
AcDbEntity
  8
0
100
AcDbLine
 10
4.730001379685289
 20
9.639996641642484
 30
0.0
 11
1.830001379684745
 21
9.639996641642484
 31
0.0
  0
LINE
  5
3B8
330
31A
100
AcDbEntity
  8
0
100
AcDbLine
 10
1.680001379685108
 20
8.559996641642554
 30
0.0
 11
2.749705350459861
 21
8.559996641642554
 31
0.0
  0
ELLIPSE
  5
3B9
330
31A
100
AcDbEntity
  8
0
100
AcDbEllipse
 10
2.452921693959523
 20
8.592725712692754
 30
0.0
 11
-0.25
 21
0.0000000000000001
 31
0.0
210
0.0
220
0.0
230
1.0
 40
0.0690837158
 41
-3.045580582599998
 42
-1.570805125099998
  0
LINE
  5
3BA
330
31A
100
AcDbEntity
  8
0
100
AcDbLine
 10
2.600001379685181
 20
8.559996641642554
 30
0.0
 11
2.600001379685181
 21
8.606573782942632
 31
0.0
  0
ARC
  5
3BB
330
31A
100
AcDbEntity
  8
0
100
AcDbCircle
 10
1.130001379684927
 20
8.509996641642374
 30
0.0
 40
0.45
100
AcDbArc
 50
90.0
 51
180.0
  0
LINE
  5
3BC
330
31A
100
AcDbEntity
  8
0
100
AcDbLine
 10
1.530001379684563
 20
8.609996641642737
 30
0.0
 11
1.530001379684563
 21
9.339996641642301
 31
0.0
  0
ARC
  5
3BD
330
31A
100
AcDbEntity
  8
0
100
AcDbCircle
 10
1.130001379684927
 20
8.509996641642374
 30
0.0
 40
0.1
100
AcDbArc
 50
90.0
 51
180.0
  0
LINE
  5
3BE
330
31A
100
AcDbEntity
  8
0
100
AcDbLine
 10
1.530001379684563
 20
8.959996641642193
 30
0.0
 11
1.130001379684927
 21
8.959996641642193
 31
0.0
  0
ARC
  5
3BF
330
31A
100
AcDbEntity
  8
0
100
AcDbCircle
 10
1.830001379684745
 20
9.339996641642301
 30
0.0
 40
0.3
100
AcDbArc
 50
90.0
 51
180.0
  0
ARC
  5
3C0
330
31A
100
AcDbEntity
  8
0
100
AcDbCircle
 10
6.23000137968438
 20
8.509996641642374
 30
0.0
 40
0.1
100
AcDbArc
 50
0.0
 51
90.0
  0
ARC
  5
3C1
330
31A
100
AcDbEntity
  8
0
100
AcDbCircle
 10
5.930001379685107
 20
8.96999664164241
 30
0.0
 40
0.3
100
AcDbArc
 50
0.0
 51
90.0
  0
ARC
  5
3C2
330
31A
100
AcDbEntity
  8
0
100
AcDbCircle
 10
6.23000137968438
 20
8.509996641642374
 30
0.0
 40
0.45
100
AcDbArc
 50
0.0
 51
90.0
  0
LINE
  5
3C3
330
31A
100
AcDbEntity
  8
0
100
AcDbLine
 10
7.330001379684745
 20
8.959996641642193
 30
0.0
 11
6.230001379685289
 21
8.959996641642193
 31
0.0
  0
LINE
  5
3C4
330
31A
100
AcDbEntity
  8
0
100
AcDbLine
 10
6.230001379685289
 20
8.559996641642554
 30
0.0
 11
6.314550490510099
 21
8.559996641642554
 31
0.0
  0
LINE
  5
3C5
330
31A
100
AcDbEntity
  8
0
100
AcDbLine
 10
6.680001379685107
 20
8.509996641642374
 30
0.0
 11
6.230001379685289
 21
8.509996641642374
 31
0.0
  0
LINE
  5
3C6
330
31A
100
AcDbEntity
  8
0
100
AcDbLine
 10
7.380001379684927
 20
9.009996641642372
 30
0.0
 11
7.380001379684927
 21
9.809996641642555
 31
0.0
  0
ARC
  5
3C7
330
31A
100
AcDbEntity
  8
0
100
AcDbCircle
 10
7.330001379684745
 20
9.009996641642372
 30
0.0
 40
0.05
100
AcDbArc
 50
270.0
 51
0.0
  0
LINE
  5
3C8
330
31A
100
AcDbEntity
  8
0
100
AcDbLine
 10
6.666836129934835
 20
8.609996641642737
 30
0.0
 11
7.430001379685107
 21
8.609996641642737
 31
0.0
  0
LINE
  5
3C9
330
31A
100
AcDbEntity
  8
0
100
AcDbLine
 10
6.673418754809517
 20
8.559996641642554
 30
0.0
 11
7.250001379684817
 21
8.559996641642554
 31
0.0
  0
LINE
  5
3CA
330
31A
100
AcDbEntity
  8
0
100
AcDbLine
 10
7.430001379685107
 20
8.623161891392101
 30
0.0
 11
7.430001379685107
 21
8.609996641642737
 31
0.0
  0
ARC
  5
3CB
330
31A
100
AcDbEntity
  8
0
100
AcDbCircle
 10
5.530001379684564
 20
8.96999664164241
 30
0.0
 40
0.3
100
AcDbArc
 50
90.0
 51
180.0
  0
LINE
  5
3CC
330
31A
100
AcDbEntity
  8
0
100
AcDbLine
 10
5.030001379684563
 20
8.609996641642737
 30
0.0
 11
5.030001379684563
 21
9.339996641642301
 31
0.0
  0
LINE
  5
3CD
330
31A
100
AcDbEntity
  8
0
100
AcDbLine
 10
5.230001379685289
 20
8.959996641642193
 30
0.0
 11
5.030001379684563
 21
8.959996641642193
 31
0.0
  0
LINE
  5
3CE
330
31A
100
AcDbEntity
  8
0
100
AcDbLine
 10
5.230001379685289
 20
8.96999664164241
 30
0.0
 11
5.230001379685289
 21
8.554996641642446
 31
0.0
  0
LINE
  5
3CF
330
31A
100
AcDbEntity
  8
0
100
AcDbLine
 10
6.230001379685289
 20
8.509996641642374
 30
0.0
 11
6.230001379685289
 21
8.96999664164241
 31
0.0
  0
LINE
  5
3D0
330
31A
100
AcDbEntity
  8
0
100
AcDbLine
 10
5.930001379685107
 20
9.269996641642592
 30
0.0
 11
5.530001379684564
 21
9.269996641642592
 31
0.0
  0
LINE
  5
3D1
330
31A
100
AcDbEntity
  8
0
100
AcDbLine
 10
5.030001379684563
 20
9.305222937917731
 30
0.0
 11
1.530001379684563
 21
9.305222937917731
 31
0.0
  0
LINE
  5
3D2
330
31A
100
AcDbEntity
  8
0
100
AcDbLine
 10
5.230001379685289
 20
8.609996641642737
 30
0.0
 11
1.130001379684927
 21
8.609996641642737
 31
0.0
  0
ARC
  5
3D3
330
31A
100
AcDbEntity
  8
0
100
AcDbCircle
 10
4.73000137968438
 20
9.339996641642301
 30
0.0
 40
0.3
100
AcDbArc
 50
0.0
 51
90.0
  0
LINE
  5
3D4
330
31A
100
AcDbEntity
  8
0
100
AcDbLine
 10
4.610297408909445
 20
8.559996641642554
 30
0.0
 11
5.230001379685289
 21
8.559996641642554
 31
0.0
  0
LINE
  5
3D5
330
31A
100
AcDbEntity
  8
0
100
AcDbLine
 10
4.290001379684781
 20
22.28999664164212
 30
0.0
 11
3.070001379684526
 21
22.28999664164212
 31
0.0
  0
LINE
  5
3D6
330
31A
100
AcDbEntity
  8
0
100
AcDbLine
 10
4.390001379685145
 20
22.08999664164229
 30
0.0
 11
2.970001379685071
 21
22.08999664164229
 31
0.0
  0
LINE
  5
3D7
330
31A
100
AcDbEntity
  8
0
100
AcDbLine
 10
4.161873148035283
 20
21.35999664164182
 30
0.0
 11
3.198129611334933
 21
21.35999664164182
 31
0.0
  0
LINE
  5
3D8
330
31A
100
AcDbEntity
  8
0
100
AcDbLine
 10
4.166515116909521
 20
21.35833022224187
 30
0.0
 11
3.193487642459786
 21
21.35833022224187
 31
0.0
  0
LINE
  5
3D9
330
31A
100
AcDbEntity
  8
0
100
AcDbLine
 10
4.730001379685289
 20
19.95999664164219
 30
0.0
 11
1.830001379684745
 21
19.95999664164219
 31
0.0
  0
LINE
  5
3DA
330
31A
100
AcDbEntity
  8
0
100
AcDbLine
 10
4.658232470234452
 20
21.0056118994421
 30
0.0
 11
4.166515116909521
 21
21.35833022224187
 31
0.0
  0
LINE
  5
3DB
330
31A
100
AcDbEntity
  8
0
100
AcDbLine
 10
4.166515116909521
 20
21.35833022224187
 30
0.0
 11
4.161819134534653
 21
21.35994249944223
 31
0.0
  0
LINE
  5
3DC
330
31A
100
AcDbEntity
  8
0
100
AcDbLine
 10
4.34158923220957
 20
22.63999664164248
 30
0.0
 11
4.34158923220957
 21
22.93999664164175
 31
0.0
  0
LINE
  5
3DD
330
31A
100
AcDbEntity
  8
0
100
AcDbLine
 10
4.488572808259505
 20
22.63999664164248
 30
0.0
 11
4.488572808259505
 21
22.93999664164175
 31
0.0
  0
LINE
  5
3DE
330
31A
100
AcDbEntity
  8
0
100
AcDbLine
 10
4.740001379684598
 20
22.63999664164248
 30
0.0
 11
4.740001379684598
 21
22.93999664164175
 31
0.0
  0
LINE
  5
3DF
330
31A
100
AcDbEntity
  8
0
100
AcDbLine
 10
4.390001379685145
 20
22.63999664164248
 30
0.0
 11
4.390001379685145
 21
22.08999664164229
 31
0.0
  0
LINE
  5
3E0
330
31A
100
AcDbEntity
  8
0
100
AcDbLine
 10
4.290001379684781
 20
22.28999664164212
 30
0.0
 11
4.390001379685145
 21
22.08999664164229
 31
0.0
  0
LINE
  5
3E1
330
31A
100
AcDbEntity
  8
0
100
AcDbLine
 10
4.34158923220957
 20
22.63999664164248
 30
0.0
 11
4.739952662760059
 21
22.63999664164248
 31
0.0
  0
LINE
  5
3E2
330
31A
100
AcDbEntity
  8
0
100
AcDbLine
 10
4.34158923220957
 20
22.93999664164175
 30
0.0
 11
4.739952662760059
 21
22.93999664164175
 31
0.0
  0
SPLINE
  5
3E3
330
31A
100
AcDbEntity
  8
0
100
AcDbSpline
210
0.0
220
0.0
230
1.0
 70
     8
 71
     3
 72
    15
 73
    11
 74
     9
 42
0.0000000001
 43
0.0000000001
 44
0.0000000001
 12
-0.0000000000000003
 22
-1.0
 32
0.0
 13
1.0
 23
-0.0000000000000003
 33
0.0
 40
0.0
 40
0.0
 40
0.0
 40
0.0
 40
0.0593261002241222
 40
0.1186608019706694
 40
0.1778432634380271
 40
0.2367706770744214
 40
0.2951865537277411
 40
0.3527380240450602
 40
0.4091219901447225
 40
0.464032393583161
 40
0.464032393583161
 40
0.464032393583161
 40
0.464032393583161
 10
0.3409535863352175
 20
23.24499664164203
 30
0.0
 10
0.3409535863352175
 20
23.22522127490066
 30
0.0
 10
0.3448735061396988
 20
23.18555934443645
 30
0.0
 10
0.3622024247635199
 20
23.1284870804603
 30
0.0
 10
0.3902612208782989
 20
23.07598403662055
 30
0.0
 10
0.4277546370656393
 20
23.03015108946923
 30
0.0
 10
0.4730043104710488
 20
22.99280681540176
 30
0.0
 10
0.5239010772920402
 20
22.96536302868703
 30
0.0
 10
0.5780376369882016
 20
22.94874004551906
 30
0.0
 10
0.6152341263975254
 20
22.94499664164186
 30
0.0
 10
0.6335375942103383
 20
22.94499664164186
 30
0.0
 11
0.3409535863352175
 21
23.24499664164203
 31
0.0
 11
0.3467835206852214
 21
23.18595768811746
 31
0.0
 11
0.3640200186596303
 21
23.12918172516719
 31
0.0
 11
0.391910911035211
 21
23.07698343144193
 31
0.0
 11
0.4292342559351711
 21
23.03138290509241
 31
0.0
 11
0.4743044359852321
 21
22.99421983854199
 31
0.0
 11
0.5249818861097994
 21
22.96694406569212
 31
0.0
 11
0.5788983036850368
 21
22.95044644316703
 31
0.0
 11
0.6335375942103383
 21
22.94499664164186
 31
0.0
  0
SPLINE
  5
3E4
330
31A
100
AcDbEntity
  8
0
100
AcDbSpline
210
0.0
220
0.0
230
1.0
 70
     8
 71
     3
 72
    15
 73
    11
 74
     9
 42
0.0000000001
 43
0.0000000001
 44
0.0000000001
 12
-1.0
 22
0.0000000000000003
 32
0.0
 13
0.0000000000000003
 23
1.0
 33
0.0
 40
0.0
 40
0.0
 40
0.0
 40
0.0
 40
0.0514825650951291
 40
0.1059334599722252
 40
0.1628298698746603
 40
0.2213968778993276
 40
0.2809047422607358
 40
0.3408534599842636
 40
0.4009992673993717
 40
0.4611969358587311
 40
0.4611969358587311
 40
0.4611969358587311
 40
0.4611969358587311
 10
0.5894537495100849
 20
22.94499664164186
 30
0.0
 10
0.5722928944783752
 20
22.94499664164186
 30
0.0
 10
0.536895776132617
 20
22.94849820712836
 30
0.0
 10
0.4846132170050981
 20
22.96425571355062
 30
0.0
 10
0.4342490084239338
 20
22.9909552479408
 30
0.0
 10
0.3887042555712174
 20
23.02798052493331
 30
0.0
 10
0.3505584986080565
 20
23.07393112417022
 30
0.0
 10
0.3218421387113303
 20
23.12690969965113
 30
0.0
 10
0.3040322468040375
 20
23.18470259639783
 30
0.0
 10
0.3000013796849998
 20
23.22493075215558
 30
0.0
 10
0.3000013796849998
 20
23.24499664164203
 30
0.0
 11
0.5894537495100849
 21
22.94499664164186
 31
0.0
 11
0.5382143343845202
 21
22.94999432574194
 31
0.0
 11
0.4860555422096695
 21
22.9656263554175
 31
0.0
 11
0.4357566193098137
 21
22.99221996019196
 31
0.0
 11
0.3902861881101671
 21
23.02913248266712
 31
0.0
 11
0.3522651602847873
 21
23.07491006849204
 31
0.0
 11
0.3237022293101289
 21
23.12761687764258
 31
0.0
 11
0.3059999475349286
 21
23.18509859099184
 31
0.0
 11
0.3000013796849998
 21
23.24499664164203
 31
0.0
  0
LINE
  5
3E5
330
31A
100
AcDbEntity
  8
0
100
AcDbLine
 10
0.3000013796849998
 20
22.5949966416424
 30
0.0
 11
1.030001379684563
 21
22.5949966416424
 31
0.0
  0
LINE
  5
3E6
330
31A
100
AcDbEntity
  8
0
100
AcDbLine
 10
0.3000013796849998
 20
21.60499664164262
 30
0.0
 11
1.030001379684563
 21
21.60499664164262
 31
0.0
  0
LINE
  5
3E7
330
31A
100
AcDbEntity
  8
0
100
AcDbLine
 10
1.030001379684563
 20
21.0899966416423
 30
0.0
 11
1.030001379684563
 21
22.94499664164186
 31
0.0
  0
LINE
  5
3E8
330
31A
100
AcDbEntity
  8
0
100
AcDbLine
 10
1.180001379685107
 20
22.94499664164186
 30
0.0
 11
1.180001379685107
 21
21.5399966416421
 31
0.0
  0
LINE
  5
3E9
330
31A
100
AcDbEntity
  8
0
100
AcDbLine
 10
3.167929175110201
 20
21.3399966416423
 30
0.0
 11
1.48000137968529
 21
21.3399966416423
 31
0.0
  0
LINE
  5
3EA
330
31A
100
AcDbEntity
  8
0
100
AcDbLine
 10
2.749705350459861
 20
21.03999664164212
 30
0.0
 11
1.680001379685108
 21
21.03999664164212
 31
0.0
  0
LINE
  5
3EB
330
31A
100
AcDbEntity
  8
0
100
AcDbLine
 10
2.600001379685181
 20
20.98999664164193
 30
0.0
 11
2.600001379685181
 21
21.03999664164212
 31
0.0
  0
LINE
  5
3EC
330
31A
100
AcDbEntity
  8
0
100
AcDbLine
 10
2.680001379685107
 20
20.98999664164193
 30
0.0
 11
3.193487642459786
 21
21.35833022224187
 31
0.0
  0
LINE
  5
3ED
330
31A
100
AcDbEntity
  8
0
100
AcDbLine
 10
3.193487642459786
 20
21.35833022224187
 30
0.0
 11
3.198183624834654
 21
21.35994249944223
 31
0.0
  0
ARC
  5
3EE
330
31A
100
AcDbEntity
  8
0
100
AcDbCircle
 10
1.130001379684927
 20
21.0899966416423
 30
0.0
 40
0.45
100
AcDbArc
 50
180.0
 51
270.0
  0
LINE
  5
3EF
330
31A
100
AcDbEntity
  8
0
100
AcDbLine
 10
1.530001379684563
 20
20.25999664164237
 30
0.0
 11
1.530001379684563
 21
20.98999664164193
 31
0.0
  0
ARC
  5
3F0
330
31A
100
AcDbEntity
  8
0
100
AcDbCircle
 10
1.830001379684745
 20
20.25999664164237
 30
0.0
 40
0.3
100
AcDbArc
 50
180.0
 51
270.0
  0
ARC
  5
3F1
330
31A
100
AcDbEntity
  8
0
100
AcDbCircle
 10
1.130001379684927
 20
21.0899966416423
 30
0.0
 40
0.1
100
AcDbArc
 50
180.0
 51
270.0
  0
ARC
  5
3F2
330
31A
100
AcDbEntity
  8
0
100
AcDbCircle
 10
1.680001379685108
 20
21.5399966416421
 30
0.0
 40
0.5
100
AcDbArc
 50
180.0
 51
270.0
  0
LINE
  5
3F3
330
31A
100
AcDbEntity
  8
0
100
AcDbLine
 10
0.680001379685109
 20
21.60499664164262
 30
0.0
 11
0.680001379685109
 21
21.0899966416423
 31
0.0
  0
LINE
  5
3F4
330
31A
100
AcDbEntity
  8
0
100
AcDbLine
 10
1.48000137968529
 20
21.3399966416423
 30
0.0
 11
1.326447989084499
 21
21.18644325104241
 31
0.0
  0
LINE
  5
3F5
330
31A
100
AcDbEntity
  8
0
100
AcDbLine
 10
1.130001379684927
 20
20.63999664164247
 30
0.0
 11
1.530001379684563
 21
20.63999664164247
 31
0.0
  0
LINE
  5
3F6
330
31A
100
AcDbEntity
  8
0
100
AcDbLine
 10
2.620001379684707
 20
22.63999664164248
 30
0.0
 11
2.620001379684707
 21
22.93999664164175
 31
0.0
  0
LINE
  5
3F7
330
31A
100
AcDbEntity
  8
0
100
AcDbLine
 10
2.871429951109803
 20
22.63999664164248
 30
0.0
 11
2.871429951109803
 21
22.93999664164175
 31
0.0
  0
LINE
  5
3F8
330
31A
100
AcDbEntity
  8
0
100
AcDbLine
 10
3.018413527159736
 20
22.63999664164248
 30
0.0
 11
3.018413527159736
 21
22.93999664164175
 31
0.0
  0
LINE
  5
3F9
330
31A
100
AcDbEntity
  8
0
100
AcDbLine
 10
2.970001379685071
 20
22.63999664164248
 30
0.0
 11
2.970001379685071
 21
22.08999664164229
 31
0.0
  0
LINE
  5
3FA
330
31A
100
AcDbEntity
  8
0
100
AcDbLine
 10
3.070001379684526
 20
22.28999664164212
 30
0.0
 11
2.970001379685071
 21
22.08999664164229
 31
0.0
  0
LINE
  5
3FB
330
31A
100
AcDbEntity
  8
0
100
AcDbLine
 10
2.620050096610156
 20
22.63999664164248
 30
0.0
 11
3.018413527159736
 21
22.63999664164248
 31
0.0
  0
LINE
  5
3FC
330
31A
100
AcDbEntity
  8
0
100
AcDbLine
 10
2.620050096610156
 20
22.93999664164175
 30
0.0
 11
3.018413527159736
 21
22.93999664164175
 31
0.0
  0
LINE
  5
3FD
330
31A
100
AcDbEntity
  8
0
100
AcDbLine
 10
0.680001379685109
 20
22.94499664164186
 30
0.0
 11
0.680001379685109
 21
22.5949966416424
 31
0.0
  0
LINE
  5
3FE
330
31A
100
AcDbEntity
  8
0
100
AcDbLine
 10
0.6335375942094288
 20
22.94499664164186
 30
0.0
 11
1.229926632410297
 21
22.94499664164186
 31
0.0
  0
ARC
  5
3FF
330
31A
100
AcDbEntity
  8
0
100
AcDbCircle
 10
0.3000013796849998
 20
21.90499664164281
 30
0.0
 40
0.3
100
AcDbArc
 50
180.0
 51
270.0
  0
LINE
  5
400
330
31A
100
AcDbEntity
  8
0
100
AcDbLine
 10
0.3347750834095677
 20
22.5949966416424
 30
0.0
 11
0.3347750834095677
 21
21.60499664164262
 31
0.0
  0
ARC
  5
401
330
31A
100
AcDbEntity
  8
0
100
AcDbCircle
 10
0.3000013796849998
 20
22.29499664164221
 30
0.0
 40
0.3
100
AcDbArc
 50
90.0
 51
180.0
  0
LINE
  5
402
330
31A
100
AcDbEntity
  8
0
100
AcDbLine
 10
0.0000013796848179
 20
22.29499664164221
 30
0.0
 11
0.0000013796848179
 21
21.90499664164189
 31
0.0
  0
LINE
  5
403
330
31A
100
AcDbEntity
  8
0
100
AcDbLine
 10
0.3409535863352175
 20
23.24499664164203
 30
0.0
 11
0.3000013796849998
 21
23.24499664164203
 31
0.0
  0
ARC
  5
404
330
31A
100
AcDbEntity
  8
0
100
AcDbCircle
 10
6.23000137968438
 20
21.0899966416423
 30
0.0
 40
0.1
100
AcDbArc
 50
270.0
 51
0.0
  0
ARC
  5
405
330
31A
100
AcDbEntity
  8
0
100
AcDbCircle
 10
5.930001379685107
 20
20.62999664164226
 30
0.0
 40
0.3
100
AcDbArc
 50
270.0
 51
0.0
  0
ARC
  5
406
330
31A
100
AcDbEntity
  8
0
100
AcDbCircle
 10
6.23000137968438
 20
21.0899966416423
 30
0.0
 40
0.45
100
AcDbArc
 50
270.0
 51
0.0
  0
LINE
  5
407
330
31A
100
AcDbEntity
  8
0
100
AcDbLine
 10
6.680001379685107
 20
22.04499664164222
 30
0.0
 11
6.230001379685289
 21
22.04499664164222
 31
0.0
  0
LINE
  5
408
330
31A
100
AcDbEntity
  8
0
100
AcDbLine
 10
6.230001379685289
 20
21.0899966416423
 30
0.0
 11
6.680001379685107
 21
21.0899966416423
 31
0.0
  0
LINE
  5
409
330
31A
100
AcDbEntity
  8
0
100
AcDbLine
 10
6.314550490510099
 20
21.03999664164212
 30
0.0
 11
6.230001379685289
 21
21.03999664164212
 31
0.0
  0
LINE
  5
40A
330
31A
100
AcDbEntity
  8
0
100
AcDbLine
 10
6.230001379685289
 20
20.63999664164247
 30
0.0
 11
7.330001379684745
 21
20.63999664164247
 31
0.0
  0
LINE
  5
40B
330
31A
100
AcDbEntity
  8
0
100
AcDbLine
 10
6.680001379685107
 20
21.0899966416423
 30
0.0
 11
6.680001379685107
 21
22.39499664164259
 31
0.0
  0
LINE
  5
40C
330
31A
100
AcDbEntity
  8
0
100
AcDbLine
 10
7.250001379684817
 20
21.03999664164212
 30
0.0
 11
7.250001379684817
 21
21.73999664164193
 31
0.0
  0
ARC
  5
40D
330
31A
100
AcDbEntity
  8
0
100
AcDbCircle
 10
7.330001379684745
 20
20.5899966416423
 30
0.0
 40
0.05
100
AcDbArc
 50
0.0
 51
90.0
  0
LINE
  5
40E
330
31A
100
AcDbEntity
  8
0
100
AcDbLine
 10
7.380001379684927
 20
19.7899966416421
 30
0.0
 11
7.380001379684927
 21
20.5899966416423
 31
0.0
  0
LINE
  5
40F
330
31A
100
AcDbEntity
  8
0
100
AcDbLine
 10
7.430001379685107
 20
20.97683139189256
 30
0.0
 11
7.430001379685107
 21
20.98999664164193
 31
0.0
  0
LINE
  5
410
330
31A
100
AcDbEntity
  8
0
100
AcDbLine
 10
7.250001379684817
 20
21.3399966416423
 30
0.0
 11
6.680001379685107
 21
21.3399966416423
 31
0.0
  0
LINE
  5
411
330
31A
100
AcDbEntity
  8
0
100
AcDbLine
 10
7.250001379684817
 20
21.03999664164212
 30
0.0
 11
6.673418754809517
 21
21.03999664164212
 31
0.0
  0
LINE
  5
412
330
31A
100
AcDbEntity
  8
0
100
AcDbLine
 10
7.430001379685107
 20
20.98999664164193
 30
0.0
 11
6.666836129934835
 21
20.98999664164193
 31
0.0
  0
ARC
  5
413
330
31A
100
AcDbEntity
  8
0
100
AcDbCircle
 10
7.060001379685218
 20
22.69499664164277
 30
0.0
 40
0.3
100
AcDbArc
 50
270.0
 51
0.0
  0
LINE
  5
414
330
31A
100
AcDbEntity
  8
0
100
AcDbLine
 10
6.780001379684562
 20
21.73999664164193
 30
0.0
 11
6.780001379684562
 21
22.39499664164259
 31
0.0
  0
LINE
  5
415
330
31A
100
AcDbEntity
  8
0
100
AcDbLine
 10
7.080001379684745
 20
21.73999664164193
 30
0.0
 11
7.080001379684745
 21
22.39499664164259
 31
0.0
  0
LINE
  5
416
330
31A
100
AcDbEntity
  8
0
100
AcDbLine
 10
6.330001379684745
 20
22.39499664164259
 30
0.0
 11
7.060001379685218
 21
22.39499664164259
 31
0.0
  0
LINE
  5
417
330
31A
100
AcDbEntity
  8
0
100
AcDbLine
 10
6.230001379685289
 20
22.04499664164222
 30
0.0
 11
5.230001379685289
 21
21.04499664164221
 31
0.0
  0
LINE
  5
418
330
31A
100
AcDbEntity
  8
0
100
AcDbLine
 10
5.030001379684563
 20
20.25999664164237
 30
0.0
 11
5.030001379684563
 21
20.98999664164193
 31
0.0
  0
LINE
  5
419
330
31A
100
AcDbEntity
  8
0
100
AcDbLine
 10
5.230001379685289
 20
21.04499664164221
 30
0.0
 11
5.230001379685289
 21
20.62999664164226
 31
0.0
  0
LINE
  5
41A
330
31A
100
AcDbEntity
  8
0
100
AcDbLine
 10
6.230001379685289
 20
20.62999664164226
 30
0.0
 11
6.230001379685289
 21
21.0899966416423
 31
0.0
  0
ARC
  5
41B
330
31A
100
AcDbEntity
  8
0
100
AcDbCircle
 10
5.530001379684564
 20
20.62999664164226
 30
0.0
 40
0.3
100
AcDbArc
 50
180.0
 51
270.0
  0
LINE
  5
41C
330
31A
100
AcDbEntity
  8
0
100
AcDbLine
 10
5.530001379684564
 20
20.32999664164207
 30
0.0
 11
5.930001379685107
 21
20.32999664164207
 31
0.0
  0
LINE
  5
41D
330
31A
100
AcDbEntity
  8
0
100
AcDbLine
 10
5.030001379684563
 20
20.63999664164247
 30
0.0
 11
5.230001379685289
 21
20.63999664164247
 31
0.0
  0
LINE
  5
41E
330
31A
100
AcDbEntity
  8
0
100
AcDbLine
 10
5.230001379685289
 20
20.98999664164193
 30
0.0
 11
1.130001379684927
 21
20.98999664164193
 31
0.0
  0
LINE
  5
41F
330
31A
100
AcDbEntity
  8
0
100
AcDbLine
 10
5.030001379684563
 20
20.29477034536694
 30
0.0
 11
1.530001379684563
 21
20.29477034536694
 31
0.0
  0
ELLIPSE
  5
420
330
31A
100
AcDbEntity
  8
0
100
AcDbEllipse
 10
4.907081065409784
 20
21.00726757059192
 30
0.0
 11
-0.25
 21
0.0000000000000001
 31
0.0
210
0.0
220
0.0
230
1.0
 40
0.0690837158
 41
0.096012071
 42
1.570787529499998
  0
ARC
  5
421
330
31A
100
AcDbEntity
  8
0
100
AcDbCircle
 10
4.73000137968438
 20
20.25999664164237
 30
0.0
 40
0.3
100
AcDbArc
 50
270.0
 51
0.0
  0
LINE
  5
422
330
31A
100
AcDbEntity
  8
0
100
AcDbLine
 10
5.525001379684454
 20
21.3399966416423
 30
0.0
 11
4.192073584260015
 21
21.3399966416423
 31
0.0
  0
LINE
  5
423
330
31A
100
AcDbEntity
  8
0
100
AcDbLine
 10
5.230001379685289
 20
21.03999664164212
 30
0.0
 11
4.610297408909445
 21
21.03999664164212
 31
0.0
  0
LINE
  5
424
330
31A
100
AcDbEntity
  8
0
100
AcDbLine
 10
4.166515116909521
 20
8.2416630610428
 30
0.0
 11
3.193487642459786
 21
8.2416630610428
 31
0.0
  0
LINE
  5
425
330
31A
100
AcDbEntity
  8
0
100
AcDbLine
 10
4.161873148035283
 20
8.239996641642846
 30
0.0
 11
3.198129611334933
 21
8.239996641642846
 31
0.0
  0
LINE
  5
426
330
31A
100
AcDbEntity
  8
0
100
AcDbLine
 10
2.970001379685071
 20
7.509996641642374
 30
0.0
 11
4.390001379685145
 21
7.509996641642374
 31
0.0
  0
LINE
  5
427
330
31A
100
AcDbEntity
  8
0
100
AcDbLine
 10
3.070001379684526
 20
7.309996641642555
 30
0.0
 11
4.290001379684781
 21
7.309996641642555
 31
0.0
  0
LINE
  5
428
330
31A
100
AcDbEntity
  8
0
100
AcDbLine
 10
4.390001379685145
 20
7.509996641642374
 30
0.0
 11
4.390001379685145
 21
6.959996641642193
 31
0.0
  0
LINE
  5
429
330
31A
100
AcDbEntity
  8
0
100
AcDbLine
 10
4.34158923220957
 20
6.959996641642193
 30
0.0
 11
4.739952662760059
 21
6.959996641642193
 31
0.0
  0
LINE
  5
42A
330
31A
100
AcDbEntity
  8
0
100
AcDbLine
 10
4.34158923220957
 20
6.659996641642918
 30
0.0
 11
4.739952662760059
 21
6.659996641642918
 31
0.0
  0
LINE
  5
42B
330
31A
100
AcDbEntity
  8
0
100
AcDbLine
 10
4.34158923220957
 20
6.659996641642918
 30
0.0
 11
4.34158923220957
 21
6.959996641642193
 31
0.0
  0
LINE
  5
42C
330
31A
100
AcDbEntity
  8
0
100
AcDbLine
 10
4.488572808259505
 20
6.659996641642918
 30
0.0
 11
4.488572808259505
 21
6.959996641642193
 31
0.0
  0
LINE
  5
42D
330
31A
100
AcDbEntity
  8
0
100
AcDbLine
 10
4.740001379684598
 20
6.659996641642918
 30
0.0
 11
4.740001379684598
 21
6.959996641642193
 31
0.0
  0
LINE
  5
42E
330
31A
100
AcDbEntity
  8
0
100
AcDbLine
 10
4.390001379685145
 20
7.509996641642374
 30
0.0
 11
4.290001379684781
 21
7.309996641642555
 31
0.0
  0
LINE
  5
42F
330
31A
100
AcDbEntity
  8
0
100
AcDbLine
 10
4.161819134534653
 20
8.240050783842432
 30
0.0
 11
4.166515116909521
 21
8.2416630610428
 31
0.0
  0
ARC
  5
430
330
31A
100
AcDbEntity
  8
0
100
AcDbCircle
 10
0.3000013796849998
 20
7.694996641642773
 30
0.0
 40
0.3
100
AcDbArc
 50
90.0
 51
180.0
  0
LINE
  5
431
330
31A
100
AcDbEntity
  8
0
100
AcDbLine
 10
1.180001379685107
 20
8.059996641642554
 30
0.0
 11
1.180001379685107
 21
6.654996641642809
 31
0.0
  0
SPLINE
  5
432
330
31A
100
AcDbEntity
  8
0
100
AcDbSpline
210
0.0
220
0.0
230
1.0
 70
     8
 71
     3
 72
    15
 73
    11
 74
     9
 42
0.0000000001
 43
0.0000000001
 44
0.0000000001
 12
-1.0
 22
0.0000000000000003
 32
0.0
 13
-0.0000000000000003
 23
-1.0
 33
0.0
 40
0.0
 40
0.0
 40
0.0
 40
0.0
 40
0.0549104034384385
 40
0.1112943695381005
 40
0.1688458398554196
 40
0.2272617165087398
 40
0.2861891301451327
 40
0.3453715916124928
 40
0.4047062933590425
 40
0.4640323935831657
 40
0.4640323935831657
 40
0.4640323935831657
 40
0.4640323935831657
 10
0.6335375942103383
 20
6.654996641642809
 30
0.0
 10
0.6152341263975255
 20
6.654996641642809
 30
0.0
 10
0.5780376369882016
 20
6.651253237765597
 30
0.0
 10
0.5239010772920403
 20
6.634630254597639
 30
0.0
 10
0.4730043104710484
 20
6.607186467882911
 30
0.0
 10
0.4277546370656403
 20
6.569842193815439
 30
0.0
 10
0.3902612208782974
 20
6.524009246664117
 30
0.0
 10
0.3622024247635201
 20
6.471506202824362
 30
0.0
 10
0.3448735061396989
 20
6.414433938848222
 30
0.0
 10
0.3409535863352175
 20
6.374772008384002
 30
0.0
 10
0.3409535863352175
 20
6.354996641642627
 30
0.0
 11
0.6335375942103383
 21
6.654996641642809
 31
0.0
 11
0.5788983036850368
 21
6.649546840117636
 31
0.0
 11
0.5249818861097994
 21
6.633049217592543
 31
0.0
 11
0.4743044359852321
 21
6.605773444742681
 31
0.0
 11
0.4292342559351711
 21
6.568610378192261
 31
0.0
 11
0.391910911035211
 21
6.523009851842742
 31
0.0
 11
0.3640200186596303
 21
6.470811558117474
 31
0.0
 11
0.3467835206852214
 21
6.414035595167206
 31
0.0
 11
0.3409535863352175
 21
6.354996641642627
 31
0.0
  0
SPLINE
  5
433
330
31A
100
AcDbEntity
  8
0
100
AcDbSpline
210
0.0
220
0.0
230
1.0
 70
     8
 71
     3
 72
    15
 73
    11
 74
     9
 42
0.0000000001
 43
0.0000000001
 44
0.0000000001
 12
0.0000000000000003
 22
1.0
 32
0.0
 13
1.0
 23
-0.0000000000000003
 33
0.0
 40
0.0
 40
0.0
 40
0.0
 40
0.0
 40
0.0601976440153159
 40
0.1203434046987361
 40
0.1802921062117431
 40
0.2397999660846498
 40
0.2983669952297129
 40
0.3552634378530764
 40
0.4097143636452299
 40
0.4611969379716023
 40
0.4611969379716023
 40
0.4611969379716023
 40
0.4611969379716023
 10
0.3000013796849998
 20
6.354996641642627
 30
0.0
 10
0.3000013796849998
 20
6.375062522981066
 30
0.0
 10
0.3040322359778882
 20
6.415290655982655
 30
0.0
 10
0.3218421192809246
 20
6.473083524097698
 30
0.0
 10
0.350558447351753
 20
6.526062090409588
 30
0.0
 10
0.3887041939520261
 20
6.572012698921453
 30
0.0
 10
0.4342489482940119
 20
6.609038000237748
 30
0.0
 10
0.4846131778883115
 20
6.635737557084311
 30
0.0
 10
0.5368957597006477
 20
6.651495073857362
 30
0.0
 10
0.5722928914012942
 20
6.654996641642809
 30
0.0
 10
0.5894537495100849
 20
6.654996641642809
 30
0.0
 11
0.3000013796849998
 21
6.354996641642627
 31
0.0
 11
0.3059999391348356
 21
6.41489466856774
 31
0.0
 11
0.3237022014350259
 21
6.472376339017045
 31
0.0
 11
0.3522651082598713
 21
6.525083142817036
 31
0.0
 11
0.3902861203600878
 21
6.57086073586788
 31
0.0
 11
0.4357565575351147
 21
6.607773284492848
 31
0.0
 11
0.486055504560227
 21
6.634366913642677
 31
0.0
 11
0.5382143252850256
 21
6.649998955742829
 31
0.0
 11
0.5894537495100849
 21
6.654996641642809
 31
0.0
  0
LINE
  5
434
330
31A
100
AcDbEntity
  8
0
100
AcDbLine
 10
0.3000013796849998
 20
7.994996641642045
 30
0.0
 11
1.030001379684563
 21
7.994996641642045
 31
0.0
  0
LINE
  5
435
330
31A
100
AcDbEntity
  8
0
100
AcDbLine
 10
0.3000013796849998
 20
7.004996641642263
 30
0.0
 11
1.030001379684563
 21
7.004996641642263
 31
0.0
  0
LINE
  5
436
330
31A
100
AcDbEntity
  8
0
100
AcDbLine
 10
2.970001379685071
 20
7.509996641642374
 30
0.0
 11
2.970001379685071
 21
6.959996641642193
 31
0.0
  0
LINE
  5
437
330
31A
100
AcDbEntity
  8
0
100
AcDbLine
 10
2.620001379684707
 20
6.659996641642918
 30
0.0
 11
2.620001379684707
 21
6.959996641642193
 31
0.0
  0
LINE
  5
438
330
31A
100
AcDbEntity
  8
0
100
AcDbLine
 10
2.620050096610156
 20
6.959996641642193
 30
0.0
 11
3.018413527159736
 21
6.959996641642193
 31
0.0
  0
LINE
  5
439
330
31A
100
AcDbEntity
  8
0
100
AcDbLine
 10
2.871429951109803
 20
6.659996641642918
 30
0.0
 11
2.871429951109803
 21
6.959996641642193
 31
0.0
  0
LINE
  5
43A
330
31A
100
AcDbEntity
  8
0
100
AcDbLine
 10
3.018413527159736
 20
6.659996641642918
 30
0.0
 11
3.018413527159736
 21
6.959996641642193
 31
0.0
  0
LINE
  5
43B
330
31A
100
AcDbEntity
  8
0
100
AcDbLine
 10
2.620050096610156
 20
6.659996641642918
 30
0.0
 11
3.018413527159736
 21
6.659996641642918
 31
0.0
  0
LINE
  5
43C
330
31A
100
AcDbEntity
  8
0
100
AcDbLine
 10
3.070001379684526
 20
7.309996641642555
 30
0.0
 11
2.970001379685071
 21
7.509996641642374
 31
0.0
  0
LINE
  5
43D
330
31A
100
AcDbEntity
  8
0
100
AcDbLine
 10
0.680001379685109
 20
7.004996641642263
 30
0.0
 11
0.680001379685109
 21
6.654996641642809
 31
0.0
  0
LINE
  5
43E
330
31A
100
AcDbEntity
  8
0
100
AcDbLine
 10
0.6335375942094288
 20
6.654996641642809
 30
0.0
 11
1.229926632410297
 21
6.654996641642809
 31
0.0
  0
ARC
  5
43F
330
31A
100
AcDbEntity
  8
0
100
AcDbCircle
 10
0.3000013796849998
 20
7.304996641642446
 30
0.0
 40
0.3
100
AcDbArc
 50
180.0
 51
270.0
  0
LINE
  5
440
330
31A
100
AcDbEntity
  8
0
100
AcDbLine
 10
0.3000013796849998
 20
6.354996641642627
 30
0.0
 11
0.3409535863352175
 21
6.354996641642627
 31
0.0
  0
LINE
  5
441
330
31A
100
AcDbEntity
  8
0
100
AcDbLine
 10
0.0000013796848179
 20
7.304996641642446
 30
0.0
 11
0.0000013796848179
 21
7.694996641642773
 31
0.0
  0
LINE
  5
442
330
31A
100
AcDbEntity
  8
0
100
AcDbLine
 10
0.3347750834095677
 20
7.004996641642263
 30
0.0
 11
0.3347750834095677
 21
7.994996641642045
 31
0.0
  0
LINE
  5
443
330
31A
100
AcDbEntity
  8
0
100
AcDbLine
 10
1.48000137968529
 20
8.259996641642374
 30
0.0
 11
3.167929175110201
 21
8.259996641642374
 31
0.0
  0
LINE
  5
444
330
31A
100
AcDbEntity
  8
0
100
AcDbLine
 10
3.198183624834654
 20
8.240050783842432
 30
0.0
 11
3.193487642459786
 21
8.2416630610428
 31
0.0
  0
LINE
  5
445
330
31A
100
AcDbEntity
  8
0
100
AcDbLine
 10
1.48000137968529
 20
8.259996641642374
 30
0.0
 11
1.326447989084499
 21
8.413550032242255
 31
0.0
  0
LINE
  5
446
330
31A
100
AcDbEntity
  8
0
100
AcDbLine
 10
6.230001379685289
 20
7.554996641642446
 30
0.0
 11
6.680001379685107
 21
7.554996641642446
 31
0.0
  0
ARC
  5
447
330
31A
100
AcDbEntity
  8
0
100
AcDbCircle
 10
7.060001379685218
 20
6.904996641642809
 30
0.0
 40
0.3
100
AcDbArc
 50
0.0
 51
90.0
  0
LINE
  5
448
330
31A
100
AcDbEntity
  8
0
100
AcDbLine
 10
6.330001379684745
 20
7.204996641642082
 30
0.0
 11
7.060001379685218
 21
7.204996641642082
 31
0.0
  0
LINE
  5
449
330
31A
100
AcDbEntity
  8
0
100
AcDbLine
 10
6.780001379684562
 20
7.204996641642082
 30
0.0
 11
6.780001379684562
 21
7.859996641642737
 31
0.0
  0
LINE
  5
44A
330
31A
100
AcDbEntity
  8
0
100
AcDbLine
 10
7.080001379684745
 20
7.204996641642082
 30
0.0
 11
7.080001379684745
 21
7.859996641642737
 31
0.0
  0
LINE
  5
44B
330
31A
100
AcDbEntity
  8
0
100
AcDbLine
 10
6.680001379685107
 20
8.259996641642374
 30
0.0
 11
7.250001379684817
 21
8.259996641642374
 31
0.0
  0
LINE
  5
44C
330
31A
100
AcDbEntity
  8
0
100
AcDbLine
 10
4.192073584260015
 20
8.259996641642374
 30
0.0
 11
5.525001379684454
 21
8.259996641642374
 31
0.0
  0
LINE
  5
44D
330
31A
100
AcDbEntity
  8
0
100
AcDbLine
 10
4.34158923220957
 20
4.119996641642046
 30
0.0
 11
4.34158923220957
 21
4.419996641642228
 31
0.0
  0
LINE
  5
44E
330
31A
100
AcDbEntity
  8
0
100
AcDbLine
 10
4.488572808259505
 20
4.119996641642046
 30
0.0
 11
4.488572808259505
 21
4.419996641642228
 31
0.0
  0
LINE
  5
44F
330
31A
100
AcDbEntity
  8
0
100
AcDbLine
 10
4.740001379684598
 20
4.119996641642046
 30
0.0
 11
4.740001379684598
 21
4.419996641642228
 31
0.0
  0
LINE
  5
450
330
31A
100
AcDbEntity
  8
0
100
AcDbLine
 10
2.620001379684707
 20
4.119996641642046
 30
0.0
 11
2.620001379684707
 21
4.419996641642228
 31
0.0
  0
LINE
  5
451
330
31A
100
AcDbEntity
  8
0
100
AcDbLine
 10
2.871429951109803
 20
4.119996641642046
 30
0.0
 11
2.871429951109803
 21
4.419996641642228
 31
0.0
  0
LINE
  5
452
330
31A
100
AcDbEntity
  8
0
100
AcDbLine
 10
3.018413527159736
 20
4.119996641642046
 30
0.0
 11
3.018413527159736
 21
4.419996641642228
 31
0.0
  0
LINE
  5
453
330
31A
100
AcDbEntity
  8
0
100
AcDbLine
 10
4.290001379684781
 20
2.499996641642154
 30
0.0
 11
3.070001379684526
 21
2.499996641642154
 31
0.0
  0
LINE
  5
454
330
31A
100
AcDbEntity
  8
0
100
AcDbLine
 10
4.390001379685145
 20
2.299996641642336
 30
0.0
 11
2.970001379685071
 21
2.299996641642336
 31
0.0
  0
LINE
  5
455
330
31A
100
AcDbEntity
  8
0
100
AcDbLine
 10
4.161873148035283
 20
1.569996641642774
 30
0.0
 11
3.198129611334933
 21
1.569996641642774
 31
0.0
  0
LINE
  5
456
330
31A
100
AcDbEntity
  8
0
100
AcDbLine
 10
4.166515116909521
 20
1.568330222242821
 30
0.0
 11
3.193487642459786
 21
1.568330222242821
 31
0.0
  0
LINE
  5
457
330
31A
100
AcDbEntity
  8
0
100
AcDbLine
 10
4.730001379685289
 20
0.1699966416422285
 30
0.0
 11
1.830001379684745
 21
0.1699966416422285
 31
0.0
  0
LINE
  5
458
330
31A
100
AcDbEntity
  8
0
100
AcDbLine
 10
4.390001379685145
 20
4.119996641642046
 30
0.0
 11
4.390001379685145
 21
3.1499966416427
 31
0.0
  0
LINE
  5
459
330
31A
100
AcDbEntity
  8
0
100
AcDbLine
 10
4.658232470234452
 20
1.215611899442136
 30
0.0
 11
4.166515116909521
 21
1.568330222242821
 31
0.0
  0
LINE
  5
45A
330
31A
100
AcDbEntity
  8
0
100
AcDbLine
 10
4.166515116909521
 20
1.568330222242821
 30
0.0
 11
4.161819134534653
 21
1.569942499442277
 31
0.0
  0
LINE
  5
45B
330
31A
100
AcDbEntity
  8
0
100
AcDbLine
 10
4.34158923220957
 20
2.849996641642518
 30
0.0
 11
4.34158923220957
 21
3.1499966416427
 31
0.0
  0
LINE
  5
45C
330
31A
100
AcDbEntity
  8
0
100
AcDbLine
 10
4.488572808259505
 20
2.849996641642518
 30
0.0
 11
4.488572808259505
 21
3.1499966416427
 31
0.0
  0
LINE
  5
45D
330
31A
100
AcDbEntity
  8
0
100
AcDbLine
 10
4.740001379684598
 20
2.849996641642518
 30
0.0
 11
4.740001379684598
 21
3.1499966416427
 31
0.0
  0
LINE
  5
45E
330
31A
100
AcDbEntity
  8
0
100
AcDbLine
 10
4.390001379685145
 20
2.849996641642518
 30
0.0
 11
4.390001379685145
 21
2.299996641642336
 31
0.0
  0
LINE
  5
45F
330
31A
100
AcDbEntity
  8
0
100
AcDbLine
 10
4.290001379684781
 20
2.499996641642154
 30
0.0
 11
4.390001379685145
 21
2.299996641642336
 31
0.0
  0
LINE
  5
460
330
31A
100
AcDbEntity
  8
0
100
AcDbLine
 10
4.34158923220957
 20
2.849996641642518
 30
0.0
 11
4.739952662760059
 21
2.849996641642518
 31
0.0
  0
LINE
  5
461
330
31A
100
AcDbEntity
  8
0
100
AcDbLine
 10
4.34158923220957
 20
3.1499966416427
 30
0.0
 11
4.739952662760059
 21
3.1499966416427
 31
0.0
  0
LINE
  5
462
330
31A
100
AcDbEntity
  8
0
100
AcDbLine
 10
4.34158923220957
 20
4.119996641642046
 30
0.0
 11
4.739952662760059
 21
4.119996641642046
 31
0.0
  0
LINE
  5
463
330
31A
100
AcDbEntity
  8
0
100
AcDbLine
 10
2.970001379685071
 20
4.119996641642046
 30
0.0
 11
2.970001379685071
 21
3.1499966416427
 31
0.0
  0
SPLINE
  5
464
330
31A
100
AcDbEntity
  8
0
100
AcDbSpline
210
0.0
220
0.0
230
1.0
 70
     8
 71
     3
 72
    15
 73
    11
 74
     9
 42
0.0000000001
 43
0.0000000001
 44
0.0000000001
 12
-0.0000000000000003
 22
-1.0
 32
0.0
 13
1.0
 23
-0.0000000000000003
 33
0.0
 40
0.0
 40
0.0
 40
0.0
 40
0.0
 40
0.0593261002241214
 40
0.1186608019706715
 40
0.1778432634372302
 40
0.2367706770743255
 40
0.2951865537270666
 40
0.3527380240448171
 40
0.4091219901444795
 40
0.4640323935828278
 40
0.4640323935828278
 40
0.4640323935828278
 40
0.4640323935828278
 10
0.3409535863352175
 20
3.454996641642081
 30
0.0
 10
0.3409535863352175
 20
3.435221274900707
 30
0.0
 10
0.3448735061397615
 20
3.395559344436529
 30
0.0
 10
0.3622024247632243
 20
3.338487080460464
 30
0.0
 10
0.3902612208789354
 20
3.285984036621368
 30
0.0
 10
0.4277546370649393
 20
3.240151089469156
 30
0.0
 10
0.4730043104716765
 20
3.202806815402987
 30
0.0
 10
0.5239010772917282
 20
3.17536302868693
 30
0.0
 10
0.5780376369881807
 20
3.158740045518773
 30
0.0
 10
0.6152341263975556
 20
3.15499664164281
 30
0.0
 10
0.6335375942103383
 20
3.15499664164281
 30
0.0
 11
0.3409535863352175
 21
3.454996641642081
 31
0.0
 11
0.3467835206852214
 21
3.395957688117504
 31
0.0
 11
0.3640200186596303
 21
3.339181725167236
 31
0.0
 11
0.391910911035211
 21
3.286983431442877
 31
0.0
 11
0.4292342559351711
 21
3.24138290509245
 31
0.0
 11
0.4743044359852321
 21
3.20421983854294
 31
0.0
 11
0.5249818861097994
 21
3.176944065692167
 31
0.0
 11
0.5788983036850368
 21
3.160446443167073
 31
0.0
 11
0.6335375942103383
 21
3.15499664164281
 31
0.0
  0
SPLINE
  5
465
330
31A
100
AcDbEntity
  8
0
100
AcDbSpline
210
0.0
220
0.0
230
1.0
 70
     8
 71
     3
 72
    15
 73
    11
 74
     9
 42
0.0000000001
 43
0.0000000001
 44
0.0000000001
 12
-1.0
 22
0.0000000000000003
 32
0.0
 13
0.0000000000000003
 23
1.0
 33
0.0
 40
0.0
 40
0.0
 40
0.0
 40
0.0
 40
0.0514825650951295
 40
0.1059334599719621
 40
0.1628298698748232
 40
0.2213968778989235
 40
0.2809047422603266
 40
0.3408534599838578
 40
0.4009992673998342
 40
0.4611969358582878
 40
0.4611969358582878
 40
0.4611969358582878
 40
0.4611969358582878
 10
0.5894537495100849
 20
3.15499664164281
 30
0.0
 10
0.5722928944783751
 20
3.15499664164281
 30
0.0
 10
0.536895776132841
 20
3.158498207129699
 30
0.0
 10
0.4846132170046156
 20
3.174255713550115
 30
0.0
 10
0.4342490084245398
 20
3.200955247942126
 30
0.0
 10
0.3887042555708712
 20
3.237980524933181
 30
0.0
 10
0.3505584986081359
 20
3.283931124170348
 30
0.0
 10
0.3218421387110908
 20
3.336909699651388
 30
0.0
 10
0.304032246804308
 20
3.394702596398251
 30
0.0
 10
0.3000013796849998
 20
3.43493075215593
 30
0.0
 10
0.3000013796849998
 20
3.454996641642081
 30
0.0
 11
0.5894537495100849
 21
3.15499664164281
 31
0.0
 11
0.5382143343845202
 21
3.159994325742899
 31
0.0
 11
0.4860555422096695
 21
3.175626355417533
 31
0.0
 11
0.4357566193098137
 21
3.202219960192906
 31
0.0
 11
0.3902861881101671
 21
3.239132482667173
 31
0.0
 11
0.3522651602847873
 21
3.284910068492081
 31
0.0
 11
0.3237022293101289
 21
3.337616877642631
 31
0.0
 11
0.3059999475349286
 21
3.395098590992801
 31
0.0
 11
0.3000013796849998
 21
3.454996641642081
 31
0.0
  0
LINE
  5
466
330
31A
100
AcDbEntity
  8
0
100
AcDbLine
 10
0.3000013796849998
 20
2.804996641642445
 30
0.0
 11
1.030001379684563
 21
2.804996641642445
 31
0.0
  0
LINE
  5
467
330
31A
100
AcDbEntity
  8
0
100
AcDbLine
 10
0.3000013796849998
 20
1.814996641642665
 30
0.0
 11
1.030001379684563
 21
1.814996641642665
 31
0.0
  0
LINE
  5
468
330
31A
100
AcDbEntity
  8
0
100
AcDbLine
 10
1.030001379684563
 20
1.299996641642336
 30
0.0
 11
1.030001379684563
 21
3.15499664164281
 31
0.0
  0
LINE
  5
469
330
31A
100
AcDbEntity
  8
0
100
AcDbLine
 10
1.180001379685107
 20
3.15499664164281
 30
0.0
 11
1.180001379685107
 21
1.749996641642155
 31
0.0
  0
LINE
  5
46A
330
31A
100
AcDbEntity
  8
0
100
AcDbLine
 10
3.167929175110201
 20
1.549996641642336
 30
0.0
 11
1.48000137968529
 21
1.549996641642336
 31
0.0
  0
LINE
  5
46B
330
31A
100
AcDbEntity
  8
0
100
AcDbLine
 10
2.749705350459861
 20
1.249996641642155
 30
0.0
 11
1.680001379685108
 21
1.249996641642155
 31
0.0
  0
LINE
  5
46C
330
31A
100
AcDbEntity
  8
0
100
AcDbLine
 10
2.600001379685181
 20
1.199996641642883
 30
0.0
 11
2.600001379685181
 21
1.249996641642155
 31
0.0
  0
LINE
  5
46D
330
31A
100
AcDbEntity
  8
0
100
AcDbLine
 10
2.680001379685107
 20
1.199996641642883
 30
0.0
 11
3.193487642459786
 21
1.568330222242821
 31
0.0
  0
LINE
  5
46E
330
31A
100
AcDbEntity
  8
0
100
AcDbLine
 10
3.193487642459786
 20
1.568330222242821
 30
0.0
 11
3.198183624834654
 21
1.569942499442277
 31
0.0
  0
ARC
  5
46F
330
31A
100
AcDbEntity
  8
0
100
AcDbCircle
 10
1.130001379684927
 20
1.299996641642336
 30
0.0
 40
0.45
100
AcDbArc
 50
180.0
 51
270.0
  0
LINE
  5
470
330
31A
100
AcDbEntity
  8
0
100
AcDbLine
 10
1.530001379684563
 20
0.4699966416424104
 30
0.0
 11
1.530001379684563
 21
1.199996641642883
 31
0.0
  0
ARC
  5
471
330
31A
100
AcDbEntity
  8
0
100
AcDbCircle
 10
1.830001379684745
 20
0.4699966416424104
 30
0.0
 40
0.3
100
AcDbArc
 50
180.0
 51
270.0
  0
ARC
  5
472
330
31A
100
AcDbEntity
  8
0
100
AcDbCircle
 10
1.130001379684927
 20
1.299996641642336
 30
0.0
 40
0.1
100
AcDbArc
 50
180.0
 51
270.0
  0
ARC
  5
473
330
31A
100
AcDbEntity
  8
0
100
AcDbCircle
 10
1.680001379685108
 20
1.749996641643065
 30
0.0
 40
0.5
100
AcDbArc
 50
180.0
 51
270.0
  0
LINE
  5
474
330
31A
100
AcDbEntity
  8
0
100
AcDbLine
 10
0.680001379685109
 20
1.814996641642665
 30
0.0
 11
0.680001379685109
 21
1.299996641642336
 31
0.0
  0
LINE
  5
475
330
31A
100
AcDbEntity
  8
0
100
AcDbLine
 10
1.48000137968529
 20
1.549996641642336
 30
0.0
 11
1.326447989084499
 21
1.396443251042455
 31
0.0
  0
LINE
  5
476
330
31A
100
AcDbEntity
  8
0
100
AcDbLine
 10
1.130001379684927
 20
0.8499966416425195
 30
0.0
 11
1.530001379684563
 21
0.8499966416425195
 31
0.0
  0
LINE
  5
477
330
31A
100
AcDbEntity
  8
0
100
AcDbLine
 10
2.620001379684707
 20
2.849996641642518
 30
0.0
 11
2.620001379684707
 21
3.1499966416427
 31
0.0
  0
LINE
  5
478
330
31A
100
AcDbEntity
  8
0
100
AcDbLine
 10
2.871429951109803
 20
2.849996641642518
 30
0.0
 11
2.871429951109803
 21
3.1499966416427
 31
0.0
  0
LINE
  5
479
330
31A
100
AcDbEntity
  8
0
100
AcDbLine
 10
3.018413527159736
 20
2.849996641642518
 30
0.0
 11
3.018413527159736
 21
3.1499966416427
 31
0.0
  0
LINE
  5
47A
330
31A
100
AcDbEntity
  8
0
100
AcDbLine
 10
2.970001379685071
 20
2.849996641642518
 30
0.0
 11
2.970001379685071
 21
2.299996641642336
 31
0.0
  0
LINE
  5
47B
330
31A
100
AcDbEntity
  8
0
100
AcDbLine
 10
3.070001379684526
 20
2.499996641642154
 30
0.0
 11
2.970001379685071
 21
2.299996641642336
 31
0.0
  0
LINE
  5
47C
330
31A
100
AcDbEntity
  8
0
100
AcDbLine
 10
2.620050096610156
 20
2.849996641642518
 30
0.0
 11
3.018413527159736
 21
2.849996641642518
 31
0.0
  0
LINE
  5
47D
330
31A
100
AcDbEntity
  8
0
100
AcDbLine
 10
2.620050096610156
 20
3.1499966416427
 30
0.0
 11
3.018413527159736
 21
3.1499966416427
 31
0.0
  0
LINE
  5
47E
330
31A
100
AcDbEntity
  8
0
100
AcDbLine
 10
0.680001379685109
 20
3.15499664164281
 30
0.0
 11
0.680001379685109
 21
2.804996641642445
 31
0.0
  0
LINE
  5
47F
330
31A
100
AcDbEntity
  8
0
100
AcDbLine
 10
0.6335375942094288
 20
3.15499664164281
 30
0.0
 11
1.229926632410297
 21
3.15499664164281
 31
0.0
  0
ARC
  5
480
330
31A
100
AcDbEntity
  8
0
100
AcDbCircle
 10
0.3000013796849998
 20
2.114996641642846
 30
0.0
 40
0.3
100
AcDbArc
 50
180.0
 51
270.0
  0
LINE
  5
481
330
31A
100
AcDbEntity
  8
0
100
AcDbLine
 10
0.3347750834095677
 20
2.804996641642445
 30
0.0
 11
0.3347750834095677
 21
1.814996641642665
 31
0.0
  0
ARC
  5
482
330
31A
100
AcDbEntity
  8
0
100
AcDbCircle
 10
0.3000013796849998
 20
2.504996641642263
 30
0.0
 40
0.3
100
AcDbArc
 50
90.0
 51
180.0
  0
LINE
  5
483
330
31A
100
AcDbEntity
  8
0
100
AcDbLine
 10
0.0000013796848179
 20
2.504996641642263
 30
0.0
 11
0.0000013796848179
 21
2.114996641642846
 31
0.0
  0
LINE
  5
484
330
31A
100
AcDbEntity
  8
0
100
AcDbLine
 10
0.3409535863352175
 20
3.454996641642081
 30
0.0
 11
0.3000013796849998
 21
3.454996641642081
 31
0.0
  0
LINE
  5
485
330
31A
100
AcDbEntity
  8
0
100
AcDbLine
 10
2.620050096610156
 20
4.119996641642046
 30
0.0
 11
3.018413527159736
 21
4.119996641642046
 31
0.0
  0
ARC
  5
486
330
31A
100
AcDbEntity
  8
0
100
AcDbCircle
 10
6.23000137968438
 20
1.299996641642336
 30
0.0
 40
0.1
100
AcDbArc
 50
270.0
 51
0.0
  0
ARC
  5
487
330
31A
100
AcDbEntity
  8
0
100
AcDbCircle
 10
5.930001379685107
 20
0.839996641642301
 30
0.0
 40
0.3
100
AcDbArc
 50
270.0
 51
0.0
  0
ARC
  5
488
330
31A
100
AcDbEntity
  8
0
100
AcDbCircle
 10
6.23000137968438
 20
1.299996641642336
 30
0.0
 40
0.45
100
AcDbArc
 50
270.0
 51
0.0
  0
LINE
  5
489
330
31A
100
AcDbEntity
  8
0
100
AcDbLine
 10
6.680001379685107
 20
2.254996641642263
 30
0.0
 11
6.230001379685289
 21
2.254996641642263
 31
0.0
  0
LINE
  5
48A
330
31A
100
AcDbEntity
  8
0
100
AcDbLine
 10
6.230001379685289
 20
1.299996641642336
 30
0.0
 11
6.680001379685107
 21
1.299996641642336
 31
0.0
  0
LINE
  5
48B
330
31A
100
AcDbEntity
  8
0
100
AcDbLine
 10
6.314550490510099
 20
1.249996641642155
 30
0.0
 11
6.230001379685289
 21
1.249996641642155
 31
0.0
  0
LINE
  5
48C
330
31A
100
AcDbEntity
  8
0
100
AcDbLine
 10
6.230001379685289
 20
0.8499966416425195
 30
0.0
 11
7.330001379684745
 21
0.8499966416425195
 31
0.0
  0
LINE
  5
48D
330
31A
100
AcDbEntity
  8
0
100
AcDbLine
 10
6.680001379685107
 20
1.299996641642336
 30
0.0
 11
6.680001379685107
 21
2.604996641642628
 31
0.0
  0
LINE
  5
48E
330
31A
100
AcDbEntity
  8
0
100
AcDbLine
 10
7.250001379684817
 20
1.249996641642155
 30
0.0
 11
7.250001379684817
 21
1.949996641642883
 31
0.0
  0
ARC
  5
48F
330
31A
100
AcDbEntity
  8
0
100
AcDbCircle
 10
7.330001379684745
 20
0.7999966416423378
 30
0.0
 40
0.05
100
AcDbArc
 50
0.0
 51
90.0
  0
LINE
  5
490
330
31A
100
AcDbEntity
  8
0
100
AcDbLine
 10
7.380001379684927
 20
-0.0000033583578443
 30
0.0
 11
7.380001379684927
 21
0.7999966416423378
 31
0.0
  0
LINE
  5
491
330
31A
100
AcDbEntity
  8
0
100
AcDbLine
 10
7.430001379685107
 20
1.18683139189261
 30
0.0
 11
7.430001379685107
 21
1.199996641642883
 31
0.0
  0
LINE
  5
492
330
31A
100
AcDbEntity
  8
0
100
AcDbLine
 10
7.250001379684817
 20
1.549996641642336
 30
0.0
 11
6.680001379685107
 21
1.549996641642336
 31
0.0
  0
LINE
  5
493
330
31A
100
AcDbEntity
  8
0
100
AcDbLine
 10
7.250001379684817
 20
1.249996641642155
 30
0.0
 11
6.673418754809517
 21
1.249996641642155
 31
0.0
  0
LINE
  5
494
330
31A
100
AcDbEntity
  8
0
100
AcDbLine
 10
7.430001379685107
 20
1.199996641642883
 30
0.0
 11
6.666836129934835
 21
1.199996641642883
 31
0.0
  0
ARC
  5
495
330
31A
100
AcDbEntity
  8
0
100
AcDbCircle
 10
7.060001379685218
 20
2.90499664164281
 30
0.0
 40
0.3
100
AcDbArc
 50
270.0
 51
0.0
  0
LINE
  5
496
330
31A
100
AcDbEntity
  8
0
100
AcDbLine
 10
6.780001379684562
 20
1.949996641642883
 30
0.0
 11
6.780001379684562
 21
2.604996641642628
 31
0.0
  0
LINE
  5
497
330
31A
100
AcDbEntity
  8
0
100
AcDbLine
 10
7.080001379684745
 20
1.949996641642883
 30
0.0
 11
7.080001379684745
 21
2.604996641642628
 31
0.0
  0
LINE
  5
498
330
31A
100
AcDbEntity
  8
0
100
AcDbLine
 10
6.330001379684745
 20
2.604996641642628
 30
0.0
 11
7.060001379685218
 21
2.604996641642628
 31
0.0
  0
LINE
  5
499
330
31A
100
AcDbEntity
  8
0
100
AcDbLine
 10
6.230001379685289
 20
2.254996641642263
 30
0.0
 11
5.230001379685289
 21
1.254996641642264
 31
0.0
  0
LINE
  5
49A
330
31A
100
AcDbEntity
  8
0
100
AcDbLine
 10
5.030001379684563
 20
0.4699966416424104
 30
0.0
 11
5.030001379684563
 21
1.199996641642883
 31
0.0
  0
LINE
  5
49B
330
31A
100
AcDbEntity
  8
0
100
AcDbLine
 10
5.230001379685289
 20
1.254996641642264
 30
0.0
 11
5.230001379685289
 21
0.839996641642301
 31
0.0
  0
LINE
  5
49C
330
31A
100
AcDbEntity
  8
0
100
AcDbLine
 10
6.230001379685289
 20
0.839996641642301
 30
0.0
 11
6.230001379685289
 21
1.299996641642336
 31
0.0
  0
ARC
  5
49D
330
31A
100
AcDbEntity
  8
0
100
AcDbCircle
 10
5.530001379684564
 20
0.839996641642301
 30
0.0
 40
0.3
100
AcDbArc
 50
180.0
 51
270.0
  0
LINE
  5
49E
330
31A
100
AcDbEntity
  8
0
100
AcDbLine
 10
5.530001379684564
 20
0.5399966416421194
 30
0.0
 11
5.930001379685107
 21
0.5399966416421194
 31
0.0
  0
LINE
  5
49F
330
31A
100
AcDbEntity
  8
0
100
AcDbLine
 10
5.030001379684563
 20
0.8499966416425195
 30
0.0
 11
5.230001379685289
 21
0.8499966416425195
 31
0.0
  0
LINE
  5
4A0
330
31A
100
AcDbEntity
  8
0
100
AcDbLine
 10
5.230001379685289
 20
1.199996641642883
 30
0.0
 11
1.130001379684927
 21
1.199996641642883
 31
0.0
  0
LINE
  5
4A1
330
31A
100
AcDbEntity
  8
0
100
AcDbLine
 10
5.030001379684563
 20
0.5047703453678878
 30
0.0
 11
1.530001379684563
 21
0.5047703453678878
 31
0.0
  0
ELLIPSE
  5
4A2
330
31A
100
AcDbEntity
  8
0
100
AcDbEllipse
 10
4.907081065409784
 20
1.217267570592865
 30
0.0
 11
-0.25
 21
0.0000000000000001
 31
0.0
210
0.0
220
0.0
230
1.0
 40
0.0690837158
 41
0.096012071
 42
1.570787529499998
  0
ARC
  5
4A3
330
31A
100
AcDbEntity
  8
0
100
AcDbCircle
 10
4.73000137968438
 20
0.4699966416424104
 30
0.0
 40
0.3
100
AcDbArc
 50
270.0
 51
0.0
  0
LINE
  5
4A4
330
31A
100
AcDbEntity
  8
0
100
AcDbLine
 10
5.525001379684454
 20
1.549996641642336
 30
0.0
 11
4.192073584260015
 21
1.549996641642336
 31
0.0
  0
LINE
  5
4A5
330
31A
100
AcDbEntity
  8
0
100
AcDbLine
 10
5.230001379685289
 20
1.249996641642155
 30
0.0
 11
4.610297408909445
 21
1.249996641642155
 31
0.0
  0
LINE
  5
4A6
330
31A
100
AcDbEntity
  8
0
100
AcDbLine
 10
4.34158923220957
 20
5.689996641642665
 30
0.0
 11
4.739952662760059
 21
5.689996641642665
 31
0.0
  0
LINE
  5
4A7
330
31A
100
AcDbEntity
  8
0
100
AcDbLine
 10
4.34158923220957
 20
5.389996641642483
 30
0.0
 11
4.34158923220957
 21
5.689996641642665
 31
0.0
  0
LINE
  5
4A8
330
31A
100
AcDbEntity
  8
0
100
AcDbLine
 10
4.488572808259505
 20
5.389996641642483
 30
0.0
 11
4.488572808259505
 21
5.689996641642665
 31
0.0
  0
LINE
  5
4A9
330
31A
100
AcDbEntity
  8
0
100
AcDbLine
 10
4.34158923220957
 20
5.389996641642483
 30
0.0
 11
4.739952662760059
 21
5.389996641642483
 31
0.0
  0
LINE
  5
4AA
330
31A
100
AcDbEntity
  8
0
100
AcDbLine
 10
4.740001379684598
 20
5.389996641642483
 30
0.0
 11
4.740001379684598
 21
5.689996641642665
 31
0.0
  0
LINE
  5
4AB
330
31A
100
AcDbEntity
  8
0
100
AcDbLine
 10
2.620001379684707
 20
5.389996641642483
 30
0.0
 11
2.620001379684707
 21
5.689996641642665
 31
0.0
  0
LINE
  5
4AC
330
31A
100
AcDbEntity
  8
0
100
AcDbLine
 10
2.871429951109803
 20
5.389996641642483
 30
0.0
 11
2.871429951109803
 21
5.689996641642665
 31
0.0
  0
LINE
  5
4AD
330
31A
100
AcDbEntity
  8
0
100
AcDbLine
 10
3.018413527159736
 20
5.389996641642483
 30
0.0
 11
3.018413527159736
 21
5.689996641642665
 31
0.0
  0
LINE
  5
4AE
330
31A
100
AcDbEntity
  8
0
100
AcDbLine
 10
2.620050096610156
 20
5.689996641642665
 30
0.0
 11
3.018413527159736
 21
5.689996641642665
 31
0.0
  0
LINE
  5
4AF
330
31A
100
AcDbEntity
  8
0
100
AcDbLine
 10
2.620050096610156
 20
5.389996641642483
 30
0.0
 11
3.018413527159736
 21
5.389996641642483
 31
0.0
  0
LINE
  5
4B0
330
31A
100
AcDbEntity
  8
0
100
AcDbLine
 10
4.34158923220957
 20
4.419996641642228
 30
0.0
 11
4.739952662760059
 21
4.419996641642228
 31
0.0
  0
LINE
  5
4B1
330
31A
100
AcDbEntity
  8
0
100
AcDbLine
 10
2.620050096610156
 20
4.419996641642228
 30
0.0
 11
3.018413527159736
 21
4.419996641642228
 31
0.0
  0
LINE
  5
4B2
330
31A
100
AcDbEntity
  8
0
100
AcDbLine
 10
4.390001379685145
 20
5.389996641642483
 30
0.0
 11
4.390001379685145
 21
4.419996641642228
 31
0.0
  0
LINE
  5
4B3
330
31A
100
AcDbEntity
  8
0
100
AcDbLine
 10
2.970001379685071
 20
5.389996641642483
 30
0.0
 11
2.970001379685071
 21
4.419996641642228
 31
0.0
  0
LINE
  5
4B4
330
31A
100
AcDbEntity
  8
0
100
AcDbLine
 10
4.290001379684781
 20
7.309996641642555
 30
0.0
 11
4.290001379684781
 21
2.499996641642154
 31
0.0
  0
LINE
  5
4B5
330
31A
100
AcDbEntity
  8
0
100
AcDbLine
 10
0.3000013796849998
 20
3.454996641642081
 30
0.0
 11
0.3000013796849998
 21
6.354996641642627
 31
0.0
  0
LINE
  5
4B6
330
31A
100
AcDbEntity
  8
0
100
AcDbLine
 10
0.3409535863352175
 20
3.454996641642081
 30
0.0
 11
0.3409535863352175
 21
6.354996641642627
 31
0.0
  0
LINE
  5
4B7
330
31A
100
AcDbEntity
  8
0
100
AcDbLine
 10
1.230001379685289
 20
3.15499664164281
 30
0.0
 11
1.230001379685289
 21
6.654996641642809
 31
0.0
  0
LINE
  5
4B8
330
31A
100
AcDbEntity
  8
0
100
AcDbLine
 10
1.48000137968529
 20
8.259996641642374
 30
0.0
 11
1.48000137968529
 21
1.549996641642336
 31
0.0
  0
LINE
  5
4B9
330
31A
100
AcDbEntity
  8
0
100
AcDbLine
 10
3.070001379684526
 20
7.309996641642555
 30
0.0
 11
3.070001379684526
 21
2.499996641642154
 31
0.0
  0
LINE
  5
4BA
330
31A
100
AcDbEntity
  8
0
100
AcDbLine
 10
6.330001379684745
 20
2.254996641642263
 30
0.0
 11
6.330001379684745
 21
7.554996641642446
 31
0.0
  0
LINE
  5
4BB
330
31A
100
AcDbEntity
  8
0
100
AcDbLine
 10
7.025227675959739
 20
7.204996641642082
 30
0.0
 11
7.025227675959739
 21
2.604996641642628
 31
0.0
  0
LINE
  5
4BC
330
31A
100
AcDbEntity
  8
0
100
AcDbLine
 10
7.360001379684489
 20
6.904996641642809
 30
0.0
 11
7.360001379684489
 21
2.90499664164281
 31
0.0
  0
LINE
  5
4BD
330
31A
100
AcDbEntity
  8
0
100
AcDbLine
 10
4.390001379685145
 20
6.659996641642918
 30
0.0
 11
4.390001379685145
 21
5.689996641642665
 31
0.0
  0
LINE
  5
4BE
330
31A
100
AcDbEntity
  8
0
100
AcDbLine
 10
2.970001379685071
 20
6.659996641642918
 30
0.0
 11
2.970001379685071
 21
5.689996641642665
 31
0.0
  0
ENDBLK
  5
4C0
330
31A
100
AcDbEntity
  8
0
100
AcDbBlockEnd
  0
BLOCK
  5
9FA
330
9F6
100
AcDbEntity
  8
0
100
AcDbBlockBegin
  2
_Open
 70
     0
 10
0.0
 20
0.0
 30
0.0
  3
_Open
  1

  0
LINE
  5
9F7
330
9F6
100
AcDbEntity
  8
0
  6
ByBlock
 62
     0
370
    -2
100
AcDbLine
 10
-1.0
 20
0.1666666666666666
 30
0.0
 11
0.0
 21
0.0
 31
0.0
  0
LINE
  5
9F8
330
9F6
100
AcDbEntity
  8
0
  6
ByBlock
 62
     0
370
    -2
100
AcDbLine
 10
-1.0
 20
-0.1666666666666666
 30
0.0
 11
0.0
 21
0.0
 31
0.0
  0
LINE
  5
9F9
330
9F6
100
AcDbEntity
  8
0
  6
ByBlock
 62
     0
370
    -2
100
AcDbLine
 10
0.0
 20
0.0
 30
0.0
 11
-1.0
 21
0.0
 31
0.0
  0
ENDBLK
  5
9FB
330
9F6
100
AcDbEntity
  8
0
100
AcDbBlockEnd
  0
ENDSEC
  0
SECTION
  2
ENTITIES
  0
LINE
  5
663
330
1F
100
AcDbEntity
  8
1
100
AcDbLine
 10
211.9349174522056
 20
545.6871467347024
 30
0.0
 11
226.9349174522055
 21
545.6871467347024
 31
0.0
  0
LINE
  5
664
330
1F
100
AcDbEntity
  8
1
100
AcDbLine
 10
211.9349174522056
 20
361.6871467347023
 30
0.0
 11
226.9349174522055
 21
361.6871467347023
 31
0.0
  0
LINE
  5
665
330
1F
100
AcDbEntity
  8
1
100
AcDbLine
 10
219.4349174522053
 20
538.1871467347024
 30
0.0
 11
219.4349174522053
 21
553.1871467347023
 31
0.0
  0
LINE
  5
666
330
1F
100
AcDbEntity
  8
1
100
AcDbLine
 10
219.4349174522054
 20
354.1871467347023
 30
0.0
 11
219.4349174522054
 21
369.1871467347023
 31
0.0
  0
LINE
  5
674
330
1F
100
AcDbEntity
  8
0
100
AcDbLine
 10
190.4349174522055
 20
549.6082461775041
 30
0.0
 11
190.4349174522055
 21
357.766047291901
 31
0.0
  0
LINE
  5
675
330
1F
100
AcDbEntity
  8
0
100
AcDbLine
 10
248.4349174522053
 20
549.6871467347024
 30
0.0
 11
248.4349174522053
 21
357.6871467347023
 31
0.0
  0
LINE
  5
676
330
1F
100
AcDbEntity
  8
0
100
AcDbLine
 10
191.4087405038974
 20
550.607903502479
 30
0.0
 11
194.4349174522054
 21
550.6871467347024
 31
0.0
  0
LINE
  5
677
330
1F
100
AcDbEntity
  8
0
100
AcDbLine
 10
217.3349174522054
 20
361.6871467347023
 30
0.0
 11
217.3349174522054
 21
356.6871467347023
 31
0.0
  0
LINE
  5
678
330
1F
100
AcDbEntity
  8
0
100
AcDbLine
 10
190.9218289780514
 20
540.5951532754526
 30
0.0
 11
194.4349174522054
 21
540.6871467347023
 31
0.0
  0
LINE
  5
679
330
1F
100
AcDbEntity
  8
0
100
AcDbLine
 10
190.9218289780514
 20
366.7791401939521
 30
0.0
 11
194.4349174522054
 21
366.6871467347023
 31
0.0
  0
LINE
  5
67A
330
1F
100
AcDbEntity
  8
0
100
AcDbLine
 10
195.4349174522054
 20
387.3203271596153
 30
0.0
 11
195.4349174522054
 21
540.6609608131331
 31
0.0
  0
ARC
  5
67B
330
1F
100
AcDbEntity
  8
0
100
AcDbCircle
 10
194.7349174522054
 20
383.6871467347023
 30
0.0
 40
3.699999999995998
100
AcDbArc
 50
0.0
 51
79.09453000325791
  0
LINE
  5
67C
330
1F
100
AcDbEntity
  8
0
100
AcDbLine
 10
198.4349174522014
 20
383.6871467347023
 30
0.0
 11
198.4349174522003
 21
366.7918904209791
 31
0.0
  0
LINE
  5
67D
330
1F
100
AcDbEntity
  8
0
100
AcDbLine
 10
191.4087405038974
 20
356.7663899669252
 30
0.0
 11
194.4349174522054
 21
356.6871467347023
 31
0.0
  0
LINE
  5
67E
330
1F
100
AcDbEntity
  8
0
100
AcDbLine
 10
195.4349174522054
 20
536.6871467347023
 30
0.0
 11
195.4480059263584
 21
536.6874894684602
 31
0.0
  0
LINE
  5
67F
330
1F
100
AcDbEntity
  8
0
100
AcDbLine
 10
194.4349174522054
 20
550.6871467347024
 30
0.0
 11
247.4349174522053
 21
550.6871467347024
 31
0.0
  0
LINE
  5
680
330
1F
100
AcDbEntity
  8
0
100
AcDbLine
 10
194.4349174522054
 20
540.6871467347023
 30
0.0
 11
195.4349174522054
 21
540.6609608131331
 31
0.0
  0
LINE
  5
681
330
1F
100
AcDbEntity
  8
0
100
AcDbLine
 10
194.4349174522054
 20
366.6871467347023
 30
0.0
 11
198.4349174522003
 21
366.7918904209791
 31
0.0
  0
LINE
  5
682
330
1F
100
AcDbEntity
  8
0
100
AcDbLine
 10
194.4349174522054
 20
356.6871467347023
 30
0.0
 11
217.3349174522054
 21
356.6871467347023
 31
0.0
  0
CIRCLE
  5
683
330
1F
100
AcDbEntity
  8
0
100
AcDbCircle
 10
219.4349174522053
 20
545.6871467347024
 30
0.0
 40
2.1
  0
ARC
  5
684
330
1F
100
AcDbEntity
  8
0
100
AcDbCircle
 10
219.4349174522053
 20
545.6871467347024
 30
0.0
 40
5.5
100
AcDbArc
 50
180.0
 51
245.3800226713512
  0
ARC
  5
685
330
1F
100
AcDbEntity
  8
0
100
AcDbCircle
 10
219.4349174522053
 20
361.6871467347023
 30
0.0
 40
5.5
100
AcDbArc
 50
0.0
 51
65.38002267135121
  0
ARC
  5
686
330
1F
100
AcDbEntity
  8
0
100
AcDbCircle
 10
219.4349174522053
 20
361.6871467347023
 30
0.0
 40
2.1
100
AcDbArc
 50
0.0
 51
180.0
  0
LINE
  5
687
330
1F
100
AcDbEntity
  8
0
100
AcDbLine
 10
221.5349174522053
 20
356.6871467347023
 30
0.0
 11
224.9349174522043
 21
356.6871467347023
 31
0.0
  0
LINE
  5
688
330
1F
100
AcDbEntity
  8
0
100
AcDbLine
 10
224.9349174522053
 20
545.6871467347024
 30
0.0
 11
224.9349174522053
 21
550.6871467347024
 31
0.0
  0
LINE
  5
689
330
1F
100
AcDbEntity
  8
0
100
AcDbLine
 10
213.9349174522053
 20
545.6871467347024
 30
0.0
 11
213.9349174522053
 21
550.6871467347024
 31
0.0
  0
LINE
  5
68A
330
1F
100
AcDbEntity
  8
0
100
AcDbLine
 10
213.9349174522053
 20
361.6871467347023
 30
0.0
 11
213.9349174522053
 21
356.6871467347023
 31
0.0
  0
LINE
  5
68B
330
1F
100
AcDbEntity
  8
0
100
AcDbLine
 10
221.5349174522053
 20
361.6871467347023
 30
0.0
 11
221.5349174522053
 21
356.6871467347023
 31
0.0
  0
LINE
  5
68C
330
1F
100
AcDbEntity
  8
0
100
AcDbLine
 10
224.9349174522053
 20
361.6871467347023
 30
0.0
 11
224.9349174522053
 21
356.6871467347023
 31
0.0
  0
CIRCLE
  5
68D
330
1F
100
AcDbEntity
  8
0
100
AcDbCircle
 10
194.4349174522054
 20
381.6871467347023
 30
0.0
 40
2.0
  0
CIRCLE
  5
68E
330
1F
100
AcDbEntity
  8
0
100
AcDbCircle
 10
194.4349174522054
 20
381.6871467347023
 30
0.0
 40
1.6
  0
CIRCLE
  5
68F
330
1F
100
AcDbEntity
  8
0
100
AcDbCircle
 10
194.4349174522054
 20
371.6871467347023
 30
0.0
 40
2.0
  0
CIRCLE
  5
690
330
1F
100
AcDbEntity
  8
0
100
AcDbCircle
 10
194.4349174522054
 20
371.6871467347023
 30
0.0
 40
1.6
  0
ARC
  5
691
330
1F
100
AcDbEntity
  8
0
100
AcDbCircle
 10
191.4349174522055
 20
549.6082461775041
 30
0.0
 40
1.0
100
AcDbArc
 50
91.50000000000273
 51
180.0
  0
ARC
  5
692
330
1F
100
AcDbEntity
  8
0
100
AcDbCircle
 10
247.4349174522053
 20
549.6871467347024
 30
0.0
 40
1.0
100
AcDbArc
 50
0.0
 51
90.0
  0
ARC
  5
693
330
1F
100
AcDbEntity
  8
0
100
AcDbCircle
 10
191.4349174522055
 20
357.766047291901
 30
0.0
 40
1.0
100
AcDbArc
 50
180.0
 51
268.4999999999971
  0
ARC
  5
694
330
1F
100
AcDbEntity
  8
0
100
AcDbCircle
 10
247.4349174522053
 20
357.6871467347023
 30
0.0
 40
1.0
100
AcDbArc
 50
270.0
 51
0.0
  0
ARC
  5
695
330
1F
100
AcDbEntity
  8
0
100
AcDbCircle
 10
190.9349174522055
 20
540.0953246129652
 30
0.0
 40
0.5
100
AcDbArc
 50
91.50000000000273
 51
180.0
  0
ARC
  5
696
330
1F
100
AcDbEntity
  8
0
100
AcDbCircle
 10
190.9349174522055
 20
367.2789688564403
 30
0.0
 40
0.5
100
AcDbArc
 50
180.0
 51
268.4999999999971
  0
LINE
  5
697
330
1F
100
AcDbEntity
  8
0
100
AcDbLine
 10
196.4349174522043
 20
366.6871467347023
 30
0.0
 11
248.4349174522053
 21
366.6871467347023
 31
0.0
  0
LINE
  5
698
330
1F
100
AcDbEntity
  8
0
100
AcDbLine
 10
196.4349174522054
 20
540.1871467347024
 30
0.0
 11
195.4349174522054
 21
540.1871467347024
 31
0.0
  0
LINE
  5
699
330
1F
100
AcDbEntity
  8
0
100
AcDbLine
 10
196.4349174522054
 20
540.6871467347023
 30
0.0
 11
196.4349174522043
 21
388.0689271947403
 31
0.0
  0
LINE
  5
69A
330
1F
100
AcDbEntity
  8
0
100
AcDbLine
 10
196.4349174522054
 20
540.6871467347023
 30
0.0
 11
248.4349174522053
 21
540.6871467347023
 31
0.0
  0
ARC
  5
69B
330
1F
100
AcDbEntity
  8
0
100
AcDbCircle
 10
194.7349174522054
 20
383.6871467347023
 30
0.0
 40
4.699999999995998
100
AcDbArc
 50
0.0
 51
68.79523363710642
  0
LINE
  5
69C
330
1F
100
AcDbEntity
  8
0
100
AcDbLine
 10
199.4349174522015
 20
383.6871467347023
 30
0.0
 11
199.4349174522003
 21
366.6871467347023
 31
0.0
  0
LINE
  5
69D
330
1F
100
AcDbEntity
  8
0
100
AcDbLine
 10
199.4349174522003
 20
367.1871467347023
 30
0.0
 11
198.4349174522003
 21
367.1871467347018
 31
0.0
  0
LINE
  5
69E
330
1F
100
AcDbEntity
  8
0
100
AcDbLine
 10
246.4349174522053
 20
368.6871467347023
 30
0.0
 11
246.4349174522053
 21
538.6871467347024
 31
0.0
  0
LINE
  5
69F
330
1F
100
AcDbEntity
  8
0
100
AcDbLine
 10
246.4349174522053
 20
538.6871467347024
 30
0.0
 11
198.4349174522055
 21
538.6871467347024
 31
0.0
  0
ARC
  5
6A0
330
1F
100
AcDbEntity
  8
0
100
AcDbCircle
 10
194.7349174522054
 20
383.6871467347023
 30
0.0
 40
6.699999999996
100
AcDbArc
 50
0.0
 51
56.47925960399696
  0
LINE
  5
6A1
330
1F
100
AcDbEntity
  8
0
100
AcDbLine
 10
201.4349174522014
 20
383.6871467347023
 30
0.0
 11
201.4349174522003
 21
368.6871467347023
 31
0.0
  0
LINE
  5
6A2
330
1F
100
AcDbEntity
  8
0
100
AcDbLine
 10
246.4349174522053
 20
368.6871467347023
 30
0.0
 11
201.4349174522003
 21
368.6871467347023
 31
0.0
  0
LINE
  5
6A3
330
1F
100
AcDbEntity
  8
0
100
AcDbLine
 10
198.4349174522055
 20
538.6871467347024
 30
0.0
 11
198.4349174522043
 21
389.2728427522062
 31
0.0
  0
LINE
  5
6A4
330
1F
100
AcDbEntity
  8
0
100
AcDbLine
 10
248.4349174522053
 20
366.6871467347023
 30
0.0
 11
248.4349174522053
 21
540.6871467347023
 31
0.0
  0
LINE
  5
6A5
330
1F
100
AcDbEntity
  8
0
100
AcDbLine
 10
195.4349174522054
 20
387.3203271596163
 30
0.0
 11
195.4349174522054
 21
540.1871467347024
 31
0.0
  0
LINE
  5
6A6
330
1F
100
AcDbEntity
  8
0
100
AcDbLine
 10
198.4349174522014
 20
383.6871467347023
 30
0.0
 11
198.4349174522003
 21
367.1871467347023
 31
0.0
  0
ARC
  5
6A7
330
1F
100
AcDbEntity
  8
0
100
AcDbCircle
 10
194.7349174522054
 20
383.6871467347023
 30
0.0
 40
3.699999999995998
100
AcDbArc
 50
0.0
 51
79.09453000325791
  0
LINE
  5
6A8
330
1F
100
AcDbEntity
  8
0
100
AcDbLine
 10
196.4349174522028
 20
366.739518577841
 30
0.0
 11
196.4349174522043
 21
366.6871467347023
 31
0.0
  0
LINE
  5
6A9
330
1F
100
AcDbEntity
  8
0
100
AcDbLine
 10
215.6349175741223
 20
445.8871465753582
 30
0.0
 11
215.6349175741223
 21
442.2871465753583
 31
0.0
  0
LINE
  5
6AA
330
1F
100
AcDbEntity
  8
0
100
AcDbLine
 10
214.0349175741223
 20
457.1871465753583
 30
0.0
 11
214.0349175741223
 21
445.8871465753582
 31
0.0
  0
LINE
  5
6AB
330
1F
100
AcDbEntity
  8
0
100
AcDbLine
 10
214.0349175741223
 20
425.2871465753583
 30
0.0
 11
215.6349175741223
 21
425.2871465753583
 31
0.0
  0
LINE
  5
6AC
330
1F
100
AcDbEntity
  8
0
100
AcDbLine
 10
214.0349175741223
 20
442.2871465753583
 30
0.0
 11
215.6349175741223
 21
442.2871465753583
 31
0.0
  0
LINE
  5
6AD
330
1F
100
AcDbEntity
  8
0
100
AcDbLine
 10
214.0349175741223
 20
445.8871465753582
 30
0.0
 11
215.6349175741223
 21
445.8871465753582
 31
0.0
  0
LINE
  5
6AE
330
1F
100
AcDbEntity
  8
0
100
AcDbLine
 10
214.0349175741223
 20
428.8871465753582
 30
0.0
 11
215.6349175741223
 21
428.8871465753582
 31
0.0
  0
LINE
  5
6AF
330
1F
100
AcDbEntity
  8
0
100
AcDbLine
 10
215.6349175741223
 20
428.8871465753582
 30
0.0
 11
215.6349175741223
 21
425.2871465753583
 31
0.0
  0
LINE
  5
6B0
330
1F
100
AcDbEntity
  8
0
100
AcDbLine
 10
214.0349175741223
 20
442.2871465753583
 30
0.0
 11
214.0349175741223
 21
428.8871465753582
 31
0.0
  0
LINE
  5
6B1
330
1F
100
AcDbEntity
  8
0
100
AcDbLine
 10
203.4349175741223
 20
457.1871465753583
 30
0.0
 11
203.4349175741223
 21
370.8871465753582
 31
0.0
  0
LINE
  5
6B2
330
1F
100
AcDbEntity
  8
0
100
AcDbLine
 10
213.3349175741221
 20
524.7871465753584
 30
0.0
 11
213.3349175741221
 21
516.7871465753584
 31
0.0
  0
LINE
  5
6B3
330
1F
100
AcDbEntity
  8
0
100
AcDbLine
 10
213.3349175741221
 20
516.7871465753584
 30
0.0
 11
216.3349175741223
 21
516.7871465753584
 31
0.0
  0
LINE
  5
6B4
330
1F
100
AcDbEntity
  8
0
100
AcDbLine
 10
216.3349175741223
 20
516.7871465753584
 30
0.0
 11
216.3349175741223
 21
508.5871465753581
 31
0.0
  0
CIRCLE
  5
6B5
330
1F
100
AcDbEntity
  8
0
100
AcDbCircle
 10
208.6849174522043
 20
520.5171467347023
 30
0.0
 40
1.290290050200999
  0
LINE
  5
6B6
330
1F
100
AcDbEntity
  8
0
100
AcDbLine
 10
212.4349174522043
 20
524.2671467347023
 30
0.0
 11
204.5349174522046
 21
524.2671467347023
 31
0.0
  0
LINE
  5
6B7
330
1F
100
AcDbEntity
  8
0
100
AcDbLine
 10
212.4349174522043
 20
516.7671467347032
 30
0.0
 11
204.5349174522046
 21
516.7671467347032
 31
0.0
  0
LINE
  5
6B8
330
1F
100
AcDbEntity
  8
0
100
AcDbLine
 10
212.4349174522043
 20
516.7671467347032
 30
0.0
 11
212.4349174522043
 21
524.2671467347023
 31
0.0
  0
LINE
  5
6B9
330
1F
100
AcDbEntity
  8
0
100
AcDbLine
 10
204.9349174522043
 20
516.7671467347032
 30
0.0
 11
204.9349174522043
 21
524.2671467347023
 31
0.0
  0
LINE
  5
6BA
330
1F
100
AcDbEntity
  8
0
100
AcDbLine
 10
204.5349174522046
 20
523.3571467347025
 30
0.0
 11
204.5349174522046
 21
524.2671467347023
 31
0.0
  0
LINE
  5
6BB
330
1F
100
AcDbEntity
  8
0
100
AcDbLine
 10
204.5349174522054
 20
523.3571467347034
 30
0.0
 11
204.9349174522043
 21
523.3571467347034
 31
0.0
  0
LINE
  5
6BC
330
1F
100
AcDbEntity
  8
0
100
AcDbLine
 10
204.5349174522054
 20
522.757146734703
 30
0.0
 11
204.9349174522043
 21
522.757146734703
 31
0.0
  0
LINE
  5
6BD
330
1F
100
AcDbEntity
  8
0
100
AcDbLine
 10
204.5349174522054
 20
517.6771467347029
 30
0.0
 11
204.9349174522043
 21
517.6771467347029
 31
0.0
  0
LINE
  5
6BE
330
1F
100
AcDbEntity
  8
0
100
AcDbLine
 10
204.5349174522054
 20
518.2771467347033
 30
0.0
 11
204.9349174522043
 21
518.2771467347033
 31
0.0
  0
LINE
  5
6BF
330
1F
100
AcDbEntity
  8
0
100
AcDbLine
 10
204.5349174522054
 20
520.8171467347033
 30
0.0
 11
204.9349174522043
 21
520.8171467347033
 31
0.0
  0
LINE
  5
6C0
330
1F
100
AcDbEntity
  8
0
100
AcDbLine
 10
204.5349174522054
 20
520.2171467347032
 30
0.0
 11
204.9349174522043
 21
520.2171467347032
 31
0.0
  0
LINE
  5
6C1
330
1F
100
AcDbEntity
  8
0
100
AcDbLine
 10
204.5349174522046
 20
516.7671467347032
 30
0.0
 11
204.5349174522046
 21
517.6771467347029
 31
0.0
  0
LINE
  5
6C2
330
1F
100
AcDbEntity
  8
0
100
AcDbLine
 10
204.5349174522046
 20
492.7271467347024
 30
0.0
 11
211.7849174522055
 21
492.7271467347024
 31
0.0
  0
CIRCLE
  5
6C3
330
1F
100
AcDbEntity
  8
0
100
AcDbCircle
 10
208.0349174522045
 20
505.6771467347021
 30
0.0
 40
1.0
  0
CIRCLE
  5
6C4
330
1F
100
AcDbEntity
  8
0
100
AcDbCircle
 10
208.0349174522045
 20
502.1771467347021
 30
0.0
 40
1.0
  0
CIRCLE
  5
6C5
330
1F
100
AcDbEntity
  8
0
100
AcDbCircle
 10
208.0349174522045
 20
498.6771467347022
 30
0.0
 40
1.0
  0
CIRCLE
  5
6C6
330
1F
100
AcDbEntity
  8
0
100
AcDbCircle
 10
208.0349174522045
 20
495.1771467347022
 30
0.0
 40
1.0
  0
LINE
  5
6C7
330
1F
100
AcDbEntity
  8
0
100
AcDbLine
 10
211.7849174522055
 20
492.7271467347024
 30
0.0
 11
211.7849174522055
 21
508.1271467347025
 31
0.0
  0
LINE
  5
6C8
330
1F
100
AcDbEntity
  8
0
100
AcDbLine
 10
211.7849174522055
 20
508.1271467347025
 30
0.0
 11
204.5349174522046
 21
508.1271467347025
 31
0.0
  0
LINE
  5
6C9
330
1F
100
AcDbEntity
  8
0
100
AcDbLine
 10
204.5349174522046
 20
508.1271467347025
 30
0.0
 11
204.5349174522046
 21
492.7271467347024
 31
0.0
  0
LINE
  5
6CA
330
1F
100
AcDbEntity
  8
0
100
AcDbLine
 10
214.7349174522055
 20
510.5771467347023
 30
0.0
 11
209.9594225232134
 21
510.5771467347023
 31
0.0
  0
LINE
  5
6CB
330
1F
100
AcDbEntity
  8
0
100
AcDbLine
 10
214.7349174522055
 20
514.3171467347025
 30
0.0
 11
209.9594225232134
 21
514.3171467347025
 31
0.0
  0
LINE
  5
6CC
330
1F
100
AcDbEntity
  8
0
100
AcDbLine
 10
214.7349174522055
 20
509.1271467347024
 30
0.0
 11
204.5349174522054
 21
509.1271467347024
 31
0.0
  0
LINE
  5
6CD
330
1F
100
AcDbEntity
  8
0
100
AcDbLine
 10
214.7349174522055
 20
515.7671467347023
 30
0.0
 11
204.5349174522054
 21
515.7671467347023
 31
0.0
  0
LINE
  5
6CE
330
1F
100
AcDbEntity
  8
0
100
AcDbLine
 10
214.7349174522055
 20
513.1171467347022
 30
0.0
 11
211.7349174522054
 21
513.1171467347022
 31
0.0
  0
LINE
  5
6CF
330
1F
100
AcDbEntity
  8
0
100
AcDbLine
 10
214.7349174522055
 20
511.777146734702
 30
0.0
 11
211.7349174522054
 21
511.777146734702
 31
0.0
  0
LINE
  5
6D0
330
1F
100
AcDbEntity
  8
0
100
AcDbLine
 10
214.7349174522055
 20
510.5771467347023
 30
0.0
 11
211.7349174522054
 21
510.5771467347023
 31
0.0
  0
LINE
  5
6D1
330
1F
100
AcDbEntity
  8
0
100
AcDbLine
 10
211.7349174522054
 20
513.1171467347022
 30
0.0
 11
211.7349174522054
 21
514.3171467347025
 31
0.0
  0
LINE
  5
6D2
330
1F
100
AcDbEntity
  8
0
100
AcDbLine
 10
211.7349174522054
 20
510.5771467347023
 30
0.0
 11
211.7349174522054
 21
511.777146734702
 31
0.0
  0
LINE
  5
6D3
330
1F
100
AcDbEntity
  8
0
100
AcDbLine
 10
213.2349174522055
 20
511.777146734702
 30
0.0
 11
213.2349174522055
 21
513.1171467347022
 31
0.0
  0
LINE
  5
6D4
330
1F
100
AcDbEntity
  8
0
100
AcDbLine
 10
213.7349174522054
 20
513.1171467347022
 30
0.0
 11
213.7349174522054
 21
514.3171467347025
 31
0.0
  0
LINE
  5
6D5
330
1F
100
AcDbEntity
  8
0
100
AcDbLine
 10
213.7349174522054
 20
510.5771467347023
 30
0.0
 11
213.7349174522054
 21
511.777146734702
 31
0.0
  0
LINE
  5
6D6
330
1F
100
AcDbEntity
  8
0
100
AcDbLine
 10
214.7349174522055
 20
509.1271467347024
 30
0.0
 11
214.7349174522055
 21
515.7671467347023
 31
0.0
  0
LINE
  5
6D7
330
1F
100
AcDbEntity
  8
0
100
AcDbLine
 10
209.9594225232134
 20
514.3171467347025
 30
0.0
 11
209.9594225232134
 21
510.5771467347023
 31
0.0
  0
LINE
  5
6D8
330
1F
100
AcDbEntity
  8
0
100
AcDbLine
 10
204.5349174522054
 20
509.1271467347024
 30
0.0
 11
204.5349174522054
 21
515.7671467347023
 31
0.0
  0
LINE
  5
6D9
330
1F
100
AcDbEntity
  8
0
100
AcDbLine
 10
204.5349174522054
 20
479.3471467347022
 30
0.0
 11
206.0349174522045
 21
479.3471467347022
 31
0.0
  0
LINE
  5
6DA
330
1F
100
AcDbEntity
  8
0
100
AcDbLine
 10
204.5349174522054
 20
474.2671467347022
 30
0.0
 11
206.0349174522045
 21
474.2671467347022
 31
0.0
  0
LINE
  5
6DB
330
1F
100
AcDbEntity
  8
0
100
AcDbLine
 10
204.5349174522054
 20
469.1871467347024
 30
0.0
 11
206.0349174522045
 21
469.1871467347024
 31
0.0
  0
LINE
  5
6DC
330
1F
100
AcDbEntity
  8
0
100
AcDbLine
 10
204.5349174522046
 20
483.8471467347022
 30
0.0
 11
206.0349174522045
 21
483.8471467347022
 31
0.0
  0
LINE
  5
6DD
330
1F
100
AcDbEntity
  8
0
100
AcDbLine
 10
204.5349174522046
 20
462.6871467347023
 30
0.0
 11
206.0349174522045
 21
462.6871467347023
 31
0.0
  0
LINE
  5
6DE
330
1F
100
AcDbEntity
  8
0
100
AcDbLine
 10
210.0349174522043
 20
478.8471467347021
 30
0.0
 11
211.0349174522043
 21
478.8471467347021
 31
0.0
  0
LINE
  5
6DF
330
1F
100
AcDbEntity
  8
0
100
AcDbLine
 10
210.0349174522043
 20
473.7671467347023
 30
0.0
 11
211.0349174522043
 21
473.7671467347023
 31
0.0
  0
LINE
  5
6E0
330
1F
100
AcDbEntity
  8
0
100
AcDbLine
 10
210.0349174522043
 20
468.6871467347024
 30
0.0
 11
211.0349174522043
 21
468.6871467347024
 31
0.0
  0
LINE
  5
6E1
330
1F
100
AcDbEntity
  8
0
100
AcDbLine
 10
206.0349174522045
 20
486.8471467347021
 30
0.0
 11
207.0349174522045
 21
486.8471467347021
 31
0.0
  0
LINE
  5
6E2
330
1F
100
AcDbEntity
  8
0
100
AcDbLine
 10
207.0349174522045
 20
486.8471467347021
 30
0.0
 11
207.0349174522045
 21
462.6871467347023
 31
0.0
  0
LINE
  5
6E3
330
1F
100
AcDbEntity
  8
0
100
AcDbLine
 10
214.5199174522044
 20
486.8471467347021
 30
0.0
 11
214.0199174522043
 21
486.8471467347021
 31
0.0
  0
LINE
  5
6E4
330
1F
100
AcDbEntity
  8
0
100
AcDbLine
 10
214.0199174522043
 20
486.8471467347021
 30
0.0
 11
214.0199174522043
 21
462.6871467347023
 31
0.0
  0
LINE
  5
6E5
330
1F
100
AcDbEntity
  8
0
100
AcDbLine
 10
215.3799174522045
 20
486.8471467347021
 30
0.0
 11
215.3799174522045
 21
462.6871467347023
 31
0.0
  0
LINE
  5
6E6
330
1F
100
AcDbEntity
  8
0
100
AcDbLine
 10
206.0349174522045
 20
486.8471467347021
 30
0.0
 11
206.0349174522045
 21
485.8471467347023
 31
0.0
  0
LINE
  5
6E7
330
1F
100
AcDbEntity
  8
0
100
AcDbLine
 10
207.0349174522045
 20
485.8471467347023
 30
0.0
 11
214.0199174522043
 21
485.8471467347023
 31
0.0
  0
LINE
  5
6E8
330
1F
100
AcDbEntity
  8
0
100
AcDbLine
 10
206.0349174522045
 20
462.6871467347023
 30
0.0
 11
206.0349174522045
 21
463.6871467347023
 31
0.0
  0
LINE
  5
6E9
330
1F
100
AcDbEntity
  8
0
100
AcDbLine
 10
207.0349174522045
 20
463.6871467347023
 30
0.0
 11
214.0199174522043
 21
463.6871467347023
 31
0.0
  0
LINE
  5
6EA
330
1F
100
AcDbEntity
  8
0
100
AcDbLine
 10
206.0349174522045
 20
462.6871467347023
 30
0.0
 11
215.3799174522045
 21
462.6871467347023
 31
0.0
  0
LINE
  5
6EB
330
1F
100
AcDbEntity
  8
0
100
AcDbLine
 10
215.3799174522045
 20
486.8471467347021
 30
0.0
 11
206.0349174522045
 21
486.8471467347021
 31
0.0
  0
LINE
  5
6EC
330
1F
100
AcDbEntity
  8
0
100
AcDbLine
 10
206.0349174522045
 20
486.8471467347021
 30
0.0
 11
206.0349174522045
 21
462.6871467347023
 31
0.0
  0
LINE
  5
6ED
330
1F
100
AcDbEntity
  8
0
100
AcDbLine
 10
211.0349174522043
 20
478.8471467347021
 30
0.0
 11
211.0349174522043
 21
480.8471467347023
 31
0.0
  0
LINE
  5
6EE
330
1F
100
AcDbEntity
  8
0
100
AcDbLine
 10
211.0349174522043
 20
480.8471467347023
 30
0.0
 11
210.0349174522043
 21
480.8471467347023
 31
0.0
  0
LINE
  5
6EF
330
1F
100
AcDbEntity
  8
0
100
AcDbLine
 10
210.0349174522043
 20
480.8471467347023
 30
0.0
 11
210.0349174522043
 21
478.8471467347021
 31
0.0
  0
LINE
  5
6F0
330
1F
100
AcDbEntity
  8
0
100
AcDbLine
 10
211.0349174522043
 20
473.7671467347023
 30
0.0
 11
211.0349174522043
 21
475.7671467347022
 31
0.0
  0
LINE
  5
6F1
330
1F
100
AcDbEntity
  8
0
100
AcDbLine
 10
211.0349174522043
 20
475.7671467347022
 30
0.0
 11
210.0349174522043
 21
475.7671467347022
 31
0.0
  0
LINE
  5
6F2
330
1F
100
AcDbEntity
  8
0
100
AcDbLine
 10
210.0349174522043
 20
475.7671467347022
 30
0.0
 11
210.0349174522043
 21
473.7671467347023
 31
0.0
  0
LINE
  5
6F3
330
1F
100
AcDbEntity
  8
0
100
AcDbLine
 10
211.0349174522043
 20
468.6871467347024
 30
0.0
 11
211.0349174522043
 21
470.6871467347023
 31
0.0
  0
LINE
  5
6F4
330
1F
100
AcDbEntity
  8
0
100
AcDbLine
 10
211.0349174522043
 20
470.6871467347023
 30
0.0
 11
210.0349174522043
 21
470.6871467347023
 31
0.0
  0
LINE
  5
6F5
330
1F
100
AcDbEntity
  8
0
100
AcDbLine
 10
210.0349174522043
 20
470.6871467347023
 30
0.0
 11
210.0349174522043
 21
468.6871467347024
 31
0.0
  0
LINE
  5
6F6
330
1F
100
AcDbEntity
  8
0
100
AcDbLine
 10
206.0349174522045
 20
462.6871467347023
 30
0.0
 11
206.0349174522045
 21
465.6871467347023
 31
0.0
  0
LINE
  5
6F7
330
1F
100
AcDbEntity
  8
0
100
AcDbLine
 10
206.0349174522045
 20
465.6871467347023
 30
0.0
 11
204.5349174522046
 21
465.6871467347023
 31
0.0
  0
LINE
  5
6F8
330
1F
100
AcDbEntity
  8
0
100
AcDbLine
 10
204.5349174522046
 20
465.6871467347023
 30
0.0
 11
204.5349174522046
 21
462.6871467347023
 31
0.0
  0
LINE
  5
6F9
330
1F
100
AcDbEntity
  8
0
100
AcDbLine
 10
206.0349174522045
 20
469.1871467347024
 30
0.0
 11
206.0349174522045
 21
470.1871467347023
 31
0.0
  0
LINE
  5
6FA
330
1F
100
AcDbEntity
  8
0
100
AcDbLine
 10
206.0349174522045
 20
470.1871467347023
 30
0.0
 11
204.5349174522054
 21
470.1871467347023
 31
0.0
  0
LINE
  5
6FB
330
1F
100
AcDbEntity
  8
0
100
AcDbLine
 10
206.0349174522045
 20
474.2671467347022
 30
0.0
 11
206.0349174522045
 21
475.2671467347022
 31
0.0
  0
LINE
  5
6FC
330
1F
100
AcDbEntity
  8
0
100
AcDbLine
 10
206.0349174522045
 20
475.2671467347022
 30
0.0
 11
204.5349174522054
 21
475.2671467347022
 31
0.0
  0
LINE
  5
6FD
330
1F
100
AcDbEntity
  8
0
100
AcDbLine
 10
206.0349174522045
 20
479.3471467347022
 30
0.0
 11
206.0349174522045
 21
480.3471467347022
 31
0.0
  0
LINE
  5
6FE
330
1F
100
AcDbEntity
  8
0
100
AcDbLine
 10
206.0349174522045
 20
480.3471467347022
 30
0.0
 11
204.5349174522054
 21
480.3471467347022
 31
0.0
  0
LINE
  5
6FF
330
1F
100
AcDbEntity
  8
0
100
AcDbLine
 10
206.0349174522045
 20
483.8471467347022
 30
0.0
 11
206.0349174522045
 21
486.8471467347021
 31
0.0
  0
LINE
  5
700
330
1F
100
AcDbEntity
  8
0
100
AcDbLine
 10
206.0349174522045
 20
486.8471467347021
 30
0.0
 11
204.5349174522046
 21
486.8471467347021
 31
0.0
  0
LINE
  5
701
330
1F
100
AcDbEntity
  8
0
100
AcDbLine
 10
204.5349174522046
 20
486.8471467347021
 30
0.0
 11
204.5349174522046
 21
483.8471467347022
 31
0.0
  0
LINE
  5
702
330
1F
100
AcDbEntity
  8
0
100
AcDbLine
 10
204.5349174522046
 20
371.6871467347023
 30
0.0
 11
213.1349174522044
 21
371.6871467347023
 31
0.0
  0
CIRCLE
  5
703
330
1F
100
AcDbEntity
  8
0
100
AcDbCircle
 10
208.5349174522043
 20
379.3071467347023
 30
0.0
 40
2.0
  0
CIRCLE
  5
704
330
1F
100
AcDbEntity
  8
0
100
AcDbCircle
 10
208.5349174522043
 20
384.3871467347022
 30
0.0
 40
2.0
  0
CIRCLE
  5
705
330
1F
100
AcDbEntity
  8
0
100
AcDbCircle
 10
208.5349174522043
 20
384.3871467347022
 30
0.0
 40
2.0
  0
CIRCLE
  5
706
330
1F
100
AcDbEntity
  8
0
100
AcDbCircle
 10
208.5349174522043
 20
389.4671467347031
 30
0.0
 40
2.0
  0
CIRCLE
  5
707
330
1F
100
AcDbEntity
  8
0
100
AcDbCircle
 10
208.5349174522043
 20
389.4671467347031
 30
0.0
 40
2.0
  0
CIRCLE
  5
708
330
1F
100
AcDbEntity
  8
0
100
AcDbCircle
 10
208.5349174522043
 20
399.6271467347023
 30
0.0
 40
2.0
  0
CIRCLE
  5
709
330
1F
100
AcDbEntity
  8
0
100
AcDbCircle
 10
208.5349174522043
 20
399.6271467347023
 30
0.0
 40
2.0
  0
CIRCLE
  5
70A
330
1F
100
AcDbEntity
  8
0
100
AcDbCircle
 10
208.5349174522043
 20
404.7071467347032
 30
0.0
 40
2.0
  0
CIRCLE
  5
70B
330
1F
100
AcDbEntity
  8
0
100
AcDbCircle
 10
208.5349174522043
 20
374.5571467347023
 30
0.0
 40
1.0
  0
CIRCLE
  5
70C
330
1F
100
AcDbEntity
  8
0
100
AcDbCircle
 10
208.5349174522043
 20
374.5571467347023
 30
0.0
 40
1.5
  0
CIRCLE
  5
70D
330
1F
100
AcDbEntity
  8
0
100
AcDbCircle
 10
208.5349174522043
 20
409.4571467347033
 30
0.0
 40
1.0
  0
CIRCLE
  5
70E
330
1F
100
AcDbEntity
  8
0
100
AcDbCircle
 10
208.5349174522043
 20
409.4571467347033
 30
0.0
 40
1.5
  0
CIRCLE
  5
70F
330
1F
100
AcDbEntity
  8
0
100
AcDbCircle
 10
208.5349174522043
 20
394.5471467347021
 30
0.0
 40
2.0
  0
LINE
  5
710
330
1F
100
AcDbEntity
  8
0
100
AcDbLine
 10
213.1349174522044
 20
371.6871467347023
 30
0.0
 11
213.1349174522044
 21
412.3271467347023
 31
0.0
  0
LINE
  5
711
330
1F
100
AcDbEntity
  8
0
100
AcDbLine
 10
213.1349174522044
 20
412.3271467347023
 30
0.0
 11
204.5349174522046
 21
412.3271467347023
 31
0.0
  0
LINE
  5
712
330
1F
100
AcDbEntity
  8
0
100
AcDbLine
 10
204.5349174522046
 20
412.3271467347023
 30
0.0
 11
204.5349174522046
 21
371.6871467347023
 31
0.0
  0
LINE
  5
713
330
1F
100
AcDbEntity
  8
0
100
AcDbLine
 10
237.8849174522053
 20
389.8034298772941
 30
0.0
 11
237.8849174522053
 21
404.7708635921114
 31
0.0
  0
LINE
  5
714
330
1F
100
AcDbEntity
  8
0
100
AcDbLine
 10
231.5849174522053
 20
405.3871467347022
 30
0.0
 11
231.5849174522053
 21
389.1871467347023
 31
0.0
  0
LINE
  5
715
330
1F
100
AcDbEntity
  8
0
100
AcDbLine
 10
233.1349174522054
 20
405.8871467347022
 30
0.0
 11
233.1349174522054
 21
388.6871467347024
 31
0.0
  0
LINE
  5
716
330
1F
100
AcDbEntity
  8
0
100
AcDbLine
 10
236.3349174522054
 20
388.6871467347024
 30
0.0
 11
236.3349174522054
 21
405.8871467347022
 31
0.0
  0
LINE
  5
717
330
1F
100
AcDbEntity
  8
0
100
AcDbLine
 10
230.1349174522054
 20
414.8871467347022
 30
0.0
 11
230.1349174522054
 21
379.6871467347023
 31
0.0
  0
LINE
  5
718
330
1F
100
AcDbEntity
  8
0
100
AcDbLine
 10
239.2349174522055
 20
378.6871467347023
 30
0.0
 11
239.2349174522055
 21
415.8871467347022
 31
0.0
  0
LINE
  5
719
330
1F
100
AcDbEntity
  8
0
100
AcDbLine
 10
239.5349174522053
 20
386.087146734702
 30
0.0
 11
239.5349174522053
 21
378.9871467347021
 31
0.0
  0
CIRCLE
  5
71A
330
1F
100
AcDbEntity
  8
0
100
AcDbCircle
 10
234.7349174522054
 20
381.6571467347022
 30
0.0
 40
1.399999999999999
  0
ARC
  5
71B
330
1F
100
AcDbEntity
  8
0
100
AcDbCircle
 10
239.2349174522055
 20
378.9871467347021
 30
0.0
 40
0.3
100
AcDbArc
 50
270.0
 51
0.0
  0
LINE
  5
71C
330
1F
100
AcDbEntity
  8
0
100
AcDbLine
 10
230.9349174522053
 20
378.6871467347023
 30
0.0
 11
239.2349174522055
 21
378.6871467347023
 31
0.0
  0
ARC
  5
71D
330
1F
100
AcDbEntity
  8
0
100
AcDbCircle
 10
230.9349174522053
 20
379.1871467347023
 30
0.0
 40
0.5
100
AcDbArc
 50
180.0
 51
270.0
  0
LINE
  5
71E
330
1F
100
AcDbEntity
  8
0
100
AcDbLine
 10
230.4349174522053
 20
379.6871467347023
 30
0.0
 11
230.4349174522053
 21
379.1871467347023
 31
0.0
  0
LINE
  5
71F
330
1F
100
AcDbEntity
  8
0
100
AcDbLine
 10
230.1349174522054
 20
379.6871467347023
 30
0.0
 11
239.2349174522055
 21
379.6871467347023
 31
0.0
  0
ARC
  5
720
330
1F
100
AcDbEntity
  8
0
100
AcDbCircle
 10
235.8849174522053
 20
389.8034298772941
 30
0.0
 40
2.0
100
AcDbArc
 50
284.9999999999943
 51
0.0
  0
LINE
  5
721
330
1F
100
AcDbEntity
  8
0
100
AcDbLine
 10
234.1025555424105
 20
387.2552950821241
 30
0.0
 11
236.4025555424103
 21
387.8715782247151
 31
0.0
  0
ARC
  5
722
330
1F
100
AcDbEntity
  8
0
100
AcDbCircle
 10
233.5849174522053
 20
389.1871467347023
 30
0.0
 40
2.0
100
AcDbArc
 50
180.0
 51
284.9999999999943
  0
LINE
  5
723
330
1F
100
AcDbEntity
  8
0
100
AcDbLine
 10
233.1349174522054
 20
388.6871467347024
 30
0.0
 11
236.3349174522054
 21
388.6871467347024
 31
0.0
  0
LINE
  5
724
330
1F
100
AcDbEntity
  8
0
100
AcDbLine
 10
239.2349174522055
 20
386.087146734702
 30
0.0
 11
239.5349174522053
 21
386.087146734702
 31
0.0
  0
LINE
  5
725
330
1F
100
AcDbEntity
  8
0
100
AcDbLine
 10
237.8849174522053
 20
383.6871467347023
 30
0.0
 11
237.8849174522053
 21
386.087146734702
 31
0.0
  0
LINE
  5
726
330
1F
100
AcDbEntity
  8
0
100
AcDbLine
 10
231.5849174522053
 20
386.087146734702
 30
0.0
 11
231.5849174522053
 21
383.6871467347023
 31
0.0
  0
LINE
  5
727
330
1F
100
AcDbEntity
  8
0
100
AcDbLine
 10
231.5849174522053
 20
386.087146734702
 30
0.0
 11
237.8849174522053
 21
386.087146734702
 31
0.0
  0
LINE
  5
728
330
1F
100
AcDbEntity
  8
0
100
AcDbLine
 10
231.5849174522053
 20
384.1871467347023
 30
0.0
 11
237.8849174522053
 21
384.1871467347023
 31
0.0
  0
LINE
  5
729
330
1F
100
AcDbEntity
  8
0
100
AcDbLine
 10
231.5849174522053
 20
383.6871467347023
 30
0.0
 11
237.8849174522053
 21
383.6871467347023
 31
0.0
  0
ARC
  5
72A
330
1F
100
AcDbEntity
  8
0
100
AcDbCircle
 10
239.2349174522055
 20
415.5871467347033
 30
0.0
 40
0.3
100
AcDbArc
 50
0.0
 51
90.0
  0
LINE
  5
72B
330
1F
100
AcDbEntity
  8
0
100
AcDbLine
 10
239.5349174522053
 20
415.5871467347033
 30
0.0
 11
239.5349174522053
 21
408.4871467347021
 31
0.0
  0
LINE
  5
72C
330
1F
100
AcDbEntity
  8
0
100
AcDbLine
 10
230.9349174522053
 20
415.8871467347022
 30
0.0
 11
239.2349174522055
 21
415.8871467347031
 31
0.0
  0
ARC
  5
72D
330
1F
100
AcDbEntity
  8
0
100
AcDbCircle
 10
235.8849174522053
 20
404.7708635921114
 30
0.0
 40
2.0
100
AcDbArc
 50
0.0
 51
75.00000000000555
  0
LINE
  5
72E
330
1F
100
AcDbEntity
  8
0
100
AcDbLine
 10
234.1025555424105
 20
407.3189983872803
 30
0.0
 11
236.4025555424103
 21
406.7027152446895
 31
0.0
  0
ARC
  5
72F
330
1F
100
AcDbEntity
  8
0
100
AcDbCircle
 10
233.5849174522053
 20
405.3871467347022
 30
0.0
 40
2.0
100
AcDbArc
 50
75.00000000000555
 51
180.0
  0
LINE
  5
730
330
1F
100
AcDbEntity
  8
0
100
AcDbLine
 10
236.3349174522054
 20
405.8871467347022
 30
0.0
 11
233.1349174522054
 21
405.8871467347031
 31
0.0
  0
ARC
  5
731
330
1F
100
AcDbEntity
  8
0
100
AcDbCircle
 10
230.9349174522053
 20
415.3871467347022
 30
0.0
 40
0.5
100
AcDbArc
 50
90.0
 51
180.0
  0
LINE
  5
732
330
1F
100
AcDbEntity
  8
0
100
AcDbLine
 10
230.4349174522053
 20
415.3871467347022
 30
0.0
 11
230.4349174522053
 21
414.8871467347022
 31
0.0
  0
LINE
  5
733
330
1F
100
AcDbEntity
  8
0
100
AcDbLine
 10
230.1349174522054
 20
414.8871467347022
 30
0.0
 11
239.2349174522055
 21
414.8871467347022
 31
0.0
  0
LINE
  5
734
330
1F
100
AcDbEntity
  8
0
100
AcDbLine
 10
239.2349174522055
 20
408.4871467347021
 30
0.0
 11
239.5349174522053
 21
408.4871467347021
 31
0.0
  0
LINE
  5
735
330
1F
100
AcDbEntity
  8
0
100
AcDbLine
 10
237.8849174522053
 20
408.4871467347021
 30
0.0
 11
237.8849174522053
 21
410.8871467347031
 31
0.0
  0
LINE
  5
736
330
1F
100
AcDbEntity
  8
0
100
AcDbLine
 10
231.5849174522053
 20
410.8871467347031
 30
0.0
 11
231.5849174522053
 21
408.4871467347021
 31
0.0
  0
LINE
  5
737
330
1F
100
AcDbEntity
  8
0
100
AcDbLine
 10
231.5849174522053
 20
408.4871467347021
 30
0.0
 11
237.8849174522053
 21
408.4871467347021
 31
0.0
  0
LINE
  5
738
330
1F
100
AcDbEntity
  8
0
100
AcDbLine
 10
231.5849174522053
 20
410.3871467347022
 30
0.0
 11
237.8849174522053
 21
410.3871467347022
 31
0.0
  0
LINE
  5
739
330
1F
100
AcDbEntity
  8
0
100
AcDbLine
 10
231.5849174522053
 20
410.8871467347022
 30
0.0
 11
237.8849174522053
 21
410.8871467347022
 31
0.0
  0
CIRCLE
  5
73A
330
1F
100
AcDbEntity
  8
0
100
AcDbCircle
 10
234.7349174522054
 20
412.9171467347023
 30
0.0
 40
1.399999999999999
  0
LINE
  5
73B
330
1F
100
AcDbEntity
  8
0
100
AcDbLine
 10
239.2349174522055
 20
401.0971467347031
 30
0.0
 11
239.5349174522053
 21
401.0971467347031
 31
0.0
  0
LINE
  5
73C
330
1F
100
AcDbEntity
  8
0
100
AcDbLine
 10
239.2349174522055
 20
399.8271467347032
 30
0.0
 11
239.5349174522053
 21
399.8271467347032
 31
0.0
  0
LINE
  5
73D
330
1F
100
AcDbEntity
  8
0
100
AcDbLine
 10
239.2349174522055
 20
398.5571467347032
 30
0.0
 11
239.5349174522053
 21
398.5571467347032
 31
0.0
  0
LINE
  5
73E
330
1F
100
AcDbEntity
  8
0
100
AcDbLine
 10
239.2349174522055
 20
397.2871467347032
 30
0.0
 11
239.5349174522053
 21
397.2871467347032
 31
0.0
  0
LINE
  5
73F
330
1F
100
AcDbEntity
  8
0
100
AcDbLine
 10
239.2349174522055
 20
396.0171467347032
 30
0.0
 11
239.5349174522053
 21
396.0171467347032
 31
0.0
  0
LINE
  5
740
330
1F
100
AcDbEntity
  8
0
100
AcDbLine
 10
239.2349174522055
 20
394.7471467347032
 30
0.0
 11
239.5349174522053
 21
394.7471467347032
 31
0.0
  0
LINE
  5
741
330
1F
100
AcDbEntity
  8
0
100
AcDbLine
 10
239.2349174522055
 20
393.4771467347033
 30
0.0
 11
239.5349174522053
 21
393.4771467347033
 31
0.0
  0
LINE
  5
742
330
1F
100
AcDbEntity
  8
0
100
AcDbLine
 10
239.2349174522055
 20
403.6371467347031
 30
0.0
 11
239.5349174522053
 21
403.6371467347031
 31
0.0
  0
LINE
  5
743
330
1F
100
AcDbEntity
  8
0
100
AcDbLine
 10
239.2349174522055
 20
402.3671467347031
 30
0.0
 11
239.5349174522053
 21
402.3671467347031
 31
0.0
  0
LINE
  5
744
330
1F
100
AcDbEntity
  8
0
100
AcDbLine
 10
239.2349174522055
 20
401.0971467347031
 30
0.0
 11
239.5349174522053
 21
401.0971467347031
 31
0.0
  0
LINE
  5
745
330
1F
100
AcDbEntity
  8
0
100
AcDbLine
 10
239.2349174522055
 20
404.9071467347022
 30
0.0
 11
239.5349174522053
 21
404.9071467347022
 31
0.0
  0
LINE
  5
746
330
1F
100
AcDbEntity
  8
0
100
AcDbLine
 10
239.2349174522055
 20
403.6371467347031
 30
0.0
 11
239.5349174522053
 21
403.6371467347031
 31
0.0
  0
LINE
  5
747
330
1F
100
AcDbEntity
  8
0
100
AcDbLine
 10
239.2349174522055
 20
393.4771467347033
 30
0.0
 11
239.5349174522053
 21
393.4771467347033
 31
0.0
  0
LINE
  5
748
330
1F
100
AcDbEntity
  8
0
100
AcDbLine
 10
239.2349174522055
 20
392.2071467347033
 30
0.0
 11
239.5349174522053
 21
392.2071467347033
 31
0.0
  0
LINE
  5
749
330
1F
100
AcDbEntity
  8
0
100
AcDbLine
 10
239.2349174522055
 20
390.9371467347032
 30
0.0
 11
239.5349174522053
 21
390.9371467347032
 31
0.0
  0
LINE
  5
74A
330
1F
100
AcDbEntity
  8
0
100
AcDbLine
 10
239.2349174522055
 20
389.6671467347033
 30
0.0
 11
239.5349174522053
 21
389.6671467347033
 31
0.0
  0
LINE
  5
74B
330
1F
100
AcDbEntity
  8
0
100
AcDbLine
 10
204.5349174522054
 20
370.8871465753582
 30
0.0
 11
204.5349174522054
 21
457.1871465753583
 31
0.0
  0
LINE
  5
755
330
1F
100
AcDbEntity
  8
0
100
AcDbLine
 10
239.5349174522043
 20
371.6871467347023
 30
0.0
 11
239.5349174522043
 21
377.1871467347023
 31
0.0
  0
CIRCLE
  5
756
330
1F
100
AcDbEntity
  8
0
100
AcDbCircle
 10
236.1049174522045
 20
373.1871467347023
 30
0.0
 40
0.32
  0
CIRCLE
  5
757
330
1F
100
AcDbEntity
  8
0
100
AcDbCircle
 10
236.1049174522045
 20
375.6871467347023
 30
0.0
 40
0.32
  0
LINE
  5
758
330
1F
100
AcDbEntity
  8
0
100
AcDbLine
 10
233.0349174522043
 20
371.6871467347023
 30
0.0
 11
234.0349174522043
 21
371.6871467347023
 31
0.0
  0
LINE
  5
759
330
1F
100
AcDbEntity
  8
0
100
AcDbLine
 10
234.0349174522043
 20
371.6871467347023
 30
0.0
 11
234.0349174522043
 21
377.1871467347023
 31
0.0
  0
LINE
  5
75A
330
1F
100
AcDbEntity
  8
0
100
AcDbLine
 10
234.0349174522043
 20
373.6871467347023
 30
0.0
 11
234.0349174522043
 21
375.1871467347023
 31
0.0
  0
LINE
  5
75B
330
1F
100
AcDbEntity
  8
0
100
AcDbLine
 10
234.0349174522043
 20
375.1871467347023
 30
0.0
 11
233.0349174522043
 21
375.1871467347023
 31
0.0
  0
LINE
  5
75C
330
1F
100
AcDbEntity
  8
0
100
AcDbLine
 10
233.0349174522043
 20
375.1871467347023
 30
0.0
 11
233.0349174522043
 21
373.6871467347023
 31
0.0
  0
LINE
  5
75D
330
1F
100
AcDbEntity
  8
0
100
AcDbLine
 10
233.0349174522043
 20
373.6871467347023
 30
0.0
 11
234.0349174522043
 21
373.6871467347023
 31
0.0
  0
LINE
  5
75E
330
1F
100
AcDbEntity
  8
0
100
AcDbLine
 10
239.5349174522043
 20
377.1871467347023
 30
0.0
 11
233.0349174522043
 21
377.1871467347023
 31
0.0
  0
LINE
  5
75F
330
1F
100
AcDbEntity
  8
0
100
AcDbLine
 10
233.0349174522043
 20
377.1871467347023
 30
0.0
 11
233.0349174522043
 21
371.6871467347023
 31
0.0
  0
LINE
  5
760
330
1F
100
AcDbEntity
  8
0
100
AcDbLine
 10
233.0349174522043
 20
371.6871467347023
 30
0.0
 11
239.5349174522043
 21
371.6871467347023
 31
0.0
  0
CIRCLE
  5
761
330
1F
100
AcDbEntity
  8
0
100
AcDbCircle
 10
208.5349174522043
 20
424.3271467347023
 30
0.0
 40
0.75
  0
LINE
  5
762
330
1F
100
AcDbEntity
  8
0
100
AcDbLine
 10
213.0349174522043
 20
420.3271467347023
 30
0.0
 11
213.0349174522043
 21
450.8271467347022
 31
0.0
  0
LINE
  5
763
330
1F
100
AcDbEntity
  8
0
100
AcDbLine
 10
204.5349174522046
 20
456.1871467347024
 30
0.0
 11
204.5349174522046
 21
415.3271467347023
 31
0.0
  0
LINE
  5
764
330
1F
100
AcDbEntity
  8
0
100
AcDbLine
 10
210.7349174522044
 20
425.6371467347022
 30
0.0
 11
210.7349174522044
 21
423.0171467347022
 31
0.0
  0
ARC
  5
765
330
1F
100
AcDbEntity
  8
0
100
AcDbCircle
 10
208.5349174522043
 20
424.3271467347023
 30
0.0
 40
2.9
100
AcDbArc
 50
133.6028189727032
 51
226.3971810272966
  0
CIRCLE
  5
766
330
1F
100
AcDbEntity
  8
0
100
AcDbCircle
 10
208.5349174522043
 20
424.3271467347023
 30
0.0
 40
1.5
  0
CIRCLE
  5
767
330
1F
100
AcDbEntity
  8
0
100
AcDbCircle
 10
208.4985313918013
 20
418.2271467347024
 30
0.0
 40
2.0
  0
LINE
  5
768
330
1F
100
AcDbEntity
  8
0
100
AcDbLine
 10
204.5349174522046
 20
415.3271467347023
 30
0.0
 11
211.5349174522043
 21
415.3271467347023
 31
0.0
  0
LINE
  5
769
330
1F
100
AcDbEntity
  8
0
100
AcDbLine
 10
206.5349174522046
 20
421.3271467347023
 30
0.0
 11
211.5349174522043
 21
421.3271467347023
 31
0.0
  0
LINE
  5
76A
330
1F
100
AcDbEntity
  8
0
100
AcDbLine
 10
206.5349174522046
 20
422.2271467347024
 30
0.0
 11
206.5349174522046
 21
421.3271467347023
 31
0.0
  0
LINE
  5
76B
330
1F
100
AcDbEntity
  8
0
100
AcDbLine
 10
211.5349174522043
 20
415.3271467347023
 30
0.0
 11
211.5349174522043
 21
420.3271467347023
 31
0.0
  0
CIRCLE
  5
76C
330
1F
100
AcDbEntity
  8
0
100
AcDbCircle
 10
208.4985313918013
 20
418.2271467347024
 30
0.0
 40
0.9
  0
LINE
  5
76D
330
1F
100
AcDbEntity
  8
0
100
AcDbLine
 10
211.5349174522043
 20
420.3271467347023
 30
0.0
 11
213.0349174522043
 21
420.3271467347023
 31
0.0
  0
LINE
  5
76E
330
1F
100
AcDbEntity
  8
0
100
AcDbLine
 10
210.7349174522044
 20
423.0171467347022
 30
0.0
 11
211.5349174522043
 21
423.0171467347022
 31
0.0
  0
LINE
  5
76F
330
1F
100
AcDbEntity
  8
0
100
AcDbLine
 10
211.5349174522043
 20
423.0171467347022
 30
0.0
 11
211.5349174522043
 21
421.3271467347023
 31
0.0
  0
ARC
  5
770
330
1F
100
AcDbEntity
  8
0
100
AcDbCircle
 10
208.5349174522043
 20
447.1871467347023
 30
0.0
 40
2.9
100
AcDbArc
 50
133.6028189727032
 51
226.3971810272966
  0
LINE
  5
771
330
1F
100
AcDbEntity
  8
0
100
AcDbLine
 10
211.5349174522043
 20
445.8771467347023
 30
0.0
 11
211.5349174522043
 21
440.8771467347023
 31
0.0
  0
LINE
  5
772
330
1F
100
AcDbEntity
  8
0
100
AcDbLine
 10
211.5349174522043
 20
438.2571467347021
 30
0.0
 11
211.5349174522043
 21
433.2571467347021
 31
0.0
  0
LINE
  5
773
330
1F
100
AcDbEntity
  8
0
100
AcDbLine
 10
206.5349174522046
 20
437.4671467347021
 30
0.0
 11
206.5349174522046
 21
434.0471467347021
 31
0.0
  0
ARC
  5
774
330
1F
100
AcDbEntity
  8
0
100
AcDbCircle
 10
208.5349174522043
 20
431.9471467347021
 30
0.0
 40
2.9
100
AcDbArc
 50
133.6028189727032
 51
226.3971810272966
  0
LINE
  5
775
330
1F
100
AcDbEntity
  8
0
100
AcDbLine
 10
206.5349174522046
 20
429.8471467347022
 30
0.0
 11
206.5349174522046
 21
426.4271467347022
 31
0.0
  0
CIRCLE
  5
776
330
1F
100
AcDbEntity
  8
0
100
AcDbCircle
 10
208.5349174522043
 20
431.9471467347021
 30
0.0
 40
1.5
  0
LINE
  5
777
330
1F
100
AcDbEntity
  8
0
100
AcDbLine
 10
211.5349174522043
 20
430.6371467347022
 30
0.0
 11
211.5349174522043
 21
425.6371467347022
 31
0.0
  0
LINE
  5
778
330
1F
100
AcDbEntity
  8
0
100
AcDbLine
 10
210.7349174522044
 20
425.6371467347022
 30
0.0
 11
211.5349174522043
 21
425.6371467347022
 31
0.0
  0
LINE
  5
779
330
1F
100
AcDbEntity
  8
0
100
AcDbLine
 10
213.0349174522043
 20
427.8771467347024
 30
0.0
 11
214.7349174522044
 21
427.8771467347024
 31
0.0
  0
LINE
  5
77A
330
1F
100
AcDbEntity
  8
0
100
AcDbLine
 10
214.7349174522044
 20
426.2771467347024
 30
0.0
 11
213.0349174522043
 21
426.2771467347024
 31
0.0
  0
LINE
  5
77B
330
1F
100
AcDbEntity
  8
0
100
AcDbLine
 10
214.7349174522044
 20
427.8771467347024
 30
0.0
 11
214.7349174522044
 21
426.2771467347024
 31
0.0
  0
CIRCLE
  5
77C
330
1F
100
AcDbEntity
  8
0
100
AcDbCircle
 10
208.5349174522043
 20
431.9471467347021
 30
0.0
 40
0.75
  0
LINE
  5
77D
330
1F
100
AcDbEntity
  8
0
100
AcDbLine
 10
210.7349174522044
 20
430.6371467347022
 30
0.0
 11
211.5349174522043
 21
430.6371467347022
 31
0.0
  0
LINE
  5
77E
330
1F
100
AcDbEntity
  8
0
100
AcDbLine
 10
210.7349174522044
 20
433.2571467347021
 30
0.0
 11
211.5349174522043
 21
433.2571467347021
 31
0.0
  0
LINE
  5
77F
330
1F
100
AcDbEntity
  8
0
100
AcDbLine
 10
210.7349174522044
 20
433.2571467347021
 30
0.0
 11
210.7349174522044
 21
430.6371467347022
 31
0.0
  0
ARC
  5
780
330
1F
100
AcDbEntity
  8
0
100
AcDbCircle
 10
208.5349174522043
 20
439.5671467347025
 30
0.0
 40
2.9
100
AcDbArc
 50
133.6028189727032
 51
226.3971810272966
  0
LINE
  5
781
330
1F
100
AcDbEntity
  8
0
100
AcDbLine
 10
206.5349174522046
 20
445.0871467347019
 30
0.0
 11
206.5349174522046
 21
441.6671467347024
 31
0.0
  0
LINE
  5
782
330
1F
100
AcDbEntity
  8
0
100
AcDbLine
 10
214.7349174522044
 20
443.2771467347024
 30
0.0
 11
213.0349174522043
 21
443.2771467347024
 31
0.0
  0
LINE
  5
783
330
1F
100
AcDbEntity
  8
0
100
AcDbLine
 10
214.7349174522044
 20
444.8771467347024
 30
0.0
 11
213.0349174522043
 21
444.8771467347024
 31
0.0
  0
LINE
  5
784
330
1F
100
AcDbEntity
  8
0
100
AcDbLine
 10
214.7349174522044
 20
444.8771467347024
 30
0.0
 11
214.7349174522044
 21
443.2771467347024
 31
0.0
  0
LINE
  5
785
330
1F
100
AcDbEntity
  8
0
100
AcDbLine
 10
210.7349174522044
 20
440.8771467347023
 30
0.0
 11
211.5349174522043
 21
440.8771467347023
 31
0.0
  0
CIRCLE
  5
786
330
1F
100
AcDbEntity
  8
0
100
AcDbCircle
 10
208.5349174522043
 20
439.5671467347025
 30
0.0
 40
0.75
  0
LINE
  5
787
330
1F
100
AcDbEntity
  8
0
100
AcDbLine
 10
210.7349174522044
 20
438.2571467347021
 30
0.0
 11
211.5349174522043
 21
438.2571467347021
 31
0.0
  0
CIRCLE
  5
788
330
1F
100
AcDbEntity
  8
0
100
AcDbCircle
 10
208.5349174522043
 20
439.5671467347025
 30
0.0
 40
1.5
  0
LINE
  5
789
330
1F
100
AcDbEntity
  8
0
100
AcDbLine
 10
210.7349174522044
 20
440.8771467347023
 30
0.0
 11
210.7349174522044
 21
438.2571467347021
 31
0.0
  0
LINE
  5
78A
330
1F
100
AcDbEntity
  8
0
100
AcDbLine
 10
211.5349174522043
 20
451.1871467347023
 30
0.0
 11
211.5349174522043
 21
456.1871467347024
 31
0.0
  0
CIRCLE
  5
78B
330
1F
100
AcDbEntity
  8
0
100
AcDbCircle
 10
208.5349174522043
 20
453.2871467347022
 30
0.0
 40
2.0
  0
LINE
  5
78C
330
1F
100
AcDbEntity
  8
0
100
AcDbLine
 10
211.5349174522043
 20
449.8271467347023
 30
0.0
 11
206.5349174522046
 21
449.8271467347023
 31
0.0
  0
LINE
  5
78D
330
1F
100
AcDbEntity
  8
0
100
AcDbLine
 10
206.5349174522046
 20
449.8271467347023
 30
0.0
 11
206.5349174522046
 21
449.2871467347022
 31
0.0
  0
LINE
  5
78E
330
1F
100
AcDbEntity
  8
0
100
AcDbLine
 10
211.5349174522043
 20
451.1871467347023
 30
0.0
 11
213.0349174522043
 21
451.1871467347023
 31
0.0
  0
CIRCLE
  5
78F
330
1F
100
AcDbEntity
  8
0
100
AcDbCircle
 10
208.5349174522043
 20
453.2871467347022
 30
0.0
 40
0.9
  0
LINE
  5
790
330
1F
100
AcDbEntity
  8
0
100
AcDbLine
 10
210.7349174522044
 20
448.4971467347024
 30
0.0
 11
211.5349174522043
 21
448.4971467347024
 31
0.0
  0
LINE
  5
791
330
1F
100
AcDbEntity
  8
0
100
AcDbLine
 10
211.5349174522043
 20
449.8271467347023
 30
0.0
 11
211.5349174522043
 21
448.4971467347024
 31
0.0
  0
LINE
  5
792
330
1F
100
AcDbEntity
  8
0
100
AcDbLine
 10
210.7349174522044
 20
445.8771467347023
 30
0.0
 11
211.5349174522043
 21
445.8771467347023
 31
0.0
  0
CIRCLE
  5
793
330
1F
100
AcDbEntity
  8
0
100
AcDbCircle
 10
208.5349174522043
 20
447.1871467347023
 30
0.0
 40
0.75
  0
LINE
  5
794
330
1F
100
AcDbEntity
  8
0
100
AcDbLine
 10
210.7349174522044
 20
448.4971467347024
 30
0.0
 11
210.7349174522044
 21
445.8771467347023
 31
0.0
  0
CIRCLE
  5
795
330
1F
100
AcDbEntity
  8
0
100
AcDbCircle
 10
208.5349174522043
 20
447.1871467347023
 30
0.0
 40
1.5
  0
LINE
  5
796
330
1F
100
AcDbEntity
  8
0
100
AcDbLine
 10
213.0349174522043
 20
451.1871467347023
 30
0.0
 11
213.0349174522043
 21
450.8271467347022
 31
0.0
  0
LINE
  5
797
330
1F
100
AcDbEntity
  8
0
100
AcDbLine
 10
204.5349174522046
 20
456.1871467347024
 30
0.0
 11
211.5349174522043
 21
456.1871467347024
 31
0.0
  0
LINE
  5
798
330
1F
100
AcDbEntity
  8
0
100
AcDbLine
 10
204.5349174522046
 20
450.9471467347021
 30
0.0
 11
204.5349174522046
 21
456.1871467347024
 31
0.0
  0
LINE
  5
799
330
1F
100
AcDbEntity
  8
0
100
AcDbLine
 10
204.5349174522046
 20
456.1871467347024
 30
0.0
 11
211.5349174522043
 21
456.1871467347024
 31
0.0
  0
LINE
  5
79A
330
1F
100
AcDbEntity
  8
0
100
AcDbLine
 10
211.5349174522043
 20
456.1871467347024
 30
0.0
 11
211.5349174522043
 21
450.9471467347021
 31
0.0
  0
LINE
  5
79B
330
1F
100
AcDbEntity
  8
0
100
AcDbLine
 10
204.5349174522046
 20
420.5671467347025
 30
0.0
 11
204.5349174522046
 21
415.3271467347023
 31
0.0
  0
LINE
  5
79C
330
1F
100
AcDbEntity
  8
0
100
AcDbLine
 10
204.5349174522046
 20
415.3271467347023
 30
0.0
 11
211.5349174522043
 21
415.3271467347023
 31
0.0
  0
LINE
  5
79D
330
1F
100
AcDbEntity
  8
0
100
AcDbLine
 10
211.5349174522043
 20
415.3271467347023
 30
0.0
 11
211.5349174522043
 21
420.5671467347025
 31
0.0
  0
LINE
  5
79E
330
1F
100
AcDbEntity
  8
0
100
AcDbLine
 10
231.6349174522045
 20
427.7871467347022
 30
0.0
 11
239.5349174522043
 21
427.7871467347022
 31
0.0
  0
LINE
  5
79F
330
1F
100
AcDbEntity
  8
0
100
AcDbLine
 10
232.5849174522045
 20
428.7871467347023
 30
0.0
 11
238.5849174522045
 21
428.7871467347023
 31
0.0
  0
LINE
  5
7A0
330
1F
100
AcDbEntity
  8
0
100
AcDbLine
 10
233.5849174522045
 20
428.7871467347023
 30
0.0
 11
234.5849174522045
 21
428.7871467347023
 31
0.0
  0
LINE
  5
7A1
330
1F
100
AcDbEntity
  8
0
100
AcDbLine
 10
235.3849174522045
 20
428.7871467347023
 30
0.0
 11
235.3849174522045
 21
431.7871467347022
 31
0.0
  0
LINE
  5
7A2
330
1F
100
AcDbEntity
  8
0
100
AcDbLine
 10
238.5849174522045
 20
428.7871467347023
 30
0.0
 11
238.5849174522045
 21
431.7871467347022
 31
0.0
  0
LINE
  5
7A3
330
1F
100
AcDbEntity
  8
0
100
AcDbLine
 10
238.5849174522045
 20
431.7871467347022
 30
0.0
 11
232.5849174522045
 21
431.7871467347022
 31
0.0
  0
LINE
  5
7A4
330
1F
100
AcDbEntity
  8
0
100
AcDbLine
 10
232.5849174522045
 20
431.7871467347022
 30
0.0
 11
232.5849174522045
 21
428.7871467347023
 31
0.0
  0
LINE
  5
7A5
330
1F
100
AcDbEntity
  8
0
100
AcDbLine
 10
234.5849174522045
 20
428.7871467347023
 30
0.0
 11
234.5849174522045
 21
431.7871467347022
 31
0.0
  0
LINE
  5
7A6
330
1F
100
AcDbEntity
  8
0
100
AcDbLine
 10
234.5849174522045
 20
431.7871467347022
 30
0.0
 11
233.5849174522045
 21
431.7871467347022
 31
0.0
  0
LINE
  5
7A7
330
1F
100
AcDbEntity
  8
0
100
AcDbLine
 10
233.5849174522045
 20
431.7871467347022
 30
0.0
 11
233.5849174522045
 21
428.7871467347023
 31
0.0
  0
LINE
  5
7A8
330
1F
100
AcDbEntity
  8
0
100
AcDbLine
 10
239.5349174522043
 20
427.7871467347022
 30
0.0
 11
239.5349174522043
 21
432.7871467347022
 31
0.0
  0
LINE
  5
7A9
330
1F
100
AcDbEntity
  8
0
100
AcDbLine
 10
239.5349174522043
 20
432.7871467347022
 30
0.0
 11
231.6349174522045
 21
432.7871467347022
 31
0.0
  0
LINE
  5
7AA
330
1F
100
AcDbEntity
  8
0
100
AcDbLine
 10
231.6349174522045
 20
432.7871467347022
 30
0.0
 11
231.6349174522045
 21
427.7871467347022
 31
0.0
  0
CIRCLE
  5
7AB
330
1F
100
AcDbEntity
  8
0
100
AcDbCircle
 10
192.9349174522054
 20
389.6871467347023
 30
0.0
 40
2.149999999999999
  0
CIRCLE
  5
7AC
330
1F
100
AcDbEntity
  8
0
100
AcDbCircle
 10
192.9349174522054
 20
389.6871467347023
 30
0.0
 40
1.85
  0
LINE
  5
7AD
330
1F
100
AcDbEntity
  8
0
100
AcDbLine
 10
191.5849174522053
 20
389.3871467347022
 30
0.0
 11
194.2849174522053
 21
389.3871467347022
 31
0.0
  0
LINE
  5
7AE
330
1F
100
AcDbEntity
  8
0
100
AcDbLine
 10
192.7849174522053
 20
389.6871467347023
 30
0.0
 11
192.7849174522053
 21
391.0371467347022
 31
0.0
  0
LINE
  5
7AF
330
1F
100
AcDbEntity
  8
0
100
AcDbLine
 10
193.0849174522045
 20
389.6871467347023
 30
0.0
 11
193.0849174522045
 21
391.0371467347022
 31
0.0
  0
ARC
  5
7B0
330
1F
100
AcDbEntity
  8
0
100
AcDbCircle
 10
192.9349174522054
 20
391.0371467347022
 30
0.0
 40
0.15
100
AcDbArc
 50
0.0
 51
180.0
  0
ARC
  5
7B1
330
1F
100
AcDbEntity
  8
0
100
AcDbCircle
 10
191.5849174522053
 20
389.5371467347022
 30
0.0
 40
0.15
100
AcDbArc
 50
90.0
 51
270.0
  0
ARC
  5
7B2
330
1F
100
AcDbEntity
  8
0
100
AcDbCircle
 10
194.2849174522053
 20
389.5371467347022
 30
0.0
 40
0.15
100
AcDbArc
 50
270.0
 51
90.0
  0
LINE
  5
7B3
330
1F
100
AcDbEntity
  8
0
100
AcDbLine
 10
191.5849174522053
 20
389.6871467347023
 30
0.0
 11
192.7849174522053
 21
389.6871467347023
 31
0.0
  0
LINE
  5
7B4
330
1F
100
AcDbEntity
  8
0
100
AcDbLine
 10
193.0849174522045
 20
389.6871467347023
 30
0.0
 11
194.2849174522053
 21
389.6871467347023
 31
0.0
  0
LINE
  5
7B5
330
1F
100
AcDbEntity
  8
0
100
AcDbLine
 10
191.9849174522055
 20
389.0371467347022
 30
0.0
 11
193.8849174522044
 21
389.0371467347022
 31
0.0
  0
LINE
  5
7B6
330
1F
100
AcDbEntity
  8
0
100
AcDbLine
 10
191.9849174522055
 20
388.7371467347021
 30
0.0
 11
193.8849174522044
 21
388.7371467347021
 31
0.0
  0
LINE
  5
7B7
330
1F
100
AcDbEntity
  8
0
100
AcDbLine
 10
192.3849174522054
 20
388.3871467347022
 30
0.0
 11
193.4849174522043
 21
388.3871467347022
 31
0.0
  0
LINE
  5
7B8
330
1F
100
AcDbEntity
  8
0
100
AcDbLine
 10
192.3849174522054
 20
388.087146734702
 30
0.0
 11
193.4849174522043
 21
388.087146734702
 31
0.0
  0
ARC
  5
7B9
330
1F
100
AcDbEntity
  8
0
100
AcDbCircle
 10
192.3849174522054
 20
388.2371467347021
 30
0.0
 40
0.15
100
AcDbArc
 50
90.0
 51
270.0
  0
ARC
  5
7BA
330
1F
100
AcDbEntity
  8
0
100
AcDbCircle
 10
193.4849174522043
 20
388.2371467347021
 30
0.0
 40
0.15
100
AcDbArc
 50
270.0
 51
90.0
  0
ARC
  5
7BB
330
1F
100
AcDbEntity
  8
0
100
AcDbCircle
 10
191.9849174522055
 20
388.8871467347022
 30
0.0
 40
0.15
100
AcDbArc
 50
90.0
 51
270.0
  0
ARC
  5
7BC
330
1F
100
AcDbEntity
  8
0
100
AcDbCircle
 10
193.8849174522044
 20
388.8871467347022
 30
0.0
 40
0.15
100
AcDbArc
 50
270.0
 51
90.0
  0
LINE
  5
7BD
330
1F
100
AcDbEntity
  8
0
100
AcDbLine
 10
239.5349174522043
 20
427.2871467347022
 30
0.0
 11
232.2849174522043
 21
427.2871467347022
 31
0.0
  0
CIRCLE
  5
7BE
330
1F
100
AcDbEntity
  8
0
100
AcDbCircle
 10
236.0349174522043
 20
421.3371467347021
 30
0.0
 40
1.0
  0
CIRCLE
  5
7BF
330
1F
100
AcDbEntity
  8
0
100
AcDbCircle
 10
236.0349174522043
 20
424.837146734702
 30
0.0
 40
1.0
  0
LINE
  5
7C0
330
1F
100
AcDbEntity
  8
0
100
AcDbLine
 10
232.2849174522043
 20
427.2871467347022
 30
0.0
 11
232.2849174522043
 21
418.8871467347022
 31
0.0
  0
LINE
  5
7C1
330
1F
100
AcDbEntity
  8
0
100
AcDbLine
 10
232.2849174522043
 20
418.8871467347022
 30
0.0
 11
239.5349174522043
 21
418.8871467347022
 31
0.0
  0
LINE
  5
7C2
330
1F
100
AcDbEntity
  8
0
100
AcDbLine
 10
239.5349174522043
 20
418.8871467347022
 30
0.0
 11
239.5349174522043
 21
427.2871467347022
 31
0.0
  0
LINE
  5
7C3
330
1F
100
AcDbEntity
  8
0
100
AcDbLine
 10
231.6349174522045
 20
447.7871467347022
 30
0.0
 11
239.5349174522043
 21
447.7871467347022
 31
0.0
  0
LINE
  5
7C4
330
1F
100
AcDbEntity
  8
0
100
AcDbLine
 10
232.5849174522045
 20
448.7871467347022
 30
0.0
 11
238.5849174522045
 21
448.7871467347022
 31
0.0
  0
LINE
  5
7C5
330
1F
100
AcDbEntity
  8
0
100
AcDbLine
 10
233.5849174522045
 20
448.7871467347022
 30
0.0
 11
234.5849174522045
 21
448.7871467347022
 31
0.0
  0
LINE
  5
7C6
330
1F
100
AcDbEntity
  8
0
100
AcDbLine
 10
235.3849174522045
 20
448.7871467347022
 30
0.0
 11
235.3849174522045
 21
451.7871467347022
 31
0.0
  0
LINE
  5
7C7
330
1F
100
AcDbEntity
  8
0
100
AcDbLine
 10
239.5349174522043
 20
447.7871467347022
 30
0.0
 11
239.5349174522043
 21
452.7871467347022
 31
0.0
  0
LINE
  5
7C8
330
1F
100
AcDbEntity
  8
0
100
AcDbLine
 10
239.5349174522043
 20
452.7871467347022
 30
0.0
 11
231.6349174522045
 21
452.7871467347022
 31
0.0
  0
LINE
  5
7C9
330
1F
100
AcDbEntity
  8
0
100
AcDbLine
 10
231.6349174522045
 20
452.7871467347022
 30
0.0
 11
231.6349174522045
 21
447.7871467347022
 31
0.0
  0
LINE
  5
7CA
330
1F
100
AcDbEntity
  8
0
100
AcDbLine
 10
234.5849174522045
 20
448.7871467347022
 30
0.0
 11
234.5849174522045
 21
451.7871467347022
 31
0.0
  0
LINE
  5
7CB
330
1F
100
AcDbEntity
  8
0
100
AcDbLine
 10
234.5849174522045
 20
451.7871467347022
 30
0.0
 11
233.5849174522045
 21
451.7871467347022
 31
0.0
  0
LINE
  5
7CC
330
1F
100
AcDbEntity
  8
0
100
AcDbLine
 10
233.5849174522045
 20
451.7871467347022
 30
0.0
 11
233.5849174522045
 21
448.7871467347022
 31
0.0
  0
LINE
  5
7CD
330
1F
100
AcDbEntity
  8
0
100
AcDbLine
 10
238.5849174522045
 20
448.7871467347022
 30
0.0
 11
238.5849174522045
 21
451.7871467347022
 31
0.0
  0
LINE
  5
7CE
330
1F
100
AcDbEntity
  8
0
100
AcDbLine
 10
238.5849174522045
 20
451.7871467347022
 30
0.0
 11
232.5849174522045
 21
451.7871467347022
 31
0.0
  0
LINE
  5
7CF
330
1F
100
AcDbEntity
  8
0
100
AcDbLine
 10
232.5849174522045
 20
451.7871467347022
 30
0.0
 11
232.5849174522045
 21
448.7871467347022
 31
0.0
  0
CIRCLE
  5
7D0
330
1F
100
AcDbEntity
  8
0
100
AcDbCircle
 10
233.0349174522055
 20
440.2871467347022
 30
0.0
 40
5.5
  0
LINE
  5
7D1
330
1F
100
AcDbEntity
  8
0
100
AcDbLine
 10
226.7349174522044
 20
433.2871467347023
 30
0.0
 11
226.7349174522044
 21
447.2871467347022
 31
0.0
  0
LINE
  5
7D2
330
1F
100
AcDbEntity
  8
0
100
AcDbLine
 10
239.5349174522053
 20
433.2871467347023
 30
0.0
 11
239.5349174522053
 21
439.1871467347023
 31
0.0
  0
LINE
  5
7D3
330
1F
100
AcDbEntity
  8
0
100
AcDbLine
 10
239.5349174522053
 20
433.2871467347023
 30
0.0
 11
226.7349174522044
 21
433.2871467347023
 31
0.0
  0
LINE
  5
7D4
330
1F
100
AcDbEntity
  8
0
100
AcDbLine
 10
239.5349174522053
 20
447.2871467347022
 30
0.0
 11
226.7349174522044
 21
447.2871467347022
 31
0.0
  0
LINE
  5
7D5
330
1F
100
AcDbEntity
  8
0
100
AcDbLine
 10
239.5349174522053
 20
441.3871467347022
 30
0.0
 11
239.5349174522053
 21
447.2871467347022
 31
0.0
  0
LINE
  5
7D6
330
1F
100
AcDbEntity
  8
0
100
AcDbLine
 10
204.5349174522054
 20
491.7871465753584
 30
0.0
 11
204.5349174522054
 21
524.7871465753584
 31
0.0
  0
LINE
  5
7D7
330
1F
100
AcDbEntity
  8
0
100
AcDbLine
 10
204.5349174522054
 20
461.6871465753582
 30
0.0
 11
204.5349174522054
 21
487.8871465753582
 31
0.0
  0
LINE
  5
7D8
330
1F
100
AcDbEntity
  8
0
100
AcDbLine
 10
239.5349174522052
 20
453.2871465753583
 30
0.0
 11
239.5349174522053
 21
418.4871465753587
 31
0.0
  0
LINE
  5
7D9
330
1F
100
AcDbEntity
  8
0
100
AcDbLine
 10
239.5349174522053
 20
416.2871465753587
 30
0.0
 11
239.5349174522053
 21
370.8871465753582
 31
0.0
  0
ARC
  5
7DA
330
1F
100
AcDbEntity
  8
0
100
AcDbCircle
 10
219.4349174522053
 20
545.6871467347024
 30
0.0
 40
5.5
100
AcDbArc
 50
294.6199773286487
 51
0.0
  0
ARC
  5
7DB
330
1F
100
AcDbEntity
  8
0
100
AcDbCircle
 10
219.4349174522053
 20
361.6871467347023
 30
0.0
 40
5.5
100
AcDbArc
 50
114.6199773286487
 51
180.0
  0
LINE
  5
7DC
330
1F
100
AcDbEntity
  8
0
100
AcDbLine
 10
224.9349174522053
 20
356.6871467347023
 30
0.0
 11
247.4349174522053
 21
356.6871467347023
 31
0.0
  0
LINE
  5
7DD
330
1F
100
AcDbEntity
  8
外形
 62
     0
100
AcDbLine
 10
235.3347690910361
 20
493.9121449887481
 30
0.0
 11
236.0601806564635
 21
493.9121449887476
 31
0.0
  0
LINE
  5
7DE
330
1F
100
AcDbEntity
  8
0
100
AcDbLine
 10
235.3347690910361
 20
474.2171449887473
 30
0.0
 11
235.3347690910361
 21
461.2171449887473
 31
0.0
  0
LINE
  5
7DF
330
1F
100
AcDbEntity
  8
0
100
AcDbLine
 10
236.9347690910355
 20
472.0030021458916
 30
0.0
 11
236.9347690910355
 21
464.4312878316023
 31
0.0
  0
LINE
  5
7E0
330
1F
100
AcDbEntity
  8
0
100
AcDbLine
 10
235.3347690910361
 20
494.0071449887478
 30
0.0
 11
235.3347690910361
 21
481.0071449887479
 31
0.0
  0
LINE
  5
7E1
330
1F
100
AcDbEntity
  8
0
100
AcDbLine
 10
236.9347690910355
 20
490.7930021458938
 30
0.0
 11
236.9347690910355
 21
483.2212878316028
 31
0.0
  0
LINE
  5
7E2
330
1F
100
AcDbEntity
  8
0
100
AcDbLine
 10
237.4347690910355
 20
483.4869408858613
 30
0.0
 11
237.4347690910355
 21
490.5273490916348
 31
0.0
  0
LINE
  5
7E3
330
1F
100
AcDbEntity
  8
0
100
AcDbLine
 10
237.4347690910358
 20
464.6969408858608
 30
0.0
 11
237.4347690910355
 21
471.7373490916338
 31
0.0
  0
HATCH
  5
7E4
330
1F
100
AcDbEntity
  8
0
100
AcDbHatch
 10
0.0
 20
0.0
 30
0.0
210
0.0
220
0.0
230
1.0
  2
ANSI37
 70
     0
 71
     0
 91
        1
 92
        7
 72
     1
 73
     1
 93
        8
 10
239.0347690910359
 20
489.9430348831006
 42
0.2874919409690145
 10
238.1347690910354
 20
490.5071449887477
 42
0.0
 10
237.6347690910357
 20
490.5071449887477
 42
-0.0503820444849587
 10
237.4347690910355
 20
490.5273490916348
 42
0.0
 10
237.4347690910355
 20
483.4869408858613
 42
-0.0503820444846053
 10
237.6347690910345
 20
483.5071449887477
 42
0.0
 10
238.1347690910354
 20
483.5071449887477
 42
0.2874919409690145
 10
239.0347690910359
 20
484.0712550943949
 42
0.0
 97
        0
 75
     0
 76
     1
 52
0.0
 41
0.2
 77
     0
 78
     2
 53
45.0
 43
-1150.155933063158
 44
3797.189050882169
 45
-0.4490128060534576
 46
0.4490128060534577
 79
     0
 53
135.0
 43
-1150.155933063158
 44
3797.189050882169
 45
-0.4490128060534577
 46
-0.4490128060534576
 79
     0
 47
0.0643847009913141
 98
        2
 10
238.2501135267355
 20
488.040959535068
 10
238.4515232584396
 20
486.7419178952509
  0
HATCH
  5
7E5
330
1F
100
AcDbEntity
  8
0
100
AcDbHatch
 10
0.0
 20
0.0
 30
0.0
210
0.0
220
0.0
230
1.0
  2
ANSI37
 70
     0
 71
     0
 91
        1
 92
        7
 72
     1
 73
     1
 93
        8
 10
239.0347690910359
 20
471.1530348830985
 42
0.2874919409695692
 10
238.1347690910345
 20
471.7171449887474
 42
0.0
 10
237.634769091034
 20
471.7171449887474
 42
-0.0503820444844913
 10
237.4347690910355
 20
471.7373490916338
 42
0.0
 10
237.4347690910355
 20
464.6969408858608
 42
-0.0503820444846053
 10
237.6347690910345
 20
464.7171449887474
 42
0.0
 10
238.1347690910345
 20
464.7171449887474
 42
0.2874919409695692
 10
239.0347690910359
 20
465.2812550943964
 42
0.0
 97
        0
 75
     0
 76
     1
 52
0.0
 41
0.2
 77
     0
 78
     2
 53
45.0
 43
-1150.155933063158
 44
3797.189050882169
 45
-0.4490128060534576
 46
0.4490128060534577
 79
     0
 53
135.0
 43
-1150.155933063158
 44
3797.189050882169
 45
-0.4490128060534577
 46
-0.4490128060534576
 79
     0
 47
0.0157775037873861
 98
        1
 10
238.4163295579508
 20
470.4675821216548
  0
LINE
  5
7E6
330
1F
100
AcDbEntity
  8
3_表示パネル
  6
Continuous
 62
    40
100
AcDbLine
 10
203.4349175741223
 20
457.1871465753589
 30
0.0
 11
203.4349175741223
 21
370.8871465753586
 31
0.0
  0
LINE
  5
7E7
330
1F
100
AcDbEntity
  8
3_表示パネル
  6
Continuous
 62
    40
100
AcDbLine
 10
213.334917574122
 20
524.7871465753584
 30
0.0
 11
213.334917574122
 21
516.7871465753584
 31
0.0
  0
LINE
  5
7E8
330
1F
100
AcDbEntity
  8
3_表示パネル
  6
Continuous
 62
    40
100
AcDbLine
 10
216.334917574122
 20
516.7871465753584
 30
0.0
 11
216.334917574122
 21
508.5871465753585
 31
0.0
  0
LINE
  5
7E9
330
1F
100
AcDbEntity
  8
3_表示パネル
  6
Continuous
 62
    40
100
AcDbLine
 10
213.334917574122
 20
516.7871465753584
 30
0.0
 11
216.334917574122
 21
516.7871465753584
 31
0.0
  0
LINE
  5
7EA
330
1F
100
AcDbEntity
  8
3_表示パネル
  6
Continuous
 62
    40
100
AcDbLine
 10
203.4349175741223
 20
457.1871465753589
 30
0.0
 11
203.4349175741223
 21
370.8871465753586
 31
0.0
  0
LINE
  5
7EB
330
1F
100
AcDbEntity
  8
3_表示パネル
  6
Continuous
 62
    40
100
AcDbLine
 10
214.0349175741223
 20
442.2871465753583
 30
0.0
 11
214.0349175741223
 21
428.8871465753588
 31
0.0
  0
LINE
  5
7EC
330
1F
100
AcDbEntity
  8
3_表示パネル
  6
Continuous
 62
    40
100
AcDbLine
 10
215.6349175741222
 20
428.8871465753588
 30
0.0
 11
215.6349175741222
 21
425.2871465753583
 31
0.0
  0
LINE
  5
7ED
330
1F
100
AcDbEntity
  8
3_表示パネル
  6
Continuous
 62
    40
100
AcDbLine
 10
214.0349175741223
 20
428.8871465753588
 30
0.0
 11
215.6349175741222
 21
428.8871465753588
 31
0.0
  0
LINE
  5
7EE
330
1F
100
AcDbEntity
  8
3_表示パネル
  6
Continuous
 62
    40
100
AcDbLine
 10
214.0349175741223
 20
425.2871465753583
 30
0.0
 11
215.6349175741222
 21
425.2871465753583
 31
0.0
  0
LINE
  5
7EF
330
1F
100
AcDbEntity
  8
3_表示パネル
  6
Continuous
 62
    40
100
AcDbLine
 10
214.0349175741223
 20
457.1871465753589
 30
0.0
 11
214.0349175741223
 21
445.8871465753587
 31
0.0
  0
LINE
  5
7F0
330
1F
100
AcDbEntity
  8
3_表示パネル
  6
Continuous
 62
    40
100
AcDbLine
 10
214.0349175741223
 20
445.8871465753587
 30
0.0
 11
215.6349175741222
 21
445.8871465753587
 31
0.0
  0
LINE
  5
7F1
330
1F
100
AcDbEntity
  8
3_表示パネル
  6
Continuous
 62
    40
100
AcDbLine
 10
214.0349175741223
 20
442.2871465753583
 30
0.0
 11
215.6349175741222
 21
442.2871465753583
 31
0.0
  0
LINE
  5
7F2
330
1F
100
AcDbEntity
  8
3_表示パネル
  6
Continuous
 62
    40
100
AcDbLine
 10
215.6349175741222
 20
445.8871465753587
 30
0.0
 11
215.6349175741222
 21
442.2871465753583
 31
0.0
  0
LINE
  5
7F3
330
1F
100
AcDbEntity
  8
0
100
AcDbLine
 10
239.0347690910359
 20
465.2812550943964
 30
0.0
 11
239.0347690910359
 21
471.1530348830985
 31
0.0
  0
INSERT
  5
7F4
330
1F
100
AcDbEntity
  8
0
100
AcDbBlockReference
  2
A$C60EC01A6
 10
198.534917452204
 20
368.9871456744709
 30
0.0
  0
INSERT
  5
7F5
330
1F
100
AcDbEntity
  8
0
100
AcDbBlockReference
  2
A$C582506EE
 10
227.6047677113508
 20
462.8121483471055
 30
0.0
  0
LINE
  5
7F6
330
1F
100
AcDbEntity
  8
0
100
AcDbLine
 10
239.0347690910359
 20
484.0712550943949
 30
0.0
 11
239.0347690910359
 21
489.943034883097
 31
0.0
  0
TEXT
  5
8CC
330
1F
100
AcDbEntity
  8
0
100
AcDbText
 10
171.4836676975181
 20
639.6655082002754
 30
0.0
 40
10.0
  1
SCON-CA-12I~200I-ML3-*-1/2
100
AcDbText
  0
LINE
  5
917
330
1F
100
AcDbEntity
  8
0
100
AcDbLine
 10
469.4349174522045
 20
550.5562171268564
 30
0.0
 11
469.4349174522045
 21
356.8180763425483
 31
0.0
  0
LINE
  5
918
330
1F
100
AcDbEntity
  8
0
100
AcDbLine
 10
464.4349174522045
 20
356.6871467347023
 30
0.0
 11
464.4349174522045
 21
366.6871467347023
 31
0.0
  0
LINE
  5
919
330
1F
100
AcDbEntity
  8
0
100
AcDbLine
 10
348.4349174522055
 20
366.6871467347023
 30
0.0
 11
348.4349174522055
 21
540.6871467347023
 31
0.0
  0
LINE
  5
91A
330
1F
100
AcDbEntity
  8
0
100
AcDbLine
 10
348.4349174522055
 20
540.6871467347023
 30
0.0
 11
464.4349174522045
 21
540.6871467347023
 31
0.0
  0
LINE
  5
91B
330
1F
100
AcDbEntity
  8
0
100
AcDbLine
 10
348.4349174522055
 20
366.6871467347023
 30
0.0
 11
464.4349174522045
 21
366.6871467347023
 31
0.0
  0
LINE
  5
91C
330
1F
100
AcDbEntity
  8
0
100
AcDbLine
 10
464.4349174522045
 20
550.6871467347023
 30
0.0
 11
469.4349174522045
 21
550.5562171268564
 31
0.0
  0
LINE
  5
91D
330
1F
100
AcDbEntity
  8
0
100
AcDbLine
 10
465.8489572169413
 20
550.6501188003272
 30
0.0
 11
465.8489572169404
 21
356.7241746690773
 31
0.0
  0
LINE
  5
91E
330
1F
100
AcDbEntity
  8
0
100
AcDbLine
 10
464.4349174522045
 20
356.6871467347023
 30
0.0
 11
469.4349174522045
 21
356.8180763425483
 31
0.0
  0
LINE
  5
91F
330
1F
100
AcDbEntity
  8
0
100
AcDbLine
 10
348.4349174522055
 20
366.6871467347023
 30
0.0
 11
348.4349174522055
 21
540.6871467347023
 31
0.0
  0
LINE
  5
920
330
1F
100
AcDbEntity
  8
0
100
AcDbLine
 10
348.4349174522055
 20
540.6871467347023
 30
0.0
 11
465.8227712953734
 21
540.6871467347023
 31
0.0
  0
LINE
  5
921
330
1F
100
AcDbEntity
  8
0
100
AcDbLine
 10
365.4349174522055
 20
366.6871467347023
 30
0.0
 11
365.4349174522055
 21
540.6871467347023
 31
0.0
  0
LINE
  5
922
330
1F
100
AcDbEntity
  8
0
100
AcDbLine
 10
447.4349174522054
 20
366.6871467347023
 30
0.0
 11
447.4349174522054
 21
540.6871467347023
 31
0.0
  0
LINE
  5
923
330
1F
100
AcDbEntity
  8
0
100
AcDbLine
 10
365.4349174522055
 20
539.6871467347023
 30
0.0
 11
447.4349174522054
 21
539.6871467347023
 31
0.0
  0
LINE
  5
924
330
1F
100
AcDbEntity
  8
0
100
AcDbLine
 10
370.4349174522055
 20
537.6871467347022
 30
0.0
 11
372.4349174522055
 21
537.6871467347022
 31
0.0
  0
LINE
  5
925
330
1F
100
AcDbEntity
  8
0
100
AcDbLine
 10
370.4349174522055
 20
367.6871467347023
 30
0.0
 11
370.4349174522055
 21
420.9371467347024
 31
0.0
  0
LINE
  5
926
330
1F
100
AcDbEntity
  8
0
100
AcDbLine
 10
372.4349174522055
 20
367.6871467347023
 30
0.0
 11
372.4349174522055
 21
420.9371467347024
 31
0.0
  0
LINE
  5
927
330
1F
100
AcDbEntity
  8
0
100
AcDbLine
 10
370.4349174522055
 20
486.4371467347023
 30
0.0
 11
372.4349174522055
 21
486.4371467347023
 31
0.0
  0
LINE
  5
928
330
1F
100
AcDbEntity
  8
0
100
AcDbLine
 10
370.4349174522055
 20
420.9371467347024
 30
0.0
 11
372.4349174522055
 21
420.9371467347024
 31
0.0
  0
LINE
  5
929
330
1F
100
AcDbEntity
  8
0
100
AcDbLine
 10
365.4349174522055
 20
367.6871467347023
 30
0.0
 11
447.4349174522054
 21
367.6871467347023
 31
0.0
  0
LINE
  5
92A
330
1F
100
AcDbEntity
  8
0
100
AcDbLine
 10
370.4349174522055
 20
369.6871467347023
 30
0.0
 11
372.4349174522055
 21
369.6871467347023
 31
0.0
  0
LINE
  5
92B
330
1F
100
AcDbEntity
  8
0
100
AcDbLine
 10
370.4349174522055
 20
486.4371467347023
 30
0.0
 11
370.4349174522055
 21
539.6871467347023
 31
0.0
  0
LINE
  5
92C
330
1F
100
AcDbEntity
  8
0
100
AcDbLine
 10
372.4349174522055
 20
486.4371467347023
 30
0.0
 11
372.4349174522055
 21
539.6871467347023
 31
0.0
  0
LINE
  5
92D
330
1F
100
AcDbEntity
  8
0
100
AcDbLine
 10
377.4349174522055
 20
537.6871467347022
 30
0.0
 11
379.4349174522055
 21
537.6871467347022
 31
0.0
  0
LINE
  5
92E
330
1F
100
AcDbEntity
  8
0
100
AcDbLine
 10
377.4349174522055
 20
367.6871467347023
 30
0.0
 11
377.4349174522055
 21
420.9371467347024
 31
0.0
  0
LINE
  5
92F
330
1F
100
AcDbEntity
  8
0
100
AcDbLine
 10
379.4349174522055
 20
367.6871467347023
 30
0.0
 11
379.4349174522055
 21
420.9371467347024
 31
0.0
  0
LINE
  5
930
330
1F
100
AcDbEntity
  8
0
100
AcDbLine
 10
377.4349174522055
 20
486.4371467347023
 30
0.0
 11
379.4349174522055
 21
486.4371467347023
 31
0.0
  0
LINE
  5
931
330
1F
100
AcDbEntity
  8
0
100
AcDbLine
 10
377.4349174522055
 20
420.9371467347024
 30
0.0
 11
379.4349174522055
 21
420.9371467347024
 31
0.0
  0
LINE
  5
932
330
1F
100
AcDbEntity
  8
0
100
AcDbLine
 10
377.4349174522055
 20
369.6871467347023
 30
0.0
 11
379.4349174522055
 21
369.6871467347023
 31
0.0
  0
LINE
  5
933
330
1F
100
AcDbEntity
  8
0
100
AcDbLine
 10
377.4349174522055
 20
486.4371467347023
 30
0.0
 11
377.4349174522055
 21
539.6871467347023
 31
0.0
  0
LINE
  5
934
330
1F
100
AcDbEntity
  8
0
100
AcDbLine
 10
379.4349174522055
 20
486.4371467347023
 30
0.0
 11
379.4349174522055
 21
539.6871467347023
 31
0.0
  0
LINE
  5
935
330
1F
100
AcDbEntity
  8
0
100
AcDbLine
 10
384.4349174522055
 20
537.6871467347022
 30
0.0
 11
386.4349174522055
 21
537.6871467347022
 31
0.0
  0
LINE
  5
936
330
1F
100
AcDbEntity
  8
0
100
AcDbLine
 10
384.4349174522055
 20
367.6871467347023
 30
0.0
 11
384.4349174522055
 21
420.9371467347024
 31
0.0
  0
LINE
  5
937
330
1F
100
AcDbEntity
  8
0
100
AcDbLine
 10
386.4349174522055
 20
367.6871467347023
 30
0.0
 11
386.4349174522055
 21
420.9371467347024
 31
0.0
  0
LINE
  5
938
330
1F
100
AcDbEntity
  8
0
100
AcDbLine
 10
384.4349174522055
 20
486.4371467347023
 30
0.0
 11
386.4349174522055
 21
486.4371467347023
 31
0.0
  0
LINE
  5
939
330
1F
100
AcDbEntity
  8
0
100
AcDbLine
 10
384.4349174522055
 20
420.9371467347024
 30
0.0
 11
386.4349174522055
 21
420.9371467347024
 31
0.0
  0
LINE
  5
93A
330
1F
100
AcDbEntity
  8
0
100
AcDbLine
 10
384.4349174522055
 20
369.6871467347023
 30
0.0
 11
386.4349174522055
 21
369.6871467347023
 31
0.0
  0
LINE
  5
93B
330
1F
100
AcDbEntity
  8
0
100
AcDbLine
 10
384.4349174522055
 20
486.4371467347023
 30
0.0
 11
384.4349174522055
 21
539.6871467347023
 31
0.0
  0
LINE
  5
93C
330
1F
100
AcDbEntity
  8
0
100
AcDbLine
 10
386.4349174522055
 20
486.4371467347023
 30
0.0
 11
386.4349174522055
 21
539.6871467347023
 31
0.0
  0
LINE
  5
93D
330
1F
100
AcDbEntity
  8
0
100
AcDbLine
 10
391.4349174522055
 20
367.6871467347023
 30
0.0
 11
391.4349174522055
 21
420.9371467347024
 31
0.0
  0
LINE
  5
93E
330
1F
100
AcDbEntity
  8
0
100
AcDbLine
 10
393.4349174522055
 20
367.6871467347023
 30
0.0
 11
393.4349174522055
 21
420.9371467347024
 31
0.0
  0
LINE
  5
93F
330
1F
100
AcDbEntity
  8
0
100
AcDbLine
 10
391.4349174522055
 20
486.4371467347023
 30
0.0
 11
393.4349174522055
 21
486.4371467347023
 31
0.0
  0
LINE
  5
940
330
1F
100
AcDbEntity
  8
0
100
AcDbLine
 10
391.4349174522055
 20
420.9371467347024
 30
0.0
 11
393.4349174522055
 21
420.9371467347024
 31
0.0
  0
LINE
  5
941
330
1F
100
AcDbEntity
  8
0
100
AcDbLine
 10
391.4349174522055
 20
369.6871467347023
 30
0.0
 11
393.4349174522055
 21
369.6871467347023
 31
0.0
  0
LINE
  5
942
330
1F
100
AcDbEntity
  8
0
100
AcDbLine
 10
391.4349174522055
 20
486.4371467347023
 30
0.0
 11
391.4349174522055
 21
539.6871467347023
 31
0.0
  0
LINE
  5
943
330
1F
100
AcDbEntity
  8
0
100
AcDbLine
 10
393.4349174522055
 20
486.4371467347023
 30
0.0
 11
393.4349174522055
 21
539.6871467347023
 31
0.0
  0
LINE
  5
944
330
1F
100
AcDbEntity
  8
0
100
AcDbLine
 10
398.4349174522055
 20
537.6871467347022
 30
0.0
 11
400.4349174522054
 21
537.6871467347022
 31
0.0
  0
LINE
  5
945
330
1F
100
AcDbEntity
  8
0
100
AcDbLine
 10
398.4349174522055
 20
367.6871467347023
 30
0.0
 11
398.4349174522055
 21
420.9371467347024
 31
0.0
  0
LINE
  5
946
330
1F
100
AcDbEntity
  8
0
100
AcDbLine
 10
400.4349174522054
 20
367.6871467347023
 30
0.0
 11
400.4349174522054
 21
420.9371467347024
 31
0.0
  0
LINE
  5
947
330
1F
100
AcDbEntity
  8
0
100
AcDbLine
 10
398.4349174522055
 20
486.4371467347023
 30
0.0
 11
400.4349174522054
 21
486.4371467347023
 31
0.0
  0
LINE
  5
948
330
1F
100
AcDbEntity
  8
0
100
AcDbLine
 10
398.4349174522055
 20
420.9371467347024
 30
0.0
 11
400.4349174522054
 21
420.9371467347024
 31
0.0
  0
LINE
  5
949
330
1F
100
AcDbEntity
  8
0
100
AcDbLine
 10
398.4349174522055
 20
369.6871467347023
 30
0.0
 11
400.4349174522054
 21
369.6871467347023
 31
0.0
  0
LINE
  5
94A
330
1F
100
AcDbEntity
  8
0
100
AcDbLine
 10
398.4349174522055
 20
486.4371467347023
 30
0.0
 11
398.4349174522055
 21
539.6871467347023
 31
0.0
  0
LINE
  5
94B
330
1F
100
AcDbEntity
  8
0
100
AcDbLine
 10
400.4349174522054
 20
486.4371467347023
 30
0.0
 11
400.4349174522054
 21
539.6871467347023
 31
0.0
  0
LINE
  5
94C
330
1F
100
AcDbEntity
  8
0
100
AcDbLine
 10
405.4349174522055
 20
537.6871467347022
 30
0.0
 11
407.4349174522055
 21
537.6871467347022
 31
0.0
  0
LINE
  5
94D
330
1F
100
AcDbEntity
  8
0
100
AcDbLine
 10
405.4349174522055
 20
367.6871467347023
 30
0.0
 11
405.4349174522055
 21
420.9371467347024
 31
0.0
  0
LINE
  5
94E
330
1F
100
AcDbEntity
  8
0
100
AcDbLine
 10
407.4349174522055
 20
367.6871467347023
 30
0.0
 11
407.4349174522055
 21
420.9371467347024
 31
0.0
  0
LINE
  5
94F
330
1F
100
AcDbEntity
  8
0
100
AcDbLine
 10
405.4349174522055
 20
486.4371467347023
 30
0.0
 11
407.4349174522055
 21
486.4371467347023
 31
0.0
  0
LINE
  5
950
330
1F
100
AcDbEntity
  8
0
100
AcDbLine
 10
405.4349174522055
 20
420.9371467347024
 30
0.0
 11
407.4349174522055
 21
420.9371467347024
 31
0.0
  0
LINE
  5
951
330
1F
100
AcDbEntity
  8
0
100
AcDbLine
 10
405.4349174522055
 20
369.6871467347023
 30
0.0
 11
407.4349174522055
 21
369.6871467347023
 31
0.0
  0
LINE
  5
952
330
1F
100
AcDbEntity
  8
0
100
AcDbLine
 10
405.4349174522055
 20
486.4371467347023
 30
0.0
 11
405.4349174522055
 21
539.6871467347023
 31
0.0
  0
LINE
  5
953
330
1F
100
AcDbEntity
  8
0
100
AcDbLine
 10
407.4349174522055
 20
486.4371467347023
 30
0.0
 11
407.4349174522055
 21
539.6871467347023
 31
0.0
  0
LINE
  5
954
330
1F
100
AcDbEntity
  8
0
100
AcDbLine
 10
412.4349174522055
 20
537.6871467347022
 30
0.0
 11
414.4349174522055
 21
537.6871467347022
 31
0.0
  0
LINE
  5
955
330
1F
100
AcDbEntity
  8
0
100
AcDbLine
 10
412.4349174522055
 20
367.6871467347023
 30
0.0
 11
412.4349174522055
 21
420.9371467347024
 31
0.0
  0
LINE
  5
956
330
1F
100
AcDbEntity
  8
0
100
AcDbLine
 10
414.4349174522055
 20
367.6871467347023
 30
0.0
 11
414.4349174522055
 21
420.9371467347024
 31
0.0
  0
LINE
  5
957
330
1F
100
AcDbEntity
  8
0
100
AcDbLine
 10
412.4349174522055
 20
486.4371467347023
 30
0.0
 11
414.4349174522055
 21
486.4371467347023
 31
0.0
  0
LINE
  5
958
330
1F
100
AcDbEntity
  8
0
100
AcDbLine
 10
412.4349174522055
 20
420.9371467347024
 30
0.0
 11
414.4349174522055
 21
420.9371467347024
 31
0.0
  0
LINE
  5
959
330
1F
100
AcDbEntity
  8
0
100
AcDbLine
 10
412.4349174522055
 20
369.6871467347023
 30
0.0
 11
414.4349174522055
 21
369.6871467347023
 31
0.0
  0
LINE
  5
95A
330
1F
100
AcDbEntity
  8
0
100
AcDbLine
 10
412.4349174522055
 20
486.4371467347023
 30
0.0
 11
412.4349174522055
 21
539.6871467347023
 31
0.0
  0
LINE
  5
95B
330
1F
100
AcDbEntity
  8
0
100
AcDbLine
 10
414.4349174522055
 20
486.4371467347023
 30
0.0
 11
414.4349174522055
 21
539.6871467347023
 31
0.0
  0
LINE
  5
95C
330
1F
100
AcDbEntity
  8
0
100
AcDbLine
 10
419.4349174522055
 20
537.6871467347022
 30
0.0
 11
421.4349174522054
 21
537.6871467347022
 31
0.0
  0
LINE
  5
95D
330
1F
100
AcDbEntity
  8
0
100
AcDbLine
 10
419.4349174522055
 20
367.6871467347023
 30
0.0
 11
419.4349174522055
 21
420.9371467347024
 31
0.0
  0
LINE
  5
95E
330
1F
100
AcDbEntity
  8
0
100
AcDbLine
 10
421.4349174522054
 20
367.6871467347023
 30
0.0
 11
421.4349174522054
 21
420.9371467347024
 31
0.0
  0
LINE
  5
95F
330
1F
100
AcDbEntity
  8
0
100
AcDbLine
 10
419.4349174522055
 20
486.4371467347023
 30
0.0
 11
421.4349174522054
 21
486.4371467347023
 31
0.0
  0
LINE
  5
960
330
1F
100
AcDbEntity
  8
0
100
AcDbLine
 10
419.4349174522055
 20
420.9371467347024
 30
0.0
 11
421.4349174522054
 21
420.9371467347024
 31
0.0
  0
LINE
  5
961
330
1F
100
AcDbEntity
  8
0
100
AcDbLine
 10
419.4349174522055
 20
369.6871467347023
 30
0.0
 11
421.4349174522054
 21
369.6871467347023
 31
0.0
  0
LINE
  5
962
330
1F
100
AcDbEntity
  8
0
100
AcDbLine
 10
419.4349174522055
 20
486.4371467347023
 30
0.0
 11
419.4349174522055
 21
539.6871467347023
 31
0.0
  0
LINE
  5
963
330
1F
100
AcDbEntity
  8
0
100
AcDbLine
 10
421.4349174522054
 20
486.4371467347023
 30
0.0
 11
421.4349174522054
 21
539.6871467347023
 31
0.0
  0
LINE
  5
964
330
1F
100
AcDbEntity
  8
0
100
AcDbLine
 10
426.4349174522055
 20
537.6871467347022
 30
0.0
 11
428.4349174522055
 21
537.6871467347022
 31
0.0
  0
LINE
  5
965
330
1F
100
AcDbEntity
  8
0
100
AcDbLine
 10
426.4349174522055
 20
367.6871467347023
 30
0.0
 11
426.4349174522055
 21
420.9371467347024
 31
0.0
  0
LINE
  5
966
330
1F
100
AcDbEntity
  8
0
100
AcDbLine
 10
428.4349174522055
 20
367.6871467347023
 30
0.0
 11
428.4349174522055
 21
420.9371467347024
 31
0.0
  0
LINE
  5
967
330
1F
100
AcDbEntity
  8
0
100
AcDbLine
 10
426.4349174522055
 20
486.4371467347023
 30
0.0
 11
428.4349174522055
 21
486.4371467347023
 31
0.0
  0
LINE
  5
968
330
1F
100
AcDbEntity
  8
0
100
AcDbLine
 10
426.4349174522055
 20
420.9371467347024
 30
0.0
 11
428.4349174522055
 21
420.9371467347024
 31
0.0
  0
LINE
  5
969
330
1F
100
AcDbEntity
  8
0
100
AcDbLine
 10
426.4349174522055
 20
369.6871467347023
 30
0.0
 11
428.4349174522055
 21
369.6871467347023
 31
0.0
  0
LINE
  5
96A
330
1F
100
AcDbEntity
  8
0
100
AcDbLine
 10
426.4349174522055
 20
486.4371467347023
 30
0.0
 11
426.4349174522055
 21
539.6871467347023
 31
0.0
  0
LINE
  5
96B
330
1F
100
AcDbEntity
  8
0
100
AcDbLine
 10
428.4349174522055
 20
486.4371467347023
 30
0.0
 11
428.4349174522055
 21
539.6871467347023
 31
0.0
  0
LINE
  5
96C
330
1F
100
AcDbEntity
  8
0
100
AcDbLine
 10
433.4349174522055
 20
537.6871467347022
 30
0.0
 11
435.4349174522055
 21
537.6871467347022
 31
0.0
  0
LINE
  5
96D
330
1F
100
AcDbEntity
  8
0
100
AcDbLine
 10
433.4349174522055
 20
367.6871467347023
 30
0.0
 11
433.4349174522055
 21
420.9371467347024
 31
0.0
  0
LINE
  5
96E
330
1F
100
AcDbEntity
  8
0
100
AcDbLine
 10
435.4349174522055
 20
367.6871467347023
 30
0.0
 11
435.4349174522055
 21
420.9371467347024
 31
0.0
  0
LINE
  5
96F
330
1F
100
AcDbEntity
  8
0
100
AcDbLine
 10
433.4349174522055
 20
486.4371467347023
 30
0.0
 11
435.4349174522055
 21
486.4371467347023
 31
0.0
  0
LINE
  5
970
330
1F
100
AcDbEntity
  8
0
100
AcDbLine
 10
433.4349174522055
 20
420.9371467347024
 30
0.0
 11
435.4349174522055
 21
420.9371467347024
 31
0.0
  0
LINE
  5
971
330
1F
100
AcDbEntity
  8
0
100
AcDbLine
 10
433.4349174522055
 20
369.6871467347023
 30
0.0
 11
435.4349174522055
 21
369.6871467347023
 31
0.0
  0
LINE
  5
972
330
1F
100
AcDbEntity
  8
0
100
AcDbLine
 10
433.4349174522055
 20
486.4371467347023
 30
0.0
 11
433.4349174522055
 21
539.6871467347023
 31
0.0
  0
LINE
  5
973
330
1F
100
AcDbEntity
  8
0
100
AcDbLine
 10
435.4349174522055
 20
486.4371467347023
 30
0.0
 11
435.4349174522055
 21
539.6871467347023
 31
0.0
  0
LINE
  5
974
330
1F
100
AcDbEntity
  8
0
100
AcDbLine
 10
440.4349174522055
 20
537.6871467347022
 30
0.0
 11
442.4349174522054
 21
537.6871467347022
 31
0.0
  0
LINE
  5
975
330
1F
100
AcDbEntity
  8
0
100
AcDbLine
 10
440.4349174522055
 20
367.6871467347023
 30
0.0
 11
440.4349174522055
 21
420.9371467347024
 31
0.0
  0
LINE
  5
976
330
1F
100
AcDbEntity
  8
0
100
AcDbLine
 10
442.4349174522054
 20
367.6871467347023
 30
0.0
 11
442.4349174522054
 21
420.9371467347024
 31
0.0
  0
LINE
  5
977
330
1F
100
AcDbEntity
  8
0
100
AcDbLine
 10
440.4349174522055
 20
486.4371467347023
 30
0.0
 11
442.4349174522054
 21
486.4371467347023
 31
0.0
  0
LINE
  5
978
330
1F
100
AcDbEntity
  8
0
100
AcDbLine
 10
440.4349174522055
 20
420.9371467347024
 30
0.0
 11
442.4349174522054
 21
420.9371467347024
 31
0.0
  0
LINE
  5
979
330
1F
100
AcDbEntity
  8
0
100
AcDbLine
 10
440.4349174522055
 20
369.6871467347023
 30
0.0
 11
442.4349174522054
 21
369.6871467347023
 31
0.0
  0
LINE
  5
97A
330
1F
100
AcDbEntity
  8
0
100
AcDbLine
 10
440.4349174522055
 20
486.4371467347023
 30
0.0
 11
440.4349174522055
 21
539.6871467347023
 31
0.0
  0
LINE
  5
97B
330
1F
100
AcDbEntity
  8
0
100
AcDbLine
 10
442.4349174522054
 20
486.4371467347023
 30
0.0
 11
442.4349174522054
 21
539.6871467347023
 31
0.0
  0
LINE
  5
97C
330
1F
100
AcDbEntity
  8
0
100
AcDbLine
 10
370.4349174522055
 20
515.1871467347023
 30
0.0
 11
372.4349174522055
 21
515.1871467347023
 31
0.0
  0
LINE
  5
97D
330
1F
100
AcDbEntity
  8
0
100
AcDbLine
 10
370.4349174522055
 20
512.1871467347022
 30
0.0
 11
372.4349174522055
 21
512.1871467347022
 31
0.0
  0
LINE
  5
97E
330
1F
100
AcDbEntity
  8
0
100
AcDbLine
 10
370.4349174522055
 20
395.1871467347023
 30
0.0
 11
372.4349174522055
 21
395.1871467347023
 31
0.0
  0
LINE
  5
97F
330
1F
100
AcDbEntity
  8
0
100
AcDbLine
 10
370.4349174522055
 20
392.1871467347023
 30
0.0
 11
372.4349174522055
 21
392.1871467347023
 31
0.0
  0
LINE
  5
980
330
1F
100
AcDbEntity
  8
0
100
AcDbLine
 10
377.4349174522055
 20
515.1871467347023
 30
0.0
 11
379.4349174522055
 21
515.1871467347023
 31
0.0
  0
LINE
  5
981
330
1F
100
AcDbEntity
  8
0
100
AcDbLine
 10
377.4349174522055
 20
512.1871467347022
 30
0.0
 11
379.4349174522055
 21
512.1871467347022
 31
0.0
  0
LINE
  5
982
330
1F
100
AcDbEntity
  8
0
100
AcDbLine
 10
377.4349174522055
 20
395.1871467347023
 30
0.0
 11
379.4349174522055
 21
395.1871467347023
 31
0.0
  0
LINE
  5
983
330
1F
100
AcDbEntity
  8
0
100
AcDbLine
 10
377.4349174522055
 20
392.1871467347023
 30
0.0
 11
379.4349174522055
 21
392.1871467347023
 31
0.0
  0
LINE
  5
984
330
1F
100
AcDbEntity
  8
0
100
AcDbLine
 10
384.4349174522055
 20
515.1871467347023
 30
0.0
 11
386.4349174522055
 21
515.1871467347023
 31
0.0
  0
LINE
  5
985
330
1F
100
AcDbEntity
  8
0
100
AcDbLine
 10
384.4349174522055
 20
512.1871467347022
 30
0.0
 11
386.4349174522055
 21
512.1871467347022
 31
0.0
  0
LINE
  5
986
330
1F
100
AcDbEntity
  8
0
100
AcDbLine
 10
384.4349174522055
 20
395.1871467347023
 30
0.0
 11
386.4349174522055
 21
395.1871467347023
 31
0.0
  0
LINE
  5
987
330
1F
100
AcDbEntity
  8
0
100
AcDbLine
 10
384.4349174522055
 20
392.1871467347023
 30
0.0
 11
386.4349174522055
 21
392.1871467347023
 31
0.0
  0
LINE
  5
988
330
1F
100
AcDbEntity
  8
0
100
AcDbLine
 10
391.4349174522055
 20
515.1871467347023
 30
0.0
 11
393.4349174522055
 21
515.1871467347023
 31
0.0
  0
LINE
  5
989
330
1F
100
AcDbEntity
  8
0
100
AcDbLine
 10
391.4349174522055
 20
512.1871467347022
 30
0.0
 11
393.4349174522055
 21
512.1871467347022
 31
0.0
  0
LINE
  5
98A
330
1F
100
AcDbEntity
  8
0
100
AcDbLine
 10
391.4349174522055
 20
395.1871467347023
 30
0.0
 11
393.4349174522055
 21
395.1871467347023
 31
0.0
  0
LINE
  5
98B
330
1F
100
AcDbEntity
  8
0
100
AcDbLine
 10
391.4349174522055
 20
392.1871467347023
 30
0.0
 11
393.4349174522055
 21
392.1871467347023
 31
0.0
  0
LINE
  5
98C
330
1F
100
AcDbEntity
  8
0
100
AcDbLine
 10
398.4349174522055
 20
515.1871467347023
 30
0.0
 11
400.4349174522054
 21
515.1871467347023
 31
0.0
  0
LINE
  5
98D
330
1F
100
AcDbEntity
  8
0
100
AcDbLine
 10
398.4349174522055
 20
512.1871467347022
 30
0.0
 11
400.4349174522054
 21
512.1871467347022
 31
0.0
  0
LINE
  5
98E
330
1F
100
AcDbEntity
  8
0
100
AcDbLine
 10
398.4349174522055
 20
395.1871467347023
 30
0.0
 11
400.4349174522054
 21
395.1871467347023
 31
0.0
  0
LINE
  5
98F
330
1F
100
AcDbEntity
  8
0
100
AcDbLine
 10
398.4349174522055
 20
392.1871467347023
 30
0.0
 11
400.4349174522054
 21
392.1871467347023
 31
0.0
  0
LINE
  5
990
330
1F
100
AcDbEntity
  8
0
100
AcDbLine
 10
405.4349174522055
 20
515.1871467347023
 30
0.0
 11
407.4349174522055
 21
515.1871467347023
 31
0.0
  0
LINE
  5
991
330
1F
100
AcDbEntity
  8
0
100
AcDbLine
 10
405.4349174522055
 20
512.1871467347022
 30
0.0
 11
407.4349174522055
 21
512.1871467347022
 31
0.0
  0
LINE
  5
992
330
1F
100
AcDbEntity
  8
0
100
AcDbLine
 10
405.4349174522055
 20
395.1871467347023
 30
0.0
 11
407.4349174522055
 21
395.1871467347023
 31
0.0
  0
LINE
  5
993
330
1F
100
AcDbEntity
  8
0
100
AcDbLine
 10
405.4349174522055
 20
392.1871467347023
 30
0.0
 11
407.4349174522055
 21
392.1871467347023
 31
0.0
  0
LINE
  5
994
330
1F
100
AcDbEntity
  8
0
100
AcDbLine
 10
412.4349174522055
 20
515.1871467347023
 30
0.0
 11
414.4349174522055
 21
515.1871467347023
 31
0.0
  0
LINE
  5
995
330
1F
100
AcDbEntity
  8
0
100
AcDbLine
 10
412.4349174522055
 20
512.1871467347022
 30
0.0
 11
414.4349174522055
 21
512.1871467347022
 31
0.0
  0
LINE
  5
996
330
1F
100
AcDbEntity
  8
0
100
AcDbLine
 10
412.4349174522055
 20
395.1871467347023
 30
0.0
 11
414.4349174522055
 21
395.1871467347023
 31
0.0
  0
LINE
  5
997
330
1F
100
AcDbEntity
  8
0
100
AcDbLine
 10
412.4349174522055
 20
392.1871467347023
 30
0.0
 11
414.4349174522055
 21
392.1871467347023
 31
0.0
  0
LINE
  5
998
330
1F
100
AcDbEntity
  8
0
100
AcDbLine
 10
419.4349174522055
 20
515.1871467347023
 30
0.0
 11
421.4349174522054
 21
515.1871467347023
 31
0.0
  0
LINE
  5
999
330
1F
100
AcDbEntity
  8
0
100
AcDbLine
 10
419.4349174522055
 20
512.1871467347022
 30
0.0
 11
421.4349174522054
 21
512.1871467347022
 31
0.0
  0
LINE
  5
99A
330
1F
100
AcDbEntity
  8
0
100
AcDbLine
 10
419.4349174522055
 20
395.1871467347023
 30
0.0
 11
421.4349174522054
 21
395.1871467347023
 31
0.0
  0
LINE
  5
99B
330
1F
100
AcDbEntity
  8
0
100
AcDbLine
 10
419.4349174522055
 20
392.1871467347023
 30
0.0
 11
421.4349174522054
 21
392.1871467347023
 31
0.0
  0
LINE
  5
99C
330
1F
100
AcDbEntity
  8
0
100
AcDbLine
 10
426.4349174522055
 20
515.1871467347023
 30
0.0
 11
428.4349174522055
 21
515.1871467347023
 31
0.0
  0
LINE
  5
99D
330
1F
100
AcDbEntity
  8
0
100
AcDbLine
 10
426.4349174522055
 20
512.1871467347022
 30
0.0
 11
428.4349174522055
 21
512.1871467347022
 31
0.0
  0
LINE
  5
99E
330
1F
100
AcDbEntity
  8
0
100
AcDbLine
 10
426.4349174522055
 20
395.1871467347023
 30
0.0
 11
428.4349174522055
 21
395.1871467347023
 31
0.0
  0
LINE
  5
99F
330
1F
100
AcDbEntity
  8
0
100
AcDbLine
 10
426.4349174522055
 20
392.1871467347023
 30
0.0
 11
428.4349174522055
 21
392.1871467347023
 31
0.0
  0
LINE
  5
9A0
330
1F
100
AcDbEntity
  8
0
100
AcDbLine
 10
433.4349174522055
 20
515.1871467347023
 30
0.0
 11
435.4349174522055
 21
515.1871467347023
 31
0.0
  0
LINE
  5
9A1
330
1F
100
AcDbEntity
  8
0
100
AcDbLine
 10
433.4349174522055
 20
512.1871467347022
 30
0.0
 11
435.4349174522055
 21
512.1871467347022
 31
0.0
  0
LINE
  5
9A2
330
1F
100
AcDbEntity
  8
0
100
AcDbLine
 10
433.4349174522055
 20
395.1871467347023
 30
0.0
 11
435.4349174522055
 21
395.1871467347023
 31
0.0
  0
LINE
  5
9A3
330
1F
100
AcDbEntity
  8
0
100
AcDbLine
 10
433.4349174522055
 20
392.1871467347023
 30
0.0
 11
435.4349174522055
 21
392.1871467347023
 31
0.0
  0
LINE
  5
9A4
330
1F
100
AcDbEntity
  8
0
100
AcDbLine
 10
440.4349174522055
 20
515.1871467347023
 30
0.0
 11
442.4349174522054
 21
515.1871467347023
 31
0.0
  0
LINE
  5
9A5
330
1F
100
AcDbEntity
  8
0
100
AcDbLine
 10
440.4349174522055
 20
512.1871467347022
 30
0.0
 11
442.4349174522054
 21
512.1871467347022
 31
0.0
  0
LINE
  5
9A6
330
1F
100
AcDbEntity
  8
0
100
AcDbLine
 10
440.4349174522055
 20
395.1871467347023
 30
0.0
 11
442.4349174522054
 21
395.1871467347023
 31
0.0
  0
LINE
  5
9A7
330
1F
100
AcDbEntity
  8
0
100
AcDbLine
 10
440.4349174522055
 20
392.1871467347023
 30
0.0
 11
442.4349174522054
 21
392.1871467347023
 31
0.0
  0
LINE
  5
9A8
330
1F
100
AcDbEntity
  8
0
100
AcDbLine
 10
420.4349174522055
 20
367.6871467347023
 30
0.0
 11
420.4349174522045
 21
367.1871467347023
 31
0.0
  0
LINE
  5
9A9
330
1F
100
AcDbEntity
  8
0
100
AcDbLine
 10
365.4349174522055
 20
367.1871467347023
 30
0.0
 11
420.4349174522055
 21
367.1871467347023
 31
0.0
  0
LINE
  5
9AA
330
1F
100
AcDbEntity
  8
0
100
AcDbLine
 10
465.8227712953724
 20
366.6871467347023
 30
0.0
 11
465.8227712953734
 21
540.6871467347023
 31
0.0
  0
LINE
  5
9AB
330
1F
100
AcDbEntity
  8
0
100
AcDbLine
 10
345.0349174522056
 20
407.3871474683927
 30
0.0
 11
345.0349174522056
 21
387.1871474683926
 31
0.0
  0
LINE
  5
9AC
330
1F
100
AcDbEntity
  8
0
100
AcDbLine
 10
345.9349174522055
 20
383.6871474683926
 30
0.0
 11
345.4349174522055
 21
384.1871474683926
 31
0.0
  0
LINE
  5
9AD
330
1F
100
AcDbEntity
  8
0
100
AcDbLine
 10
345.4349174522056
 20
385.0871474683927
 30
0.0
 11
345.4349174522055
 21
384.1871474683926
 31
0.0
  0
LINE
  5
9AE
330
1F
100
AcDbEntity
  8
0
100
AcDbLine
 10
346.7349174522057
 20
383.6871474683926
 30
0.0
 11
345.9349174522055
 21
383.6871474683926
 31
0.0
  0
ARC
  5
9AF
330
1F
100
AcDbEntity
  8
0
100
AcDbCircle
 10
346.4349174522056
 20
385.0871474683926
 30
0.0
 40
1.0
100
AcDbArc
 50
90.0
 51
180.0
  0
LINE
  5
9B0
330
1F
100
AcDbEntity
  8
0
100
AcDbLine
 10
348.4349174522055
 20
386.0871474683926
 30
0.0
 11
346.4349174522056
 21
386.0871474683926
 31
0.0
  0
LINE
  5
9B1
330
1F
100
AcDbEntity
  8
0
100
AcDbLine
 10
348.4349174522055
 20
384.8871474683927
 30
0.0
 11
346.7349174522058
 21
384.8871474683927
 31
0.0
  0
LINE
  5
9B2
330
1F
100
AcDbEntity
  8
0
100
AcDbLine
 10
348.4349174522055
 20
387.1871474683926
 30
0.0
 11
345.0349174522056
 21
387.1871474683926
 31
0.0
  0
LINE
  5
9B3
330
1F
100
AcDbEntity
  8
0
100
AcDbLine
 10
346.7349174522057
 20
383.6871474683926
 30
0.0
 11
346.7349174522057
 21
384.8871474683927
 31
0.0
  0
LINE
  5
9B4
330
1F
100
AcDbEntity
  8
0
100
AcDbLine
 10
345.9349174522057
 20
410.8871474683927
 30
0.0
 11
345.4349174522057
 21
410.3871474683926
 31
0.0
  0
LINE
  5
9B5
330
1F
100
AcDbEntity
  8
0
100
AcDbLine
 10
345.4349174522057
 20
410.3871474683926
 30
0.0
 11
345.4349174522057
 21
409.4871474683926
 31
0.0
  0
LINE
  5
9B6
330
1F
100
AcDbEntity
  8
0
100
AcDbLine
 10
346.7349174522057
 20
410.8871474683927
 30
0.0
 11
345.9349174522057
 21
410.8871474683927
 31
0.0
  0
ARC
  5
9B7
330
1F
100
AcDbEntity
  8
0
100
AcDbCircle
 10
346.4349174522057
 20
409.4871474683927
 30
0.0
 40
1.0
100
AcDbArc
 50
180.0
 51
270.0
  0
LINE
  5
9B8
330
1F
100
AcDbEntity
  8
0
100
AcDbLine
 10
348.4349174522055
 20
408.4871474683927
 30
0.0
 11
346.4349174522057
 21
408.4871474683927
 31
0.0
  0
LINE
  5
9B9
330
1F
100
AcDbEntity
  8
0
100
AcDbLine
 10
345.0349174522056
 20
407.3871474683927
 30
0.0
 11
348.4349174522055
 21
407.3871474683927
 31
0.0
  0
LINE
  5
9BA
330
1F
100
AcDbEntity
  8
0
100
AcDbLine
 10
348.4349174522055
 20
409.6871474683927
 30
0.0
 11
346.7349174522055
 21
409.6871474683927
 31
0.0
  0
LINE
  5
9BB
330
1F
100
AcDbEntity
  8
0
100
AcDbLine
 10
346.7349174522057
 20
409.6871474683926
 30
0.0
 11
346.7349174522057
 21
410.8871474683927
 31
0.0
  0
LINE
  5
9BC
330
1F
100
AcDbEntity
  8
0
100
AcDbLine
 10
348.4349174522055
 20
371.6871474683926
 30
0.0
 11
345.9349174522054
 21
371.6871474683926
 31
0.0
  0
LINE
  5
9BD
330
1F
100
AcDbEntity
  8
0
100
AcDbLine
 10
345.9349174522054
 20
371.6871474683926
 30
0.0
 11
345.9349174522054
 21
377.1871474683926
 31
0.0
  0
LINE
  5
9BE
330
1F
100
AcDbEntity
  8
0
100
AcDbLine
 10
345.9349174522054
 20
377.1871474683926
 30
0.0
 11
348.4349174522055
 21
377.1871474683926
 31
0.0
  0
LINE
  5
9BF
330
1F
100
AcDbEntity
  8
0
100
AcDbLine
 10
348.4349174522055
 20
412.3271467347024
 30
0.0
 11
347.4349174522055
 21
412.3271467347024
 31
0.0
  0
LINE
  5
9C0
330
1F
100
AcDbEntity
  8
0
100
AcDbLine
 10
347.4349174522055
 20
412.3271467347024
 30
0.0
 11
347.4349174522055
 21
409.6871474683927
 31
0.0
  0
LINE
  5
9C1
330
1F
100
AcDbEntity
  8
0
100
AcDbLine
 10
341.8349174522055
 20
462.6871467347022
 30
0.0
 11
348.4349174522055
 21
462.6871467347022
 31
0.0
  0
LINE
  5
9C2
330
1F
100
AcDbEntity
  8
0
100
AcDbLine
 10
348.4349174522055
 20
486.8471467347023
 30
0.0
 11
341.8349174522055
 21
486.8471467347023
 31
0.0
  0
LINE
  5
9C3
330
1F
100
AcDbEntity
  8
0
100
AcDbLine
 10
341.8349174522055
 20
486.8471467347023
 30
0.0
 11
341.8349174522055
 21
462.6871467347022
 31
0.0
  0
LINE
  5
9C4
330
1F
100
AcDbEntity
  8
0
100
AcDbLine
 10
343.1349174522055
 20
421.5271467347023
 30
0.0
 11
343.1349174522055
 21
449.9871467347024
 31
0.0
  0
LINE
  5
9C5
330
1F
100
AcDbEntity
  8
0
100
AcDbLine
 10
343.1349174522055
 20
425.6371467347023
 30
0.0
 11
347.4349174522054
 21
425.6371467347023
 31
0.0
  0
LINE
  5
9C6
330
1F
100
AcDbEntity
  8
0
100
AcDbLine
 10
347.4349174522055
 20
421.5271467347023
 30
0.0
 11
343.1349174522055
 21
421.5271467347023
 31
0.0
  0
LINE
  5
9C7
330
1F
100
AcDbEntity
  8
0
100
AcDbLine
 10
343.1349174522055
 20
445.8771467347024
 30
0.0
 11
348.4349174522055
 21
445.8771467347024
 31
0.0
  0
LINE
  5
9C8
330
1F
100
AcDbEntity
  8
0
100
AcDbLine
 10
343.1349174522055
 20
440.8771467347024
 30
0.0
 11
348.4349174522055
 21
440.8771467347024
 31
0.0
  0
LINE
  5
9C9
330
1F
100
AcDbEntity
  8
0
100
AcDbLine
 10
343.1349174522055
 20
433.2571467347023
 30
0.0
 11
348.4349174522055
 21
433.2571467347023
 31
0.0
  0
LINE
  5
9CA
330
1F
100
AcDbEntity
  8
0
100
AcDbLine
 10
343.1349174522055
 20
438.2571467347024
 30
0.0
 11
348.4349174522055
 21
438.2571467347024
 31
0.0
  0
LINE
  5
9CB
330
1F
100
AcDbEntity
  8
0
100
AcDbLine
 10
343.1349174522055
 20
430.6371467347024
 30
0.0
 11
347.6349174522058
 21
430.6371467347024
 31
0.0
  0
LINE
  5
9CC
330
1F
100
AcDbEntity
  8
0
100
AcDbLine
 10
347.6349174522058
 20
449.9871467347024
 30
0.0
 11
343.1349174522055
 21
449.9871467347024
 31
0.0
  0
LINE
  5
9CD
330
1F
100
AcDbEntity
  8
0
100
AcDbLine
 10
391.4349174522055
 20
537.6871467347022
 30
0.0
 11
393.4349174522055
 21
537.6871467347022
 31
0.0
  0
LINE
  5
9CE
330
1F
100
AcDbEntity
  8
0
100
AcDbLine
 10
464.4349174522045
 20
540.6871467347023
 30
0.0
 11
464.4349174522045
 21
550.6871467347023
 31
0.0
  0
LINE
  5
9CF
330
1F
100
AcDbEntity
  8
0
100
AcDbLine
 10
348.4349174522055
 20
366.6871467347023
 30
0.0
 11
465.8227712953734
 21
366.6871467347023
 31
0.0
  0
LINE
  5
9D7
330
1F
100
AcDbEntity
  8
0
100
AcDbLine
 10
347.4349174522055
 20
408.4871474683927
 30
0.0
 11
347.4349174522055
 21
407.3871474683927
 31
0.0
  0
LINE
  5
9D8
330
1F
100
AcDbEntity
  8
0
100
AcDbLine
 10
347.4349174522055
 20
387.1871474683926
 30
0.0
 11
347.4349174522055
 21
386.0871474683926
 31
0.0
  0
LINE
  5
9D9
330
1F
100
AcDbEntity
  8
0
100
AcDbLine
 10
347.4349174522055
 20
384.8871474683927
 30
0.0
 11
347.4349174522055
 21
377.1871474683926
 31
0.0
  0
LINE
  5
9DA
330
1F
100
AcDbEntity
  8
0
100
AcDbLine
 10
348.4349174522055
 20
508.1271467347024
 30
0.0
 11
347.4305555113545
 21
508.1271467347024
 31
0.0
  0
LINE
  5
9DB
330
1F
100
AcDbEntity
  8
0
100
AcDbLine
 10
348.4349174522055
 20
418.8871474683926
 30
0.0
 11
347.4349174522055
 21
418.8871474683926
 31
0.0
  0
LINE
  5
9DC
330
1F
100
AcDbEntity
  8
0
100
AcDbLine
 10
347.4349174522055
 20
418.8871474683926
 30
0.0
 11
347.4349174522054
 21
427.2871474683928
 31
0.0
  0
LINE
  5
9DD
330
1F
100
AcDbEntity
  8
0
100
AcDbLine
 10
347.4349174522054
 20
427.2871474683928
 30
0.0
 11
348.4349174522055
 21
427.2871474683928
 31
0.0
  0
LINE
  5
9DE
330
1F
100
AcDbEntity
  8
0
100
AcDbLine
 10
348.4349174522055
 20
428.7871474683927
 30
0.0
 11
347.6349174522058
 21
428.7871474683927
 31
0.0
  0
LINE
  5
9DF
330
1F
100
AcDbEntity
  8
0
100
AcDbLine
 10
347.6349174522058
 20
428.7871474683927
 30
0.0
 11
347.6349174522058
 21
431.7871474683927
 31
0.0
  0
LINE
  5
9E0
330
1F
100
AcDbEntity
  8
0
100
AcDbLine
 10
347.6349174522058
 20
431.7871474683927
 30
0.0
 11
348.4349174522055
 21
431.7871474683927
 31
0.0
  0
LINE
  5
9E1
330
1F
100
AcDbEntity
  8
0
100
AcDbLine
 10
348.4349174522055
 20
448.7871474683926
 30
0.0
 11
347.6349174522058
 21
448.7871474683926
 31
0.0
  0
LINE
  5
9E2
330
1F
100
AcDbEntity
  8
0
100
AcDbLine
 10
347.6349174522058
 20
448.7871474683926
 30
0.0
 11
347.6349174522058
 21
451.7871474683927
 31
0.0
  0
LINE
  5
9E3
330
1F
100
AcDbEntity
  8
0
100
AcDbLine
 10
347.6349174522058
 20
451.7871474683927
 30
0.0
 11
348.4349174522055
 21
451.7871474683927
 31
0.0
  0
LINE
  5
9E4
330
1F
100
AcDbEntity
  8
0
  6
Continuous
100
AcDbLine
 10
347.4305555113545
 20
508.1271467347024
 30
0.0
 11
347.4305555113545
 21
492.7271467347024
 31
0.0
  0
LINE
  5
9E5
330
1F
100
AcDbEntity
  8
0
  6
Continuous
100
AcDbLine
 10
347.4305555113545
 20
492.7271467347024
 30
0.0
 11
348.4349174522055
 21
492.7271467347024
 31
0.0
  0
LINE
  5
1028
330
1F
100
AcDbEntity
  8
2_カバ_
  6
Continuous
100
AcDbLine
 10
244.9349174522053
 20
280.2229377451558
 30
0.0
 11
244.9349174522053
 21
254.2229377451567
 31
0.0
  0
CIRCLE
  5
1029
330
1F
100
AcDbEntity
  8
2_カバ_
  6
Continuous
100
AcDbCircle
 10
225.9349174522052
 20
265.2229377451567
 30
0.0
 40
1.25
  0
LINE
  5
102A
330
1F
100
AcDbEntity
  8
2_カバ_
  6
DASHDOT
100
AcDbLine
 10
225.9349174522052
 20
268.3523383215448
 30
0.0
 11
225.9349174522052
 21
262.2674969878247
 31
0.0
  0
LINE
  5
102B
330
1F
100
AcDbEntity
  8
2_カバ_
  6
Continuous
100
AcDbLine
 10
223.9349174522053
 20
254.2229377451558
 30
0.0
 11
223.9349174522053
 21
280.2229377451558
 31
0.0
  0
LINE
  5
102C
330
1F
100
AcDbEntity
  8
0
100
AcDbLine
 10
247.4349174522053
 20
205.2229377451558
 30
0.0
 11
247.4349174522053
 21
287.2229377451557
 31
0.0
  0
LINE
  5
102D
330
1F
100
AcDbEntity
  8
0
100
AcDbLine
 10
193.4349174522053
 20
265.5687904259317
 30
0.0
 11
193.4349174522053
 21
261.9294569075158
 31
0.0
  0
LINE
  5
102E
330
1F
100
AcDbEntity
  8
0
100
AcDbLine
 10
194.1349174522053
 20
266.2491236667248
 30
0.0
 11
194.1349174522053
 21
254.3491236667238
 31
0.0
  0
LINE
  5
102F
330
1F
100
AcDbEntity
  8
0
100
AcDbLine
 10
195.4349174522053
 20
254.2491236667237
 30
0.0
 11
195.4349174522053
 21
266.2491236667248
 31
0.0
  0
LINE
  5
1030
330
1F
100
AcDbEntity
  8
0
100
AcDbLine
 10
194.9349174522053
 20
266.2491236667248
 30
0.0
 11
194.9349174522053
 21
254.2491236667248
 31
0.0
  0
LINE
  5
1031
330
1F
100
AcDbEntity
  8
0
100
AcDbLine
 10
206.4349174522053
 20
287.2229377451557
 30
0.0
 11
206.4349174522053
 21
205.2229377451558
 31
0.0
  0
LINE
  5
1032
330
1F
100
AcDbEntity
  8
0
100
AcDbLine
 10
248.4349174522053
 20
186.8350839019877
 30
0.0
 11
248.4349174522053
 21
304.2229377451556
 31
0.0
  0
LINE
  5
1033
330
1F
100
AcDbEntity
  8
0
100
AcDbLine
 10
200.1349174522042
 20
264.7229377451558
 30
0.0
 11
198.4349174522043
 21
264.7229377451558
 31
0.0
  0
LINE
  5
1034
330
1F
100
AcDbEntity
  8
0
100
AcDbLine
 10
199.9349174522053
 20
264.2491236667248
 30
0.0
 11
198.4349174522043
 21
264.2491236667248
 31
0.0
  0
LINE
  5
1035
330
1F
100
AcDbEntity
  8
0
100
AcDbLine
 10
200.1349174522042
 20
255.7229377451558
 30
0.0
 11
198.4349174522043
 21
255.7229377451558
 31
0.0
  0
LINE
  5
1036
330
1F
100
AcDbEntity
  8
0
100
AcDbLine
 10
199.9349174522053
 20
256.2491236667248
 30
0.0
 11
198.4349174522043
 21
256.2491236667248
 31
0.0
  0
LINE
  5
1037
330
1F
100
AcDbEntity
  8
0
100
AcDbLine
 10
199.9349174522053
 20
214.2491236667248
 30
0.0
 11
198.4349174522043
 21
214.2491236667248
 31
0.0
  0
LINE
  5
1038
330
1F
100
AcDbEntity
  8
0
100
AcDbLine
 10
200.1349174522042
 20
214.7229377451558
 30
0.0
 11
198.4349174522043
 21
214.7229377451558
 31
0.0
  0
LINE
  5
1039
330
1F
100
AcDbEntity
  8
0
100
AcDbLine
 10
199.9349174522053
 20
206.2491236667248
 30
0.0
 11
198.4349174522043
 21
206.2491236667248
 31
0.0
  0
LINE
  5
103A
330
1F
100
AcDbEntity
  8
0
100
AcDbLine
 10
200.1349174522042
 20
205.7229377451558
 30
0.0
 11
198.4349174522043
 21
205.7229377451558
 31
0.0
  0
LINE
  5
103B
330
1F
100
AcDbEntity
  8
0
100
AcDbLine
 10
248.4349174522053
 20
186.8350839019877
 30
0.0
 11
195.4349174522053
 21
188.2229377451558
 31
0.0
  0
LINE
  5
103C
330
1F
100
AcDbEntity
  8
0
100
AcDbLine
 10
194.4349174522053
 20
188.2491236667248
 30
0.0
 11
248.4349174522053
 21
186.8350839019877
 31
0.0
  0
LINE
  5
103D
330
1F
100
AcDbEntity
  8
0
100
AcDbLine
 10
190.4349174522053
 20
183.2491236667248
 30
0.0
 11
248.4349174522053
 21
183.2491236667248
 31
0.0
  0
LINE
  5
103E
330
1F
100
AcDbEntity
  8
0
100
AcDbLine
 10
196.4349174522053
 20
188.1705659020178
 30
0.0
 11
196.4349174522053
 21
204.2229377451557
 31
0.0
  0
LINE
  5
103F
330
1F
100
AcDbEntity
  8
0
100
AcDbLine
 10
195.4349174522053
 20
204.2491236667248
 30
0.0
 11
195.4349174522053
 21
188.2229377451548
 31
0.0
  0
LINE
  5
1040
330
1F
100
AcDbEntity
  8
0
100
AcDbLine
 10
190.4349174522053
 20
204.6687904259317
 30
0.0
 11
190.4349174522053
 21
183.2491236667248
 31
0.0
  0
LINE
  5
1041
330
1F
100
AcDbEntity
  8
0
100
AcDbLine
 10
194.4349174522053
 20
188.2491236667248
 30
0.0
 11
190.4349174522053
 21
188.1443799804478
 31
0.0
  0
ARC
  5
1042
330
1F
100
AcDbEntity
  8
0
100
AcDbCircle
 10
192.8349174522053
 20
230.5687904259317
 30
0.0
 40
0.6
100
AcDbArc
 50
0.0
 51
88.09084756700265
  0
LINE
  5
1043
330
1F
100
AcDbEntity
  8
0
100
AcDbLine
 10
196.4349174522053
 20
216.2229377451568
 30
0.0
 11
196.4349174522053
 21
254.2229377451558
 31
0.0
  0
LINE
  5
1044
330
1F
100
AcDbEntity
  8
0
100
AcDbLine
 10
195.4349174522053
 20
254.2491236667248
 30
0.0
 11
195.4349174522053
 21
216.2491236667247
 31
0.0
  0
LINE
  5
1045
330
1F
100
AcDbEntity
  8
0
100
AcDbLine
 10
193.4349174522053
 20
216.5687904259318
 30
0.0
 11
193.4349174522053
 21
212.9294569075158
 31
0.0
  0
LINE
  5
1046
330
1F
100
AcDbEntity
  8
0
100
AcDbLine
 10
194.1349174522053
 20
216.2491236667247
 30
0.0
 11
194.1349174522053
 21
204.3491236667237
 31
0.0
  0
LINE
  5
1047
330
1F
100
AcDbEntity
  8
0
100
AcDbLine
 10
198.4349174522043
 20
214.7229377451558
 30
0.0
 11
198.4349174522043
 21
205.7229377451558
 31
0.0
  0
LINE
  5
1048
330
1F
100
AcDbEntity
  8
0
100
AcDbLine
 10
195.4349174522053
 20
216.2491236667247
 30
0.0
 11
195.4349174522053
 21
204.2491236667237
 31
0.0
  0
LINE
  5
1049
330
1F
100
AcDbEntity
  8
0
100
AcDbLine
 10
194.9349174522053
 20
216.2491236667247
 30
0.0
 11
194.9349174522053
 21
204.2491236667248
 31
0.0
  0
LINE
  5
104A
330
1F
100
AcDbEntity
  8
0
100
AcDbLine
 10
199.1349174522053
 20
214.2491236667248
 30
0.0
 11
199.1349174522053
 21
206.2491236667248
 31
0.0
  0
LINE
  5
104B
330
1F
100
AcDbEntity
  8
0
100
AcDbLine
 10
198.5349174522053
 20
214.2491236667248
 30
0.0
 11
198.5349174522053
 21
206.2491236667248
 31
0.0
  0
ARC
  5
104C
330
1F
100
AcDbEntity
  8
0
100
AcDbCircle
 10
191.0349174522043
 20
210.8294569075168
 30
0.0
 40
0.6
100
AcDbArc
 50
180.0
 51
268.0908475670026
  0
ARC
  5
104D
330
1F
100
AcDbEntity
  8
0
100
AcDbCircle
 10
191.0349174522052
 20
211.6687904259317
 30
0.0
 40
0.6
100
AcDbArc
 50
91.90915243299411
 51
180.0
  0
ARC
  5
104E
330
1F
100
AcDbEntity
  8
0
100
AcDbCircle
 10
191.0349174522052
 20
204.6687904259317
 30
0.0
 40
0.6
100
AcDbArc
 50
91.90915243299411
 51
180.0
  0
POINT
  5
104F
330
1F
100
AcDbEntity
  8
0
100
AcDbPoint
 10
190.4349174522053
 20
205.2491236667237
 30
0.0
  0
POINT
  5
1050
330
1F
100
AcDbEntity
  8
0
100
AcDbPoint
 10
190.4349174522053
 20
210.2491236667237
 30
0.0
  0
LINE
  5
1051
330
1F
100
AcDbEntity
  8
0
100
AcDbLine
 10
190.4349174522053
 20
211.6687904259317
 30
0.0
 11
190.4349174522053
 21
210.8294569075168
 31
0.0
  0
ARC
  5
1052
330
1F
100
AcDbEntity
  8
0
100
AcDbCircle
 10
192.9349174522053
 20
205.8327347007177
 30
0.0
 40
0.5
100
AcDbArc
 50
271.909152432994
 51
0.0
  0
LINE
  5
1053
330
1F
100
AcDbEntity
  8
0
100
AcDbLine
 10
195.4349174522053
 20
204.2491236667248
 30
0.0
 11
194.1349174522053
 21
204.2491236667248
 31
0.0
  0
LINE
  5
1054
330
1F
100
AcDbEntity
  8
0
100
AcDbLine
 10
192.9515748673213
 20
205.3330122472277
 30
0.0
 11
191.0149285540653
 21
205.2684573701197
 31
0.0
  0
LINE
  5
1055
330
1F
100
AcDbEntity
  8
0
100
AcDbLine
 10
196.4349174522053
 20
204.2229377451557
 30
0.0
 11
195.4349174522053
 21
204.2229377451557
 31
0.0
  0
ARC
  5
1056
330
1F
100
AcDbEntity
  8
0
100
AcDbCircle
 10
192.8349174522053
 20
212.9294569075158
 30
0.0
 40
0.6
100
AcDbArc
 50
271.9091524329973
 51
0.0
  0
LINE
  5
1057
330
1F
100
AcDbEntity
  8
0
100
AcDbLine
 10
191.0149285540653
 20
210.2297899633287
 30
0.0
 11
192.8549063503442
 21
210.1684573701197
 31
0.0
  0
LINE
  5
1058
330
1F
100
AcDbEntity
  8
0
100
AcDbLine
 10
192.8549063503442
 20
212.3297899633288
 30
0.0
 11
191.0149285540653
 21
212.2684573701198
 31
0.0
  0
LINE
  5
1059
330
1F
100
AcDbEntity
  8
0
100
AcDbLine
 10
193.4349174522053
 20
209.5687904259317
 30
0.0
 11
193.4349174522053
 21
205.8327347007177
 31
0.0
  0
ARC
  5
105A
330
1F
100
AcDbEntity
  8
0
100
AcDbCircle
 10
192.8349174522053
 20
209.5687904259317
 30
0.0
 40
0.6
100
AcDbArc
 50
0.0
 51
88.09084756700265
  0
ARC
  5
105B
330
1F
100
AcDbEntity
  8
0
100
AcDbCircle
 10
191.0349174522043
 20
224.8294569075168
 30
0.0
 40
0.6
100
AcDbArc
 50
180.0
 51
268.0908475670026
  0
ARC
  5
105C
330
1F
100
AcDbEntity
  8
0
100
AcDbCircle
 10
191.0349174522043
 20
225.6687904259317
 30
0.0
 40
0.6
100
AcDbArc
 50
91.90915243299411
 51
180.0
  0
ARC
  5
105D
330
1F
100
AcDbEntity
  8
0
100
AcDbCircle
 10
191.0349174522043
 20
218.6687904259318
 30
0.0
 40
0.6
100
AcDbArc
 50
91.90915243299411
 51
180.0
  0
ARC
  5
105E
330
1F
100
AcDbEntity
  8
0
100
AcDbCircle
 10
191.0349174522052
 20
217.8294569075168
 30
0.0
 40
0.6
100
AcDbArc
 50
180.0
 51
268.0908475670026
  0
POINT
  5
105F
330
1F
100
AcDbEntity
  8
0
100
AcDbPoint
 10
190.4349174522053
 20
217.2491236667247
 30
0.0
  0
LINE
  5
1060
330
1F
100
AcDbEntity
  8
0
100
AcDbLine
 10
190.4349174522053
 20
218.6687904259318
 30
0.0
 11
190.4349174522053
 21
217.8294569075168
 31
0.0
  0
LINE
  5
1061
330
1F
100
AcDbEntity
  8
0
100
AcDbLine
 10
190.4349174522053
 20
225.6687904259317
 30
0.0
 11
190.4349174522053
 21
224.8294569075168
 31
0.0
  0
POINT
  5
1062
330
1F
100
AcDbEntity
  8
0
100
AcDbPoint
 10
190.4349174522053
 20
224.2491236667238
 30
0.0
  0
LINE
  5
1063
330
1F
100
AcDbEntity
  8
0
100
AcDbLine
 10
193.4349174522053
 20
223.5687904259318
 30
0.0
 11
193.4349174522053
 21
219.9294569075158
 31
0.0
  0
LINE
  5
1064
330
1F
100
AcDbEntity
  8
0
100
AcDbLine
 10
195.4349174522053
 20
216.2491236667247
 30
0.0
 11
194.1349174522053
 21
216.2491236667247
 31
0.0
  0
ARC
  5
1065
330
1F
100
AcDbEntity
  8
0
100
AcDbCircle
 10
192.8349174522053
 20
219.9294569075158
 30
0.0
 40
0.6
100
AcDbArc
 50
271.9091524329973
 51
0.0
  0
ARC
  5
1066
330
1F
100
AcDbEntity
  8
0
100
AcDbCircle
 10
192.8349174522053
 20
216.5687904259318
 30
0.0
 40
0.6
100
AcDbArc
 50
0.0
 51
88.09084756700265
  0
LINE
  5
1067
330
1F
100
AcDbEntity
  8
0
100
AcDbLine
 10
191.0149285540653
 20
217.2297899633287
 30
0.0
 11
192.8549063503442
 21
217.1684573701198
 31
0.0
  0
LINE
  5
1068
330
1F
100
AcDbEntity
  8
0
100
AcDbLine
 10
192.8549063503442
 20
219.3297899633288
 30
0.0
 11
191.0149285540653
 21
219.2684573701197
 31
0.0
  0
LINE
  5
1069
330
1F
100
AcDbEntity
  8
0
100
AcDbLine
 10
196.4349174522053
 20
216.2229377451568
 30
0.0
 11
195.4349174522053
 21
216.2229377451568
 31
0.0
  0
LINE
  5
106A
330
1F
100
AcDbEntity
  8
0
100
AcDbLine
 10
193.4349174522053
 20
230.5687904259317
 30
0.0
 11
193.4349174522053
 21
226.9294569075158
 31
0.0
  0
ARC
  5
106B
330
1F
100
AcDbEntity
  8
0
100
AcDbCircle
 10
192.8349174522053
 20
223.5687904259318
 30
0.0
 40
0.6
100
AcDbArc
 50
0.0
 51
88.09084756700265
  0
ARC
  5
106C
330
1F
100
AcDbEntity
  8
0
100
AcDbCircle
 10
192.8349174522053
 20
226.9294569075158
 30
0.0
 40
0.6
100
AcDbArc
 50
271.9091524329973
 51
0.0
  0
LINE
  5
106D
330
1F
100
AcDbEntity
  8
0
100
AcDbLine
 10
191.0149285540653
 20
224.2297899633288
 30
0.0
 11
192.8549063503442
 21
224.1684573701197
 31
0.0
  0
LINE
  5
106E
330
1F
100
AcDbEntity
  8
0
100
AcDbLine
 10
192.8549063503442
 20
226.3297899633287
 30
0.0
 11
191.0149285540653
 21
226.2684573701197
 31
0.0
  0
LINE
  5
106F
330
1F
100
AcDbEntity
  8
0
100
AcDbLine
 10
193.4349174522053
 20
251.5687904259318
 30
0.0
 11
193.4349174522053
 21
247.9294569075158
 31
0.0
  0
ARC
  5
1070
330
1F
100
AcDbEntity
  8
0
100
AcDbCircle
 10
191.0349174522043
 20
247.6687904259318
 30
0.0
 40
0.6
100
AcDbArc
 50
91.90915243299411
 51
180.0
  0
ARC
  5
1071
330
1F
100
AcDbEntity
  8
0
100
AcDbCircle
 10
191.0349174522043
 20
247.8687904259328
 30
0.0
 40
0.6
100
AcDbArc
 50
91.90915243299411
 51
180.0
  0
ARC
  5
1072
330
1F
100
AcDbEntity
  8
0
100
AcDbCircle
 10
191.0349174522052
 20
239.6687904259318
 30
0.0
 40
0.6
100
AcDbArc
 50
91.90915243299411
 51
180.0
  0
ARC
  5
1073
330
1F
100
AcDbEntity
  8
0
100
AcDbCircle
 10
191.0349174522052
 20
238.8294569075168
 30
0.0
 40
0.6
100
AcDbArc
 50
180.0
 51
268.0908475670026
  0
ARC
  5
1074
330
1F
100
AcDbEntity
  8
0
100
AcDbCircle
 10
191.0349174522043
 20
242.8294569075158
 30
0.0
 40
0.6
100
AcDbArc
 50
180.0
 51
268.0908475670059
  0
ARC
  5
1075
330
1F
100
AcDbEntity
  8
0
100
AcDbCircle
 10
191.0349174522052
 20
245.8294569075168
 30
0.0
 40
0.6
100
AcDbArc
 50
180.0
 51
268.0908475670026
  0
ARC
  5
1076
330
1F
100
AcDbEntity
  8
0
100
AcDbCircle
 10
191.0349174522052
 20
246.6687904259318
 30
0.0
 40
0.6
100
AcDbArc
 50
91.90915243299734
 51
180.0
  0
ARC
  5
1077
330
1F
100
AcDbEntity
  8
0
100
AcDbCircle
 10
191.0349174522052
 20
231.8294569075168
 30
0.0
 40
0.6
100
AcDbArc
 50
180.0
 51
268.0908475670026
  0
ARC
  5
1078
330
1F
100
AcDbEntity
  8
0
100
AcDbCircle
 10
191.0349174522043
 20
232.6687904259318
 30
0.0
 40
0.6
100
AcDbArc
 50
91.90915243299411
 51
180.0
  0
LINE
  5
1079
330
1F
100
AcDbEntity
  8
0
100
AcDbLine
 10
190.4349174522053
 20
239.6687904259318
 30
0.0
 11
190.4349174522053
 21
238.8294569075168
 31
0.0
  0
POINT
  5
107A
330
1F
100
AcDbEntity
  8
0
100
AcDbPoint
 10
190.4349174522053
 20
238.2491236667238
 30
0.0
  0
LINE
  5
107B
330
1F
100
AcDbEntity
  8
0
100
AcDbLine
 10
190.4349174522053
 20
232.6687904259318
 30
0.0
 11
190.4349174522053
 21
231.8294569075168
 31
0.0
  0
POINT
  5
107C
330
1F
100
AcDbEntity
  8
0
100
AcDbPoint
 10
190.4349174522053
 20
231.2491236667248
 30
0.0
  0
POINT
  5
107D
330
1F
100
AcDbEntity
  8
0
100
AcDbPoint
 10
190.4349174522053
 20
245.2491236667238
 30
0.0
  0
LINE
  5
107E
330
1F
100
AcDbEntity
  8
0
100
AcDbLine
 10
190.4349174522053
 20
247.8687904259328
 30
0.0
 11
190.4349174522053
 21
242.8294569075158
 31
0.0
  0
ARC
  5
107F
330
1F
100
AcDbEntity
  8
0
100
AcDbCircle
 10
192.8349174522053
 20
237.5687904259318
 30
0.0
 40
0.6
100
AcDbArc
 50
0.0
 51
88.0908475669994
  0
LINE
  5
1080
330
1F
100
AcDbEntity
  8
0
100
AcDbLine
 10
191.0149285540653
 20
238.2297899633288
 30
0.0
 11
192.8549063503442
 21
238.1684573701198
 31
0.0
  0
ARC
  5
1081
330
1F
100
AcDbEntity
  8
0
100
AcDbCircle
 10
192.8349174522053
 20
233.9294569075157
 30
0.0
 40
0.6
100
AcDbArc
 50
271.9091524329973
 51
0.0
  0
LINE
  5
1082
330
1F
100
AcDbEntity
  8
0
100
AcDbLine
 10
191.0149285540653
 20
231.2297899633288
 30
0.0
 11
192.8549063503442
 21
231.1684573701198
 31
0.0
  0
LINE
  5
1083
330
1F
100
AcDbEntity
  8
0
100
AcDbLine
 10
192.8549063503442
 20
233.3297899633288
 30
0.0
 11
191.0149285540653
 21
233.2684573701197
 31
0.0
  0
LINE
  5
1084
330
1F
100
AcDbEntity
  8
0
100
AcDbLine
 10
193.4349174522053
 20
237.5687904259318
 30
0.0
 11
193.4349174522053
 21
233.9294569075157
 31
0.0
  0
LINE
  5
1085
330
1F
100
AcDbEntity
  8
0
100
AcDbLine
 10
192.8549063503442
 20
247.3297899633287
 30
0.0
 11
191.0149285540653
 21
247.2684573701197
 31
0.0
  0
ARC
  5
1086
330
1F
100
AcDbEntity
  8
0
100
AcDbCircle
 10
192.8349174522053
 20
240.9294569075158
 30
0.0
 40
0.6
100
AcDbArc
 50
271.9091524329973
 51
0.0
  0
ARC
  5
1087
330
1F
100
AcDbEntity
  8
0
100
AcDbCircle
 10
192.8349174522053
 20
244.5687904259318
 30
0.0
 40
0.6
100
AcDbArc
 50
0.0
 51
88.09084756700265
  0
LINE
  5
1088
330
1F
100
AcDbEntity
  8
0
100
AcDbLine
 10
193.4349174522053
 20
244.5687904259318
 30
0.0
 11
193.4349174522053
 21
240.9294569075158
 31
0.0
  0
LINE
  5
1089
330
1F
100
AcDbEntity
  8
0
100
AcDbLine
 10
192.8549063503442
 20
240.3297899633288
 30
0.0
 11
191.0149285540653
 21
240.2684573701197
 31
0.0
  0
LINE
  5
108A
330
1F
100
AcDbEntity
  8
0
100
AcDbLine
 10
191.0149285540653
 20
242.2297899633288
 30
0.0
 11
193.4349174522043
 21
242.1491236667237
 31
0.0
  0
LINE
  5
108B
330
1F
100
AcDbEntity
  8
0
100
AcDbLine
 10
191.0149285540653
 20
245.2297899633288
 30
0.0
 11
192.8549063503442
 21
245.1684573701198
 31
0.0
  0
ARC
  5
108C
330
1F
100
AcDbEntity
  8
0
100
AcDbCircle
 10
192.8349174522053
 20
247.9294569075158
 30
0.0
 40
0.6
100
AcDbArc
 50
271.9091524329908
 51
0.0
  0
ARC
  5
108D
330
1F
100
AcDbEntity
  8
0
100
AcDbCircle
 10
191.0349174522052
 20
260.6687904259318
 30
0.0
 40
0.6
100
AcDbArc
 50
91.90915243299411
 51
180.0
  0
ARC
  5
108E
330
1F
100
AcDbEntity
  8
0
100
AcDbCircle
 10
191.0349174522052
 20
252.8294569075168
 30
0.0
 40
0.6
100
AcDbArc
 50
180.0
 51
268.0908475670026
  0
ARC
  5
108F
330
1F
100
AcDbEntity
  8
0
100
AcDbCircle
 10
191.0349174522043
 20
253.6687904259318
 30
0.0
 40
0.6
100
AcDbArc
 50
91.90915243299734
 51
180.0
  0
ARC
  5
1090
330
1F
100
AcDbEntity
  8
0
100
AcDbCircle
 10
191.0349174522052
 20
259.8294569075168
 30
0.0
 40
0.6
100
AcDbArc
 50
180.0
 51
268.0908475670026
  0
LINE
  5
1091
330
1F
100
AcDbEntity
  8
0
100
AcDbLine
 10
190.4349174522053
 20
253.6687904259318
 30
0.0
 11
190.4349174522053
 21
252.8294569075168
 31
0.0
  0
POINT
  5
1092
330
1F
100
AcDbEntity
  8
0
100
AcDbPoint
 10
190.4349174522053
 20
252.2491236667248
 30
0.0
  0
LINE
  5
1093
330
1F
100
AcDbEntity
  8
0
100
AcDbLine
 10
190.4349174522053
 20
260.6687904259318
 30
0.0
 11
190.4349174522053
 21
259.8294569075168
 31
0.0
  0
POINT
  5
1094
330
1F
100
AcDbEntity
  8
0
100
AcDbPoint
 10
190.4349174522053
 20
259.2491236667248
 30
0.0
  0
LINE
  5
1095
330
1F
100
AcDbEntity
  8
0
100
AcDbLine
 10
193.4349174522053
 20
258.5687904259317
 30
0.0
 11
193.4349174522053
 21
254.9294569075157
 31
0.0
  0
LINE
  5
1096
330
1F
100
AcDbEntity
  8
0
100
AcDbLine
 10
198.4349174522043
 20
264.7229377451558
 30
0.0
 11
198.4349174522043
 21
255.7229377451558
 31
0.0
  0
LINE
  5
1097
330
1F
100
AcDbEntity
  8
0
100
AcDbLine
 10
199.1349174522053
 20
264.2491236667248
 30
0.0
 11
199.1349174522053
 21
256.2491236667248
 31
0.0
  0
LINE
  5
1098
330
1F
100
AcDbEntity
  8
0
100
AcDbLine
 10
198.5349174522053
 20
264.2491236667248
 30
0.0
 11
198.5349174522053
 21
256.2491236667248
 31
0.0
  0
LINE
  5
1099
330
1F
100
AcDbEntity
  8
0
100
AcDbLine
 10
195.4349174522053
 20
254.2491236667248
 30
0.0
 11
194.1349174522053
 21
254.2491236667248
 31
0.0
  0
ARC
  5
109A
330
1F
100
AcDbEntity
  8
0
100
AcDbCircle
 10
192.8349174522053
 20
251.5687904259318
 30
0.0
 40
0.6
100
AcDbArc
 50
0.0
 51
88.09084756700265
  0
ARC
  5
109B
330
1F
100
AcDbEntity
  8
0
100
AcDbCircle
 10
192.8349174522053
 20
254.9294569075157
 30
0.0
 40
0.6
100
AcDbArc
 50
271.909152432994
 51
0.0
  0
LINE
  5
109C
330
1F
100
AcDbEntity
  8
0
100
AcDbLine
 10
191.0149285540653
 20
248.2684573701197
 30
0.0
 11
193.4349174522043
 21
248.3491236667238
 31
0.0
  0
LINE
  5
109D
330
1F
100
AcDbEntity
  8
0
100
AcDbLine
 10
191.0149285540653
 20
248.4684573701197
 30
0.0
 11
193.4349174522043
 21
248.5491236667248
 31
0.0
  0
LINE
  5
109E
330
1F
100
AcDbEntity
  8
0
100
AcDbLine
 10
191.0149285540653
 20
252.2297899633288
 30
0.0
 11
192.8549063503442
 21
252.1684573701198
 31
0.0
  0
LINE
  5
109F
330
1F
100
AcDbEntity
  8
0
100
AcDbLine
 10
192.8549063503442
 20
254.3297899633287
 30
0.0
 11
191.0149285540653
 21
254.2684573701198
 31
0.0
  0
LINE
  5
10A0
330
1F
100
AcDbEntity
  8
0
100
AcDbLine
 10
196.4349174522053
 20
254.2229377451558
 30
0.0
 11
195.4349174522053
 21
254.2229377451558
 31
0.0
  0
ARC
  5
10A1
330
1F
100
AcDbEntity
  8
0
100
AcDbCircle
 10
192.8349174522053
 20
261.9294569075158
 30
0.0
 40
0.6
100
AcDbArc
 50
271.9091524329973
 51
0.0
  0
LINE
  5
10A2
330
1F
100
AcDbEntity
  8
0
100
AcDbLine
 10
192.8549063503442
 20
261.3297899633288
 30
0.0
 11
191.0149285540653
 21
261.2684573701197
 31
0.0
  0
ARC
  5
10A3
330
1F
100
AcDbEntity
  8
0
100
AcDbCircle
 10
192.8349174522053
 20
258.5687904259317
 30
0.0
 40
0.6
100
AcDbArc
 50
0.0
 51
88.09084756700265
  0
LINE
  5
10A4
330
1F
100
AcDbEntity
  8
0
100
AcDbLine
 10
191.0149285540653
 20
259.2297899633287
 30
0.0
 11
192.8549063503442
 21
259.1684573701197
 31
0.0
  0
LINE
  5
10A5
330
1F
100
AcDbEntity
  8
0
100
AcDbLine
 10
217.1436296047272
 20
187.6282891897927
 30
0.0
 11
217.1436296047272
 21
205.2229377451568
 31
0.0
  0
LINE
  5
10A6
330
1F
100
AcDbEntity
  8
0
100
AcDbLine
 10
221.7262052996823
 20
187.5082902220598
 30
0.0
 11
221.7262052996823
 21
205.2229377451558
 31
0.0
  0
LINE
  5
10A7
330
1F
100
AcDbEntity
  8
0
100
AcDbLine
 10
213.9349174522053
 20
187.0491236667238
 30
0.0
 11
224.9349174522053
 21
187.0491236667238
 31
0.0
  0
LINE
  5
10A8
330
1F
100
AcDbEntity
  8
0
100
AcDbLine
 10
213.9349174522053
 20
187.7384981961248
 30
0.0
 11
213.9349174522053
 21
187.0491236667238
 31
0.0
  0
LINE
  5
10A9
330
1F
100
AcDbEntity
  8
0
100
AcDbLine
 10
217.3349174522043
 20
187.0491236667238
 30
0.0
 11
217.3349174522043
 21
183.2491236667248
 31
0.0
  0
LINE
  5
10AA
330
1F
100
AcDbEntity
  8
0
100
AcDbLine
 10
221.5349174522053
 20
187.0491236667238
 30
0.0
 11
221.5349174522053
 21
183.2491236667248
 31
0.0
  0
LINE
  5
10AB
330
1F
100
AcDbEntity
  8
0
100
AcDbLine
 10
224.9349174522053
 20
187.4504530588648
 30
0.0
 11
224.9349174522053
 21
187.0491236667238
 31
0.0
  0
LINE
  5
10AC
330
1F
100
AcDbEntity
  8
0
100
AcDbLine
 10
248.4349174522053
 20
183.2491236667248
 30
0.0
 11
248.4349174522053
 21
186.8350839019877
 31
0.0
  0
LINE
  5
10AD
330
1F
100
AcDbEntity
  8
2_カバ_
  6
Continuous
100
AcDbLine
 10
247.4349174522053
 20
252.2229377451558
 30
0.0
 11
206.4349174522053
 21
252.2229377451558
 31
0.0
  0
LINE
  5
10AE
330
1F
100
AcDbEntity
  8
2_カバ_
  6
Continuous
100
AcDbLine
 10
247.4349174522053
 20
254.2229377451558
 30
0.0
 11
206.4349174522053
 21
254.2229377451558
 31
0.0
  0
LINE
  5
10AF
330
1F
100
AcDbEntity
  8
2_カバ_
  6
Continuous
100
AcDbLine
 10
229.4349174522053
 20
233.2229377451557
 30
0.0
 11
239.4349174522053
 21
233.2229377451557
 31
0.0
  0
LINE
  5
10B0
330
1F
100
AcDbEntity
  8
2_カバ_
  6
Continuous
100
AcDbLine
 10
239.4349174522053
 20
236.7229377451558
 30
0.0
 11
229.4349174522053
 21
236.7229377451558
 31
0.0
  0
LINE
  5
10B1
330
1F
100
AcDbEntity
  8
2_カバ_
  6
Continuous
100
AcDbLine
 10
244.9349174522053
 20
232.2229377451558
 30
0.0
 11
223.9349174522053
 21
232.2229377451558
 31
0.0
  0
LINE
  5
10B2
330
1F
100
AcDbEntity
  8
2_カバ_
  6
Continuous
100
AcDbLine
 10
247.4349174522053
 20
238.2229377451558
 30
0.0
 11
206.4349174522053
 21
238.2229377451558
 31
0.0
  0
LINE
  5
10B3
330
1F
100
AcDbEntity
  8
2_カバ_
  6
Continuous
100
AcDbLine
 10
247.4349174522053
 20
240.2229377451557
 30
0.0
 11
206.4349174522053
 21
240.2229377451557
 31
0.0
  0
LINE
  5
10B4
330
1F
100
AcDbEntity
  8
2_カバ_
  6
Continuous
100
AcDbLine
 10
247.4349174522053
 20
245.2229377451558
 30
0.0
 11
206.4349174522053
 21
245.2229377451558
 31
0.0
  0
LINE
  5
10B5
330
1F
100
AcDbEntity
  8
2_カバ_
  6
Continuous
100
AcDbLine
 10
247.4349174522053
 20
247.2229377451558
 30
0.0
 11
206.4349174522053
 21
247.2229377451568
 31
0.0
  0
LINE
  5
10B6
330
1F
100
AcDbEntity
  8
0
100
AcDbLine
 10
247.4349174522053
 20
210.2229377451558
 30
0.0
 11
206.4349174522053
 21
210.2229377451558
 31
0.0
  0
LINE
  5
10B7
330
1F
100
AcDbEntity
  8
0
100
AcDbLine
 10
247.4349174522053
 20
212.2229377451557
 30
0.0
 11
206.4349174522053
 21
212.2229377451557
 31
0.0
  0
LINE
  5
10B8
330
1F
100
AcDbEntity
  8
0
100
AcDbLine
 10
247.4349174522053
 20
217.2229377451558
 30
0.0
 11
206.4349174522053
 21
217.2229377451558
 31
0.0
  0
LINE
  5
10B9
330
1F
100
AcDbEntity
  8
0
100
AcDbLine
 10
247.4349174522053
 20
219.2229377451558
 30
0.0
 11
206.4349174522053
 21
219.2229377451558
 31
0.0
  0
LINE
  5
10BA
330
1F
100
AcDbEntity
  8
0
100
AcDbLine
 10
247.4349174522053
 20
224.2229377451558
 30
0.0
 11
206.4349174522053
 21
224.2229377451558
 31
0.0
  0
LINE
  5
10BB
330
1F
100
AcDbEntity
  8
0
100
AcDbLine
 10
247.4349174522053
 20
226.2229377451558
 30
0.0
 11
206.4349174522053
 21
226.2229377451558
 31
0.0
  0
LINE
  5
10BC
330
1F
100
AcDbEntity
  8
0
100
AcDbLine
 10
206.4349174522053
 20
205.2229377451558
 30
0.0
 11
248.4349174522053
 21
205.2229377451558
 31
0.0
  0
LINE
  5
10BD
330
1F
100
AcDbEntity
  8
0
100
AcDbLine
 10
200.1349174522042
 20
214.7229377451558
 30
0.0
 11
200.1349174522042
 21
205.7229377451558
 31
0.0
  0
LINE
  5
10BE
330
1F
100
AcDbEntity
  8
0
100
AcDbLine
 10
199.9349174522053
 20
214.2491236667248
 30
0.0
 11
199.9349174522053
 21
206.2491236667248
 31
0.0
  0
LINE
  5
10BF
330
1F
100
AcDbEntity
  8
2_カバ_
  6
Continuous
100
AcDbLine
 10
223.4349174522053
 20
259.2229377451558
 30
0.0
 11
206.4349174522053
 21
259.2229377451558
 31
0.0
  0
LINE
  5
10C0
330
1F
100
AcDbEntity
  8
2_カバ_
  6
Continuous
100
AcDbLine
 10
223.4349174522053
 20
261.2229377451558
 30
0.0
 11
206.4349174522053
 21
261.2229377451558
 31
0.0
  0
LINE
  5
10C1
330
1F
100
AcDbEntity
  8
2_カバ_
  6
Continuous
100
AcDbLine
 10
223.4349174522053
 20
231.2229377451557
 30
0.0
 11
206.4349174522053
 21
231.2229377451557
 31
0.0
  0
LINE
  5
10C2
330
1F
100
AcDbEntity
  8
2_カバ_
  6
Continuous
100
AcDbLine
 10
223.4349174522053
 20
233.2229377451557
 30
0.0
 11
206.4349174522053
 21
233.2229377451557
 31
0.0
  0
LINE
  5
10C3
330
1F
100
AcDbEntity
  8
0
100
AcDbLine
 10
200.1349174522042
 20
264.7229377451558
 30
0.0
 11
200.1349174522042
 21
255.7229377451558
 31
0.0
  0
LINE
  5
10C4
330
1F
100
AcDbEntity
  8
0
100
AcDbLine
 10
199.9349174522053
 20
264.2491236667248
 30
0.0
 11
199.9349174522053
 21
256.2491236667248
 31
0.0
  0
LINE
  5
10C5
330
1F
100
AcDbEntity
  8
2_カバ_
  6
Continuous
100
AcDbLine
 10
223.9349174522053
 20
247.2229377451558
 30
0.0
 11
223.9349174522053
 21
252.2229377451558
 31
0.0
  0
LINE
  5
10C6
330
1F
100
AcDbEntity
  8
2_カバ_
  6
Continuous
100
AcDbLine
 10
223.4349174522053
 20
231.2229377451557
 30
0.0
 11
223.4349174522053
 21
233.2229377451557
 31
0.0
  0
LINE
  5
10C7
330
1F
100
AcDbEntity
  8
2_カバ_
  6
Continuous
100
AcDbLine
 10
223.9349174522053
 20
232.2229377451558
 30
0.0
 11
223.9349174522053
 21
238.2229377451558
 31
0.0
  0
LINE
  5
10C8
330
1F
100
AcDbEntity
  8
2_カバ_
  6
Continuous
100
AcDbLine
 10
223.9349174522053
 20
240.2229377451557
 30
0.0
 11
223.9349174522053
 21
245.2229377451558
 31
0.0
  0
LINE
  5
10C9
330
1F
100
AcDbEntity
  8
2_カバ_
  6
Continuous
100
AcDbLine
 10
228.9349174522052
 20
236.2229377451567
 30
0.0
 11
228.9349174522052
 21
233.7229377451558
 31
0.0
  0
ARC
  5
10CA
330
1F
100
AcDbEntity
  8
2_カバ_
  6
Continuous
100
AcDbCircle
 10
229.4349174522053
 20
233.7229377451558
 30
0.0
 40
0.5
100
AcDbArc
 50
180.0
 51
270.0
  0
ARC
  5
10CB
330
1F
100
AcDbEntity
  8
2_カバ_
  6
Continuous
100
AcDbCircle
 10
229.4349174522053
 20
236.2229377451567
 30
0.0
 40
0.5
100
AcDbArc
 50
90.0
 51
180.0
  0
LINE
  5
10CC
330
1F
100
AcDbEntity
  8
2_カバ_
  6
Continuous
100
AcDbLine
 10
223.4349174522053
 20
259.2229377451558
 30
0.0
 11
223.4349174522053
 21
261.2229377451558
 31
0.0
  0
LINE
  5
10CD
330
1F
100
AcDbEntity
  8
0
100
AcDbLine
 10
246.4349174522053
 20
210.2229377451558
 30
0.0
 11
246.4349174522053
 21
212.2229377451557
 31
0.0
  0
LINE
  5
10CE
330
1F
100
AcDbEntity
  8
0
100
AcDbLine
 10
245.4349174522053
 20
210.2229377451558
 30
0.0
 11
245.4349174522053
 21
212.2229377451557
 31
0.0
  0
LINE
  5
10CF
330
1F
100
AcDbEntity
  8
0
100
AcDbLine
 10
246.4349174522053
 20
217.2229377451558
 30
0.0
 11
246.4349174522053
 21
219.2229377451558
 31
0.0
  0
LINE
  5
10D0
330
1F
100
AcDbEntity
  8
0
100
AcDbLine
 10
245.4349174522053
 20
217.2229377451558
 30
0.0
 11
245.4349174522053
 21
219.2229377451558
 31
0.0
  0
LINE
  5
10D1
330
1F
100
AcDbEntity
  8
0
100
AcDbLine
 10
246.4349174522053
 20
224.2229377451558
 30
0.0
 11
246.4349174522053
 21
226.2229377451558
 31
0.0
  0
LINE
  5
10D2
330
1F
100
AcDbEntity
  8
0
100
AcDbLine
 10
245.4349174522053
 20
224.2229377451558
 30
0.0
 11
245.4349174522053
 21
226.2229377451558
 31
0.0
  0
LINE
  5
10D3
330
1F
100
AcDbEntity
  8
2_カバ_
  6
Continuous
100
AcDbLine
 10
244.9349174522053
 20
252.2229377451558
 30
0.0
 11
244.9349174522053
 21
247.2229377451558
 31
0.0
  0
LINE
  5
10D4
330
1F
100
AcDbEntity
  8
2_カバ_
  6
Continuous
100
AcDbLine
 10
239.9349174522053
 20
233.7229377451558
 30
0.0
 11
239.9349174522053
 21
236.2229377451558
 31
0.0
  0
ARC
  5
10D5
330
1F
100
AcDbEntity
  8
2_カバ_
  6
Continuous
100
AcDbCircle
 10
239.4349174522053
 20
233.7229377451558
 30
0.0
 40
0.5
100
AcDbArc
 50
270.0
 51
0.0
  0
ARC
  5
10D6
330
1F
100
AcDbEntity
  8
2_カバ_
  6
Continuous
100
AcDbCircle
 10
239.4349174522053
 20
236.2229377451558
 30
0.0
 40
0.5
100
AcDbArc
 50
0.0
 51
90.0
  0
LINE
  5
10D7
330
1F
100
AcDbEntity
  8
2_カバ_
  6
Continuous
100
AcDbLine
 10
245.4349174522053
 20
238.2229377451558
 30
0.0
 11
245.4349174522053
 21
240.2229377451557
 31
0.0
  0
LINE
  5
10D8
330
1F
100
AcDbEntity
  8
2_カバ_
  6
Continuous
100
AcDbLine
 10
246.4349174522053
 20
238.2229377451558
 30
0.0
 11
246.4349174522053
 21
240.2229377451557
 31
0.0
  0
LINE
  5
10D9
330
1F
100
AcDbEntity
  8
2_カバ_
  6
Continuous
100
AcDbLine
 10
247.4349174522053
 20
231.2229377451557
 30
0.0
 11
245.4349174522053
 21
231.2229377451557
 31
0.0
  0
LINE
  5
10DA
330
1F
100
AcDbEntity
  8
2_カバ_
  6
Continuous
100
AcDbLine
 10
247.4349174522053
 20
233.2229377451557
 30
0.0
 11
245.4349174522053
 21
233.2229377451557
 31
0.0
  0
LINE
  5
10DB
330
1F
100
AcDbEntity
  8
2_カバ_
  6
Continuous
100
AcDbLine
 10
245.4349174522053
 20
231.2229377451557
 30
0.0
 11
245.4349174522053
 21
233.2229377451557
 31
0.0
  0
LINE
  5
10DC
330
1F
100
AcDbEntity
  8
2_カバ_
  6
Continuous
100
AcDbLine
 10
246.4349174522053
 20
231.2229377451557
 30
0.0
 11
246.4349174522053
 21
233.2229377451557
 31
0.0
  0
LINE
  5
10DD
330
1F
100
AcDbEntity
  8
2_カバ_
  6
Continuous
100
AcDbLine
 10
244.9349174522053
 20
238.2229377451558
 30
0.0
 11
244.9349174522053
 21
232.2229377451558
 31
0.0
  0
LINE
  5
10DE
330
1F
100
AcDbEntity
  8
2_カバ_
  6
Continuous
100
AcDbLine
 10
245.4349174522053
 20
245.2229377451558
 30
0.0
 11
245.4349174522053
 21
247.2229377451558
 31
0.0
  0
LINE
  5
10DF
330
1F
100
AcDbEntity
  8
2_カバ_
  6
Continuous
100
AcDbLine
 10
246.4349174522053
 20
245.2229377451558
 30
0.0
 11
246.4349174522053
 21
247.2229377451558
 31
0.0
  0
LINE
  5
10E0
330
1F
100
AcDbEntity
  8
2_カバ_
  6
Continuous
100
AcDbLine
 10
244.9349174522053
 20
245.2229377451558
 30
0.0
 11
244.9349174522053
 21
240.2229377451567
 31
0.0
  0
LINE
  5
10E1
330
1F
100
AcDbEntity
  8
2_カバ_
  6
Continuous
100
AcDbLine
 10
245.4349174522053
 20
252.2229377451558
 30
0.0
 11
245.4349174522053
 21
254.2229377451558
 31
0.0
  0
LINE
  5
10E2
330
1F
100
AcDbEntity
  8
2_カバ_
  6
Continuous
100
AcDbLine
 10
246.4349174522053
 20
252.2229377451558
 30
0.0
 11
246.4349174522053
 21
254.2229377451558
 31
0.0
  0
LINE
  5
10E3
330
1F
100
AcDbEntity
  8
2_カバ_
  6
Continuous
100
AcDbLine
 10
247.4349174522053
 20
261.2229377451558
 30
0.0
 11
245.4349174522053
 21
261.2229377451558
 31
0.0
  0
LINE
  5
10E4
330
1F
100
AcDbEntity
  8
2_カバ_
  6
Continuous
100
AcDbLine
 10
247.4349174522053
 20
259.2229377451558
 30
0.0
 11
245.4349174522053
 21
259.2229377451558
 31
0.0
  0
LINE
  5
10E5
330
1F
100
AcDbEntity
  8
2_カバ_
  6
Continuous
100
AcDbLine
 10
245.4349174522053
 20
259.2229377451558
 30
0.0
 11
245.4349174522053
 21
261.2229377451567
 31
0.0
  0
LINE
  5
10E6
330
1F
100
AcDbEntity
  8
2_カバ_
  6
Continuous
100
AcDbLine
 10
246.4349174522053
 20
259.2229377451558
 30
0.0
 11
246.4349174522053
 21
261.2229377451567
 31
0.0
  0
LINE
  5
10E7
330
1F
100
AcDbEntity
  8
0
100
AcDbLine
 10
198.4349174522053
 20
303.7229377451556
 30
0.0
 11
199.4349174522053
 21
303.7229377451556
 31
0.0
  0
LINE
  5
10E8
330
1F
100
AcDbEntity
  8
0
100
AcDbLine
 10
199.4349174522053
 20
293.3838381139785
 30
0.0
 11
196.4349174522053
 21
292.8548571718536
 31
0.0
  0
LINE
  5
10E9
330
1F
100
AcDbEntity
  8
0
100
AcDbLine
 10
196.4349174522053
 20
304.2229377451556
 30
0.0
 11
248.4349174522053
 21
304.2229377451556
 31
0.0
  0
LINE
  5
10EA
330
1F
100
AcDbEntity
  8
0
100
AcDbLine
 10
198.4349174522053
 20
303.7229377451556
 30
0.0
 11
198.4349174522053
 21
294.2229377451567
 31
0.0
  0
LINE
  5
10EB
330
1F
100
AcDbEntity
  8
0
100
AcDbLine
 10
198.4349174522053
 20
294.2491236667247
 30
0.0
 11
198.4349174522053
 21
304.1443799804476
 31
0.0
  0
LINE
  5
10EC
330
1F
100
AcDbEntity
  8
0
100
AcDbLine
 10
190.4349174522053
 20
273.8294569075167
 30
0.0
 11
190.4349174522053
 21
304.1443799804476
 31
0.0
  0
ARC
  5
10ED
330
1F
100
AcDbEntity
  8
0
100
AcDbCircle
 10
192.8349174522053
 20
282.9294569075158
 30
0.0
 40
0.6
100
AcDbArc
 50
271.909152432994
 51
0.0
  0
ARC
  5
10EE
330
1F
100
AcDbEntity
  8
0
100
AcDbCircle
 10
191.0349174522052
 20
281.6687904259317
 30
0.0
 40
0.6
100
AcDbArc
 50
91.90915243299734
 51
180.0
  0
LINE
  5
10EF
330
1F
100
AcDbEntity
  8
0
100
AcDbLine
 10
192.8549063503442
 20
282.3297899633288
 30
0.0
 11
191.0149285540653
 21
282.2684573701197
 31
0.0
  0
LINE
  5
10F0
330
1F
100
AcDbEntity
  8
0
100
AcDbLine
 10
196.4349174522053
 20
266.2229377451568
 30
0.0
 11
196.4349174522053
 21
292.8548571718536
 31
0.0
  0
LINE
  5
10F1
330
1F
100
AcDbEntity
  8
0
100
AcDbLine
 10
195.4349174522053
 20
293.7201427245987
 30
0.0
 11
195.4349174522053
 21
266.2491236667248
 31
0.0
  0
ARC
  5
10F2
330
1F
100
AcDbEntity
  8
0
100
AcDbCircle
 10
191.0349174522052
 20
274.6687904259317
 30
0.0
 40
0.6
100
AcDbArc
 50
91.90915243299734
 51
180.0
  0
ARC
  5
10F3
330
1F
100
AcDbEntity
  8
0
100
AcDbCircle
 10
191.0349174522043
 20
273.8294569075167
 30
0.0
 40
0.6
100
AcDbArc
 50
180.0
 51
268.0908475670026
  0
ARC
  5
10F4
330
1F
100
AcDbEntity
  8
0
100
AcDbCircle
 10
191.0349174522052
 20
280.8294569075168
 30
0.0
 40
0.6
100
AcDbArc
 50
180.0
 51
268.0908475670026
  0
ARC
  5
10F5
330
1F
100
AcDbEntity
  8
0
100
AcDbCircle
 10
191.0349174522052
 20
266.8294569075168
 30
0.0
 40
0.6
100
AcDbArc
 50
180.0
 51
268.0908475670026
  0
ARC
  5
10F6
330
1F
100
AcDbEntity
  8
0
100
AcDbCircle
 10
191.0349174522052
 20
267.6687904259318
 30
0.0
 40
0.6
100
AcDbArc
 50
91.90915243299734
 51
180.0
  0
POINT
  5
10F7
330
1F
100
AcDbEntity
  8
0
100
AcDbPoint
 10
190.4349174522053
 20
273.2491236667248
 30
0.0
  0
POINT
  5
10F8
330
1F
100
AcDbEntity
  8
0
100
AcDbPoint
 10
190.4349174522053
 20
266.2491236667248
 30
0.0
  0
LINE
  5
10F9
330
1F
100
AcDbEntity
  8
0
100
AcDbLine
 10
190.4349174522053
 20
267.6687904259318
 30
0.0
 11
190.4349174522053
 21
266.8294569075168
 31
0.0
  0
LINE
  5
10FA
330
1F
100
AcDbEntity
  8
0
100
AcDbLine
 10
190.4349174522053
 20
274.6687904259317
 30
0.0
 11
190.4349174522053
 21
273.8294569075167
 31
0.0
  0
LINE
  5
10FB
330
1F
100
AcDbEntity
  8
0
100
AcDbLine
 10
190.4349174522053
 20
281.6687904259317
 30
0.0
 11
190.4349174522053
 21
280.8294569075168
 31
0.0
  0
POINT
  5
10FC
330
1F
100
AcDbEntity
  8
0
100
AcDbPoint
 10
190.4349174522053
 20
282.2491236667238
 30
0.0
  0
POINT
  5
10FD
330
1F
100
AcDbEntity
  8
0
100
AcDbPoint
 10
190.4349174522053
 20
280.2491236667238
 30
0.0
  0
LINE
  5
10FE
330
1F
100
AcDbEntity
  8
0
100
AcDbLine
 10
195.4349174522053
 20
266.2491236667248
 30
0.0
 11
194.1349174522053
 21
266.2491236667248
 31
0.0
  0
ARC
  5
10FF
330
1F
100
AcDbEntity
  8
0
100
AcDbCircle
 10
192.8349174522053
 20
272.5687904259318
 30
0.0
 40
0.6
100
AcDbArc
 50
0.0
 51
88.09084756700265
  0
LINE
  5
1100
330
1F
100
AcDbEntity
  8
0
100
AcDbLine
 10
191.0149285540653
 20
273.2297899633288
 30
0.0
 11
192.8549063503442
 21
273.1684573701197
 31
0.0
  0
ARC
  5
1101
330
1F
100
AcDbEntity
  8
0
100
AcDbCircle
 10
192.8349174522053
 20
265.5687904259317
 30
0.0
 40
0.6
100
AcDbArc
 50
0.0
 51
88.0908475669994
  0
ARC
  5
1102
330
1F
100
AcDbEntity
  8
0
100
AcDbCircle
 10
192.8349174522053
 20
268.9294569075158
 30
0.0
 40
0.6
100
AcDbArc
 50
271.9091524329973
 51
0.0
  0
LINE
  5
1103
330
1F
100
AcDbEntity
  8
0
100
AcDbLine
 10
191.0149285540653
 20
266.2297899633288
 30
0.0
 11
192.8549063503442
 21
266.1684573701198
 31
0.0
  0
LINE
  5
1104
330
1F
100
AcDbEntity
  8
0
100
AcDbLine
 10
192.8549063503442
 20
268.3297899633287
 30
0.0
 11
191.0149285540653
 21
268.2684573701198
 31
0.0
  0
LINE
  5
1105
330
1F
100
AcDbEntity
  8
0
100
AcDbLine
 10
193.4349174522053
 20
272.5687904259318
 30
0.0
 11
193.4349174522053
 21
268.9294569075158
 31
0.0
  0
LINE
  5
1106
330
1F
100
AcDbEntity
  8
0
100
AcDbLine
 10
196.4349174522053
 20
266.2229377451568
 30
0.0
 11
195.4349174522053
 21
266.2229377451568
 31
0.0
  0
LINE
  5
1107
330
1F
100
AcDbEntity
  8
0
100
AcDbLine
 10
193.4349174522053
 20
279.5687904259318
 30
0.0
 11
193.4349174522053
 21
275.9294569075157
 31
0.0
  0
ARC
  5
1108
330
1F
100
AcDbEntity
  8
0
100
AcDbCircle
 10
192.8349174522053
 20
275.9294569075157
 30
0.0
 40
0.6
100
AcDbArc
 50
271.9091524329973
 51
0.0
  0
POINT
  5
1109
330
1F
100
AcDbEntity
  8
0
100
AcDbPoint
 10
193.4349174522053
 20
280.1491236667237
 30
0.0
  0
ARC
  5
110A
330
1F
100
AcDbEntity
  8
0
100
AcDbCircle
 10
192.8349174522053
 20
279.5687904259318
 30
0.0
 40
0.6
100
AcDbArc
 50
0.0
 51
88.09084756700265
  0
LINE
  5
110B
330
1F
100
AcDbEntity
  8
0
100
AcDbLine
 10
192.8549063503442
 20
275.3297899633288
 30
0.0
 11
191.0149285540653
 21
275.2684573701198
 31
0.0
  0
LINE
  5
110C
330
1F
100
AcDbEntity
  8
0
100
AcDbLine
 10
191.0149285540653
 20
280.2297899633288
 30
0.0
 11
192.8549063503442
 21
280.1684573701198
 31
0.0
  0
ARC
  5
110D
330
1F
100
AcDbEntity
  8
0
100
AcDbCircle
 10
191.0349174522052
 20
287.8294569075167
 30
0.0
 40
0.6
100
AcDbArc
 50
180.0
 51
268.0908475670026
  0
POINT
  5
110E
330
1F
100
AcDbEntity
  8
0
100
AcDbPoint
 10
193.4349174522053
 20
287.1491236667234
 30
0.0
  0
ARC
  5
110F
330
1F
100
AcDbEntity
  8
0
100
AcDbCircle
 10
192.8349174522053
 20
286.5687904259317
 30
0.0
 40
0.6
100
AcDbArc
 50
0.0
 51
88.09084756700265
  0
LINE
  5
1110
330
1F
100
AcDbEntity
  8
0
100
AcDbLine
 10
191.0149285540653
 20
287.2297899633285
 30
0.0
 11
192.8549063503442
 21
287.1684573701196
 31
0.0
  0
POINT
  5
1111
330
1F
100
AcDbEntity
  8
0
100
AcDbPoint
 10
193.4349174522053
 20
282.3491236667237
 30
0.0
  0
LINE
  5
1112
330
1F
100
AcDbEntity
  8
0
100
AcDbLine
 10
193.4349174522053
 20
286.5687904259317
 30
0.0
 11
193.4349174522053
 21
282.9294569075158
 31
0.0
  0
LINE
  5
1113
330
1F
100
AcDbEntity
  8
0
100
AcDbLine
 10
195.4349174522053
 20
293.6939568030307
 30
0.0
 11
198.4349174522053
 21
294.2229377451567
 31
0.0
  0
LINE
  5
1114
330
1F
100
AcDbEntity
  8
0
100
AcDbLine
 10
198.4349174522053
 20
294.2491236667247
 30
0.0
 11
195.4349174522053
 21
293.7201427245987
 31
0.0
  0
LINE
  5
1115
330
1F
100
AcDbEntity
  8
0
100
AcDbLine
 10
190.4349174522053
 20
304.1443799804476
 30
0.0
 11
194.4349174522053
 21
304.2491236667247
 31
0.0
  0
LINE
  5
1116
330
1F
100
AcDbEntity
  8
0
100
AcDbLine
 10
194.4349174522053
 20
304.2491236667247
 30
0.0
 11
198.4349174522053
 21
304.1443799804476
 31
0.0
  0
LINE
  5
1117
330
1F
100
AcDbEntity
  8
0
100
AcDbLine
 10
196.4349174522053
 20
304.2229377451556
 30
0.0
 11
196.4349174522053
 21
304.1967518235862
 31
0.0
  0
LINE
  5
1118
330
1F
100
AcDbEntity
  8
0
100
AcDbLine
 10
196.4349174522053
 20
304.2229377451556
 30
0.0
 11
196.4349174522053
 21
304.1967518235866
 31
0.0
  0
LINE
  5
1119
330
1F
100
AcDbEntity
  8
2_カバ_
  6
Continuous
100
AcDbLine
 10
247.4349174522053
 20
280.2229377451558
 30
0.0
 11
206.4349174522053
 21
280.2229377451558
 31
0.0
  0
LINE
  5
111A
330
1F
100
AcDbEntity
  8
2_カバ_
  6
Continuous
100
AcDbLine
 10
247.4349174522053
 20
282.2229377451557
 30
0.0
 11
206.4349174522053
 21
282.2229377451557
 31
0.0
  0
LINE
  5
111B
330
1F
100
AcDbEntity
  8
2_カバ_
  6
Continuous
100
AcDbLine
 10
206.4349174522053
 20
287.2229377451557
 30
0.0
 11
248.4349174522053
 21
287.2229377451557
 31
0.0
  0
LINE
  5
111D
330
1F
100
AcDbEntity
  8
0
100
AcDbLine
 10
231.5849174522053
 20
307.6229377451558
 30
0.0
 11
237.8849174522053
 21
307.6229377451558
 31
0.0
  0
LINE
  5
111E
330
1F
100
AcDbEntity
  8
0
100
AcDbLine
 10
218.6349174522053
 20
288.7229377451557
 30
0.0
 11
218.6349174522053
 21
300.7229377451557
 31
0.0
  0
LINE
  5
111F
330
1F
100
AcDbEntity
  8
0
100
AcDbLine
 10
210.4349174522053
 20
296.7229377451557
 30
0.0
 11
210.4349174522053
 21
300.7229377451557
 31
0.0
  0
LINE
  5
1120
330
1F
100
AcDbEntity
  8
0
100
AcDbLine
 10
199.4349174522053
 20
304.2229377451556
 30
0.0
 11
199.4349174522053
 21
293.3838381139785
 31
0.0
  0
LINE
  5
1121
330
1F
100
AcDbEntity
  8
2_カバ_
  6
Continuous
100
AcDbLine
 10
223.4349174522053
 20
266.2229377451558
 30
0.0
 11
206.4349174522053
 21
266.2229377451558
 31
0.0
  0
LINE
  5
1122
330
1F
100
AcDbEntity
  8
2_カバ_
  6
Continuous
100
AcDbLine
 10
223.4349174522053
 20
268.2229377451558
 30
0.0
 11
206.4349174522053
 21
268.2229377451558
 31
0.0
  0
LINE
  5
1123
330
1F
100
AcDbEntity
  8
2_カバ_
  6
Continuous
100
AcDbLine
 10
223.4349174522053
 20
273.2229377451558
 30
0.0
 11
206.4349174522053
 21
273.2229377451558
 31
0.0
  0
LINE
  5
1124
330
1F
100
AcDbEntity
  8
2_カバ_
  6
Continuous
100
AcDbLine
 10
223.4349174522053
 20
275.2229377451557
 30
0.0
 11
206.4349174522053
 21
275.2229377451557
 31
0.0
  0
LINE
  5
1125
330
1F
100
AcDbEntity
  8
0
100
AcDbLine
 10
218.6349174522053
 20
288.7229377451557
 30
0.0
 11
210.4349174522053
 21
288.7229377451557
 31
0.0
  0
LINE
  5
1126
330
1F
100
AcDbEntity
  8
0
100
AcDbLine
 10
210.4349174522053
 20
292.7229377451557
 30
0.0
 11
210.4349174522053
 21
288.7229377451557
 31
0.0
  0
LINE
  5
1127
330
1F
100
AcDbEntity
  8
0
100
AcDbLine
 10
213.6349174522053
 20
292.7229377451557
 30
0.0
 11
213.6349174522053
 21
290.7229377451556
 31
0.0
  0
LINE
  5
1128
330
1F
100
AcDbEntity
  8
0
100
AcDbLine
 10
215.6349174522053
 20
290.7229377451556
 30
0.0
 11
215.6349174522053
 21
298.7229377451557
 31
0.0
  0
LINE
  5
1129
330
1F
100
AcDbEntity
  8
0
100
AcDbLine
 10
213.6349174522053
 20
290.7229377451556
 30
0.0
 11
215.6349174522053
 21
290.7229377451556
 31
0.0
  0
LINE
  5
112A
330
1F
100
AcDbEntity
  8
0
100
AcDbLine
 10
210.4349174522053
 20
292.7229377451557
 30
0.0
 11
213.6349174522053
 21
292.7229377451557
 31
0.0
  0
LINE
  5
112B
330
1F
100
AcDbEntity
  8
0
100
AcDbLine
 10
210.4349174522053
 20
296.7229377451557
 30
0.0
 11
213.6349174522053
 21
296.7229377451557
 31
0.0
  0
LINE
  5
112C
330
1F
100
AcDbEntity
  8
0
100
AcDbLine
 10
213.6349174522053
 20
298.7229377451557
 30
0.0
 11
215.6349174522053
 21
298.7229377451557
 31
0.0
  0
LINE
  5
112D
330
1F
100
AcDbEntity
  8
0
100
AcDbLine
 10
213.6349174522053
 20
296.7229377451557
 30
0.0
 11
213.6349174522053
 21
298.7229377451557
 31
0.0
  0
LINE
  5
112E
330
1F
100
AcDbEntity
  8
2_カバ_
  6
Continuous
100
AcDbLine
 10
223.9349174522053
 20
282.2229377451557
 30
0.0
 11
223.9349174522053
 21
287.2229377451557
 31
0.0
  0
LINE
  5
112F
330
1F
100
AcDbEntity
  8
2_カバ_
  6
DASHDOT
100
AcDbLine
 10
228.5963904441512
 20
265.2229377451567
 30
0.0
 11
218.0352444711203
 21
265.2229377451567
 31
0.0
  0
LINE
  5
1130
330
1F
100
AcDbEntity
  8
2_カバ_
  6
Continuous
100
AcDbLine
 10
223.4349174522053
 20
273.2229377451558
 30
0.0
 11
223.4349174522053
 21
275.2229377451557
 31
0.0
  0
LINE
  5
1131
330
1F
100
AcDbEntity
  8
2_カバ_
  6
Continuous
100
AcDbLine
 10
223.4349174522053
 20
266.2229377451558
 30
0.0
 11
223.4349174522053
 21
268.2229377451558
 31
0.0
  0
LINE
  5
1132
330
1F
100
AcDbEntity
  8
0
100
AcDbLine
 10
210.4349174522053
 20
300.7229377451557
 30
0.0
 11
218.6349174522053
 21
300.7229377451557
 31
0.0
  0
LINE
  5
1133
330
1F
100
AcDbEntity
  8
0
100
AcDbLine
 10
205.6349174522043
 20
309.5229377451557
 30
0.0
 11
211.5349174522044
 21
309.5229377451557
 31
0.0
  0
LINE
  5
1134
330
1F
100
AcDbEntity
  8
0
100
AcDbLine
 10
204.5349174522053
 20
305.2229377451557
 30
0.0
 11
213.1349174522044
 21
305.2229377451557
 31
0.0
  0
LINE
  5
1135
330
1F
100
AcDbEntity
  8
0
100
AcDbLine
 10
206.0349174522043
 20
310.8229377451558
 30
0.0
 11
215.3799174522044
 21
310.8229377451558
 31
0.0
  0
LINE
  5
1136
330
1F
100
AcDbEntity
  8
0
100
AcDbLine
 10
205.6349174522043
 20
305.2229377451557
 30
0.0
 11
205.6349174522043
 21
309.5229377451557
 31
0.0
  0
LINE
  5
1137
330
1F
100
AcDbEntity
  8
0
100
AcDbLine
 10
204.5349174522053
 20
304.2229377451556
 30
0.0
 11
204.5349174522053
 21
305.2229377451557
 31
0.0
  0
LINE
  5
1138
330
1F
100
AcDbEntity
  8
0
100
AcDbLine
 10
206.0349174522043
 20
309.5229377451557
 30
0.0
 11
206.0349174522043
 21
310.8229377451558
 31
0.0
  0
LINE
  5
1139
330
1F
100
AcDbEntity
  8
0
100
AcDbLine
 10
215.3799174522044
 20
310.8229377451558
 30
0.0
 11
215.3799174522044
 21
304.2229377451556
 31
0.0
  0
LINE
  5
113A
330
1F
100
AcDbEntity
  8
0
100
AcDbLine
 10
211.5349174522044
 20
309.5229377451557
 30
0.0
 11
211.5349174522044
 21
305.2229377451557
 31
0.0
  0
LINE
  5
113B
330
1F
100
AcDbEntity
  8
0
100
AcDbLine
 10
213.1349174522044
 20
305.2229377451557
 30
0.0
 11
213.1349174522044
 21
304.2229377451556
 31
0.0
  0
LINE
  5
113E
330
1F
100
AcDbEntity
  8
0
100
AcDbLine
 10
231.5849174522053
 20
304.2229377451556
 30
0.0
 11
231.5849174522053
 21
307.6229377451558
 31
0.0
  0
LINE
  5
113F
330
1F
100
AcDbEntity
  8
2_カバ_
  6
Continuous
100
AcDbLine
 10
244.9349174522053
 20
287.2229377451557
 30
0.0
 11
244.9349174522053
 21
282.2229377451557
 31
0.0
  0
ARC
  5
1140
330
1F
100
AcDbEntity
  8
2_カバ_
  6
Continuous
100
AcDbCircle
 10
240.9349174522053
 20
275.2229377451567
 30
0.0
 40
0.5
100
AcDbArc
 50
89.99999999999674
 51
180.0
  0
ARC
  5
1141
330
1F
100
AcDbEntity
  8
2_カバ_
  6
Continuous
100
AcDbCircle
 10
240.9349174522053
 20
270.2229377451558
 30
0.0
 40
0.5
100
AcDbArc
 50
180.0
 51
270.0
  0
LINE
  5
1142
330
1F
100
AcDbEntity
  8
2_カバ_
  6
DASHDOT
100
AcDbLine
 10
239.3560275701543
 20
272.7229377451557
 30
0.0
 11
246.1045355762093
 21
272.7229377451557
 31
0.0
  0
LINE
  5
1143
330
1F
100
AcDbEntity
  8
2_カバ_
  6
Continuous
100
AcDbLine
 10
240.4349174522053
 20
275.2229377451567
 30
0.0
 11
240.4349174522053
 21
270.2229377451558
 31
0.0
  0
LINE
  5
1144
330
1F
100
AcDbEntity
  8
2_カバ_
  6
Continuous
100
AcDbLine
 10
245.4349174522053
 20
273.2229377451558
 30
0.0
 11
245.4349174522053
 21
275.2229377451557
 31
0.0
  0
LINE
  5
1145
330
1F
100
AcDbEntity
  8
2_カバ_
  6
Continuous
100
AcDbLine
 10
246.4349174522053
 20
273.2229377451558
 30
0.0
 11
246.4349174522053
 21
275.2229377451557
 31
0.0
  0
LINE
  5
1146
330
1F
100
AcDbEntity
  8
2_カバ_
  6
Continuous
100
AcDbLine
 10
243.9349174522053
 20
270.2229377451558
 30
0.0
 11
243.9349174522053
 21
275.2229377451557
 31
0.0
  0
ARC
  5
1147
330
1F
100
AcDbEntity
  8
2_カバ_
  6
Continuous
100
AcDbCircle
 10
243.4349174522053
 20
270.2229377451558
 30
0.0
 40
0.5
100
AcDbArc
 50
270.0
 51
0.0
  0
LINE
  5
1148
330
1F
100
AcDbEntity
  8
2_カバ_
  6
Continuous
100
AcDbLine
 10
243.4349174522053
 20
269.7229377451558
 30
0.0
 11
240.9349174522053
 21
269.7229377451558
 31
0.0
  0
LINE
  5
1149
330
1F
100
AcDbEntity
  8
2_カバ_
  6
Continuous
100
AcDbLine
 10
247.4349174522053
 20
273.2229377451558
 30
0.0
 11
245.4349174522053
 21
273.2229377451558
 31
0.0
  0
LINE
  5
114A
330
1F
100
AcDbEntity
  8
2_カバ_
  6
Continuous
100
AcDbLine
 10
247.4349174522053
 20
268.2229377451558
 30
0.0
 11
245.4349174522053
 21
268.2229377451558
 31
0.0
  0
LINE
  5
114B
330
1F
100
AcDbEntity
  8
2_カバ_
  6
Continuous
100
AcDbLine
 10
247.4349174522053
 20
266.2229377451558
 30
0.0
 11
245.4349174522053
 21
266.2229377451558
 31
0.0
  0
LINE
  5
114C
330
1F
100
AcDbEntity
  8
2_カバ_
  6
Continuous
100
AcDbLine
 10
245.4349174522053
 20
266.2229377451558
 30
0.0
 11
245.4349174522053
 21
268.2229377451558
 31
0.0
  0
LINE
  5
114D
330
1F
100
AcDbEntity
  8
2_カバ_
  6
Continuous
100
AcDbLine
 10
246.4349174522053
 20
266.2229377451558
 30
0.0
 11
246.4349174522053
 21
268.2229377451558
 31
0.0
  0
LINE
  5
114E
330
1F
100
AcDbEntity
  8
2_カバ_
  6
Continuous
100
AcDbLine
 10
243.4349174522053
 20
275.7229377451557
 30
0.0
 11
240.9349174522053
 21
275.7229377451567
 31
0.0
  0
ARC
  5
114F
330
1F
100
AcDbEntity
  8
2_カバ_
  6
Continuous
100
AcDbCircle
 10
243.4349174522053
 20
275.2229377451557
 30
0.0
 40
0.5
100
AcDbArc
 50
0.0
 51
90.0
  0
LINE
  5
1150
330
1F
100
AcDbEntity
  8
2_カバ_
  6
Continuous
100
AcDbLine
 10
247.4349174522053
 20
275.2229377451557
 30
0.0
 11
245.4349174522053
 21
275.2229377451557
 31
0.0
  0
LINE
  5
1151
330
1F
100
AcDbEntity
  8
2_カバ_
  6
Continuous
100
AcDbLine
 10
245.4349174522053
 20
280.2229377451558
 30
0.0
 11
245.4349174522053
 21
282.2229377451557
 31
0.0
  0
LINE
  5
1152
330
1F
100
AcDbEntity
  8
2_カバ_
  6
Continuous
100
AcDbLine
 10
246.4349174522053
 20
280.2229377451558
 30
0.0
 11
246.4349174522053
 21
282.2229377451557
 31
0.0
  0
LINE
  5
1156
330
1F
100
AcDbEntity
  8
0
100
AcDbLine
 10
237.8849174522053
 20
307.6229377451558
 30
0.0
 11
237.8849174522053
 21
304.2229377451556
 31
0.0
  0
ENDSEC
  0
SECTION
  2
OBJECTS
  0
DICTIONARY
  5
C
330
0
100
AcDbDictionary
281
     1
  3
ACAD_GROUP
350
D
  3
ACAD_LAYOUT
350
1A
  3
ACAD_MLINESTYLE
350
17
  3
ACAD_PLOTSETTINGS
350
19
  3
ACAD_PLOTSTYLENAME
350
E
  3
ACDBHEADERROUNDTRIPXREC
350
1168
  3
AcDbVariableDictionary
350
8CD
  0
DICTIONARY
  5
4C8
330
2
100
AcDbDictionary
280
     1
281
     1
  3
ACAD_LAYERSTATES
360
4C9
  0
DICTIONARY
  5
D
102
{ACAD_REACTORS
330
C
102
}
330
C
100
AcDbDictionary
281
     1
  0
DICTIONARY
  5
1A
102
{ACAD_REACTORS
330
C
102
}
330
C
100
AcDbDictionary
281
     1
  3
Model
350
22
  3
ﾚｲｱｳﾄ1
350
1E
  3
ﾚｲｱｳﾄ2
350
26
  0
DICTIONARY
  5
17
102
{ACAD_REACTORS
330
C
102
}
330
C
100
AcDbDictionary
281
     1
  3
Standard
350
18
  0
DICTIONARY
  5
19
102
{ACAD_REACTORS
330
C
102
}
330
C
100
AcDbDictionary
281
     1
  0
ACDBDICTIONARYWDFLT
  5
E
102
{ACAD_REACTORS
330
C
102
}
330
C
100
AcDbDictionary
281
     1
  3
Normal
350
F
100
AcDbDictionaryWithDefault
340
F
  0
DICTIONARY
  5
1168
102
{ACAD_REACTORS
330
C
102
}
330
C
100
AcDbDictionary
281
     1
  3
CEPSNTYPE
350
1172
  3
DIMSTYLEDATA
350
1176
  3
FINGERPRINTGUID
350
1173
  3
HYPERLINKBASE
350
116B
  3
INSUNITS
350
1171
  3
LAYOUTDICT
350
116D
  3
LWETCUNION
350
1170
  3
PLOTSETDICT
350
116E
  3
PLOTSTYLNAMDICT
350
116F
  3
PSVPSCALE
350
1175
  3
PUCSBASE
350
1179
  3
PUCSORGBACK
350
117F
  3
PUCSORGBOTTOM
350
117B
  3
PUCSORGFRONT
350
117E
  3
PUCSORGLEFT
350
117C
  3
PUCSORGRIGHT
350
117D
  3
PUCSORGTOP
350
117A
  3
PUCSORTHOREF
350
1177
  3
PUCSORTHOVIEW
350
1178
  3
STYLESHEET
350
116C
  3
TSTACKALIGN
350
1169
  3
TSTACKSIZE
350
116A
  3
UCSBASE
350
1182
  3
UCSORGBACK
350
1188
  3
UCSORGBOTTOM
350
1184
  3
UCSORGFRONT
350
1187
  3
UCSORGLEFT
350
1185
  3
UCSORGRIGHT
350
1186
  3
UCSORGTOP
350
1183
  3
UCSORTHOREF
350
1180
  3
UCSORTHOVIEW
350
1181
  3
VERSIONGUID
350
1174
  0
DICTIONARY
  5
8CD
102
{ACAD_REACTORS
330
C
102
}
330
C
100
AcDbDictionary
281
     1
  3
DIMASSOC
350
8CF
  3
HIDETEXT
350
8CE
  0
DICTIONARY
  5
4C9
102
{ACAD_REACTORS
330
4C8
102
}
330
4C8
100
AcDbDictionary
281
     1
  0
LAYOUT
  5
22
102
{ACAD_REACTORS
330
1A
102
}
330
1A
100
AcDbPlotSettings
  1

  2
8F大型複合機B_C7780
  4

  6

 40
0.0
 41
0.0
 42
0.0
 43
0.0
 44
0.0
 45
0.0
 46
0.0
 47
0.0
 48
0.0
 49
0.0
140
0.0
141
0.0
142
1.0
143
1.0
 70
  1712
 72
     0
 73
     0
 74
     0
  7

 75
     0
147
1.0
148
0.0
149
0.0
100
AcDbLayout
  1
Model
 70
     1
 71
     0
 10
0.0
 20
0.0
 11
12.0
 21
9.0
 12
0.0
 22
0.0
 32
0.0
 14
0.0
 24
0.0
 34
0.0
 15
0.0
 25
0.0
 35
0.0
146
0.0
 13
0.0
 23
0.0
 33
0.0
 16
1.0
 26
0.0
 36
0.0
 17
0.0
 27
1.0
 37
0.0
 76
     0
330
1F
  0
LAYOUT
  5
1E
102
{ACAD_REACTORS
330
1A
102
}
330
1A
100
AcDbPlotSettings
  1

  2
8F大型複合機B_C7780
  4

  6

 40
0.0
 41
0.0
 42
0.0
 43
0.0
 44
0.0
 45
0.0
 46
0.0
 47
0.0
 48
0.0
 49
0.0
140
0.0
141
0.0
142
1.0
143
1.0
 70
   688
 72
     0
 73
     0
 74
     5
  7

 75
    16
147
1.0
148
0.0
149
0.0
100
AcDbLayout
  1
ﾚｲｱｳﾄ1
 70
     1
 71
     1
 10
0.0
 20
0.0
 11
420.0
 21
297.0
 12
0.0
 22
0.0
 32
0.0
 14
1.000000000000000E+20
 24
1.000000000000000E+20
 34
1.000000000000000E+20
 15
-1.000000000000000E+20
 25
-1.000000000000000E+20
 35
-1.000000000000000E+20
146
0.0
 13
0.0
 23
0.0
 33
0.0
 16
1.0
 26
0.0
 36
0.0
 17
0.0
 27
1.0
 37
0.0
 76
     0
330
1B
  0
LAYOUT
  5
26
102
{ACAD_REACTORS
330
1A
102
}
330
1A
100
AcDbPlotSettings
  1

  2
8F大型複合機B_C7780
  4

  6

 40
0.0
 41
0.0
 42
0.0
 43
0.0
 44
0.0
 45
0.0
 46
0.0
 47
0.0
 48
0.0
 49
0.0
140
0.0
141
0.0
142
1.0
143
1.0
 70
   688
 72
     0
 73
     0
 74
     5
  7

 75
    16
147
1.0
148
0.0
149
0.0
100
AcDbLayout
  1
ﾚｲｱｳﾄ2
 70
     1
 71
     2
 10
0.0
 20
0.0
 11
12.0
 21
9.0
 12
0.0
 22
0.0
 32
0.0
 14
0.0
 24
0.0
 34
0.0
 15
0.0
 25
0.0
 35
0.0
146
0.0
 13
0.0
 23
0.0
 33
0.0
 16
1.0
 26
0.0
 36
0.0
 17
0.0
 27
1.0
 37
0.0
 76
     0
330
23
  0
MLINESTYLE
  5
18
102
{ACAD_REACTORS
330
17
102
}
330
17
100
AcDbMlineStyle
  2
STANDARD
 70
     0
  3

 62
   256
 51
90.0
 52
90.0
 71
     2
 49
0.5
 62
   256
  6
BYLAYER
 49
-0.5
 62
   256
  6
BYLAYER
  0
ACDBPLACEHOLDER
  5
F
102
{ACAD_REACTORS
330
E
102
}
330
E
  0
XRECORD
  5
1172
102
{ACAD_REACTORS
330
1168
102
}
330
1168
100
AcDbXrecord
280
     1
 90
        0
  0
XRECORD
  5
1176
102
{ACAD_REACTORS
330
1168
102
}
330
1168
100
AcDbXrecord
280
     1
1000
DSTYLE
1002
{
1070
    79
 70
     2
1070
   179
 70
     5
1070
   276
 70
     2
1070
   341
340
9F6
1070
   342
340
9F6
1070
   371
 70
    -1
1070
   372
 70
    -1
1002
}
  0
XRECORD
  5
1173
102
{ACAD_REACTORS
330
1168
102
}
330
1168
100
AcDbXrecord
280
     1
  1
{6D6E30E4-4B3E-490F-9FE7-04AA8BA112B8}
  0
XRECORD
  5
116B
102
{ACAD_REACTORS
330
1168
102
}
330
1168
100
AcDbXrecord
280
     1
  1

  0
XRECORD
  5
1171
102
{ACAD_REACTORS
330
1168
102
}
330
1168
100
AcDbXrecord
280
     1
 90
        4
  0
XRECORD
  5
116D
102
{ACAD_REACTORS
330
1168
102
}
330
1168
100
AcDbXrecord
280
     1
340
1A
  0
XRECORD
  5
1170
102
{ACAD_REACTORS
330
1168
102
}
330
1168
100
AcDbXrecord
280
     1
 90
    10781
  0
XRECORD
  5
116E
102
{ACAD_REACTORS
330
1168
102
}
330
1168
100
AcDbXrecord
280
     1
340
19
  0
XRECORD
  5
116F
102
{ACAD_REACTORS
330
1168
102
}
330
1168
100
AcDbXrecord
280
     1
340
E
  0
XRECORD
  5
1175
102
{ACAD_REACTORS
330
1168
102
}
330
1168
100
AcDbXrecord
280
     1
 40
0.0
  0
XRECORD
  5
1179
102
{ACAD_REACTORS
330
1168
102
}
330
1168
100
AcDbXrecord
280
     1
340
0
  0
XRECORD
  5
117F
102
{ACAD_REACTORS
330
1168
102
}
330
1168
100
AcDbXrecord
280
     1
 10
0.0
 20
0.0
 30
0.0
  0
XRECORD
  5
117B
102
{ACAD_REACTORS
330
1168
102
}
330
1168
100
AcDbXrecord
280
     1
 10
0.0
 20
0.0
 30
0.0
  0
XRECORD
  5
117E
102
{ACAD_REACTORS
330
1168
102
}
330
1168
100
AcDbXrecord
280
     1
 10
0.0
 20
0.0
 30
0.0
  0
XRECORD
  5
117C
102
{ACAD_REACTORS
330
1168
102
}
330
1168
100
AcDbXrecord
280
     1
 10
0.0
 20
0.0
 30
0.0
  0
XRECORD
  5
117D
102
{ACAD_REACTORS
330
1168
102
}
330
1168
100
AcDbXrecord
280
     1
 10
0.0
 20
0.0
 30
0.0
  0
XRECORD
  5
117A
102
{ACAD_REACTORS
330
1168
102
}
330
1168
100
AcDbXrecord
280
     1
 10
0.0
 20
0.0
 30
0.0
  0
XRECORD
  5
1177
102
{ACAD_REACTORS
330
1168
102
}
330
1168
100
AcDbXrecord
280
     1
340
0
  0
XRECORD
  5
1178
102
{ACAD_REACTORS
330
1168
102
}
330
1168
100
AcDbXrecord
280
     1
 70
     0
  0
XRECORD
  5
116C
102
{ACAD_REACTORS
330
1168
102
}
330
1168
100
AcDbXrecord
280
     1
  1

  0
XRECORD
  5
1169
102
{ACAD_REACTORS
330
1168
102
}
330
1168
100
AcDbXrecord
280
     1
 90
        1
  0
XRECORD
  5
116A
102
{ACAD_REACTORS
330
1168
102
}
330
1168
100
AcDbXrecord
280
     1
 90
       70
  0
XRECORD
  5
1182
102
{ACAD_REACTORS
330
1168
102
}
330
1168
100
AcDbXrecord
280
     1
340
0
  0
XRECORD
  5
1188
102
{ACAD_REACTORS
330
1168
102
}
330
1168
100
AcDbXrecord
280
     1
 10
0.0
 20
0.0
 30
0.0
  0
XRECORD
  5
1184
102
{ACAD_REACTORS
330
1168
102
}
330
1168
100
AcDbXrecord
280
     1
 10
0.0
 20
0.0
 30
0.0
  0
XRECORD
  5
1187
102
{ACAD_REACTORS
330
1168
102
}
330
1168
100
AcDbXrecord
280
     1
 10
0.0
 20
0.0
 30
0.0
  0
XRECORD
  5
1185
102
{ACAD_REACTORS
330
1168
102
}
330
1168
100
AcDbXrecord
280
     1
 10
0.0
 20
0.0
 30
0.0
  0
XRECORD
  5
1186
102
{ACAD_REACTORS
330
1168
102
}
330
1168
100
AcDbXrecord
280
     1
 10
0.0
 20
0.0
 30
0.0
  0
XRECORD
  5
1183
102
{ACAD_REACTORS
330
1168
102
}
330
1168
100
AcDbXrecord
280
     1
 10
0.0
 20
0.0
 30
0.0
  0
XRECORD
  5
1180
102
{ACAD_REACTORS
330
1168
102
}
330
1168
100
AcDbXrecord
280
     1
340
0
  0
XRECORD
  5
1181
102
{ACAD_REACTORS
330
1168
102
}
330
1168
100
AcDbXrecord
280
     1
 70
     0
  0
XRECORD
  5
1174
102
{ACAD_REACTORS
330
1168
102
}
330
1168
100
AcDbXrecord
280
     1
  1
{64BFA8D8-69EC-495E-B394-19DC85D4CFFE}
  0
DICTIONARYVAR
  5
8CF
102
{ACAD_REACTORS
330
8CD
102
}
330
8CD
100
DictionaryVariables
280
     0
  1
2
  0
DICTIONARYVAR
  5
8CE
102
{ACAD_REACTORS
330
8CD
102
}
330
8CD
100
DictionaryVariables
280
     0
  1
1
  0
ENDSEC
  0
EOF
