  0
SECTION
  2
HEADER
  9
$ACADVER
  1
AC1015
  9
$ACADMAINTVER
 70
    20
  9
$DWGCODEPAGE
  3
ANSI_932
  9
$INSBASE
 10
0.0
 20
0.0
 30
0.0
  9
$EXTMIN
 10
-2.351641724060759
 20
0.0000036460284037
 30
0.0
  9
$EXTMAX
 10
278.9999953209118
 20
407.408827203625
 30
6.483974233579615E+99
  9
$LIMMIN
 10
0.0
 20
0.0
  9
$LIMMAX
 10
420.0
 20
297.0
  9
$ORTHOMODE
 70
     0
  9
$REGENMODE
 70
     1
  9
$FILLMODE
 70
     1
  9
$QTEXTMODE
 70
     0
  9
$MIRRTEXT
 70
     1
  9
$LTSCALE
 40
1.0
  9
$ATTMODE
 70
     1
  9
$TEXTSIZE
 40
2.5
  9
$TRACEWID
 40
1.0
  9
$TEXTSTYLE
  7
STANDARD
  9
$CLAYER
  8
0
  9
$CELTYPE
  6
BYLAYER
  9
$CECOLOR
 62
   256
  9
$CELTSCALE
 40
1.0
  9
$DISPSILH
 70
     0
  9
$DIMSCALE
 40
1.0
  9
$DIMASZ
 40
2.5
  9
$DIMEXO
 40
0.625
  9
$DIMDLI
 40
3.75
  9
$DIMRND
 40
0.0
  9
$DIMDLE
 40
0.0
  9
$DIMEXE
 40
1.25
  9
$DIMTP
 40
0.0
  9
$DIMTM
 40
0.0
  9
$DIMTXT
 40
2.5
  9
$DIMCEN
 40
2.5
  9
$DIMTSZ
 40
0.0
  9
$DIMTOL
 70
     0
  9
$DIMLIM
 70
     0
  9
$DIMTIH
 70
     0
  9
$DIMTOH
 70
     0
  9
$DIMSE1
 70
     0
  9
$DIMSE2
 70
     0
  9
$DIMTAD
 70
     1
  9
$DIMZIN
 70
     8
  9
$DIMBLK
  1

  9
$DIMASO
 70
     1
  9
$DIMSHO
 70
     1
  9
$DIMPOST
  1

  9
$DIMAPOST
  1

  9
$DIMALT
 70
     0
  9
$DIMALTD
 70
     3
  9
$DIMALTF
 40
0.03937007874016
  9
$DIMLFAC
 40
1.0
  9
$DIMTOFL
 70
     1
  9
$DIMTVP
 40
0.0
  9
$DIMTIX
 70
     0
  9
$DIMSOXD
 70
     0
  9
$DIMSAH
 70
     0
  9
$DIMBLK1
  1

  9
$DIMBLK2
  1

  9
$DIMSTYLE
  2
ISO-25
  9
$DIMCLRD
 70
     0
  9
$DIMCLRE
 70
     0
  9
$DIMCLRT
 70
     0
  9
$DIMTFAC
 40
1.0
  9
$DIMGAP
 40
0.625
  9
$DIMJUST
 70
     0
  9
$DIMSD1
 70
     0
  9
$DIMSD2
 70
     0
  9
$DIMTOLJ
 70
     0
  9
$DIMTZIN
 70
     8
  9
$DIMALTZ
 70
     0
  9
$DIMALTTZ
 70
     0
  9
$DIMUPT
 70
     0
  9
$DIMDEC
 70
     2
  9
$DIMTDEC
 70
     2
  9
$DIMALTU
 70
     2
  9
$DIMALTTD
 70
     3
  9
$DIMTXSTY
  7
STANDARD
  9
$DIMAUNIT
 70
     0
  9
$DIMADEC
 70
     0
  9
$DIMALTRND
 40
0.0
  9
$DIMAZIN
 70
     0
  9
$DIMDSEP
 70
    46
  9
$DIMATFIT
 70
     3
  9
$DIMFRAC
 70
     0
  9
$DIMLDRBLK
  1

  9
$DIMLUNIT
 70
     2
  9
$DIMLWD
 70
    -2
  9
$DIMLWE
 70
    -2
  9
$DIMTMOVE
 70
     0
  9
$LUNITS
 70
     2
  9
$LUPREC
 70
     4
  9
$SKETCHINC
 40
1.0
  9
$FILLETRAD
 40
10.0
  9
$AUNITS
 70
     0
  9
$AUPREC
 70
     0
  9
$MENU
  1
.
  9
$ELEVATION
 40
0.0
  9
$PELEVATION
 40
0.0
  9
$THICKNESS
 40
0.0
  9
$LIMCHECK
 70
     0
  9
$CHAMFERA
 40
10.0
  9
$CHAMFERB
 40
10.0
  9
$CHAMFERC
 40
20.0
  9
$CHAMFERD
 40
0.0
  9
$SKPOLY
 70
     0
  9
$TDCREATE
 40
2455874.701650475
  9
$TDUCREATE
 40
2455874.326650475
  9
$TDUPDATE
 40
2456953.587405614
  9
$TDUUPDATE
 40
2456953.212405614
  9
$TDINDWG
 40
0.0082918519
  9
$TDUSRTIMER
 40
0.0082913194
  9
$USRTIMER
 70
     1
  9
$ANGBASE
 50
0.0
  9
$ANGDIR
 70
     0
  9
$PDMODE
 70
     0
  9
$PDSIZE
 40
0.0
  9
$PLINEWID
 40
0.0
  9
$SPLFRAME
 70
     0
  9
$SPLINETYPE
 70
     6
  9
$SPLINESEGS
 70
     8
  9
$HANDSEED
  5
E99
  9
$SURFTAB1
 70
     6
  9
$SURFTAB2
 70
     6
  9
$SURFTYPE
 70
     6
  9
$SURFU
 70
     6
  9
$SURFV
 70
     6
  9
$UCSBASE
  2

  9
$UCSNAME
  2

  9
$UCSORG
 10
0.0
 20
0.0
 30
0.0
  9
$UCSXDIR
 10
1.0
 20
0.0
 30
0.0
  9
$UCSYDIR
 10
0.0
 20
1.0
 30
0.0
  9
$UCSORTHOREF
  2

  9
$UCSORTHOVIEW
 70
     0
  9
$UCSORGTOP
 10
0.0
 20
0.0
 30
0.0
  9
$UCSORGBOTTOM
 10
0.0
 20
0.0
 30
0.0
  9
$UCSORGLEFT
 10
0.0
 20
0.0
 30
0.0
  9
$UCSORGRIGHT
 10
0.0
 20
0.0
 30
0.0
  9
$UCSORGFRONT
 10
0.0
 20
0.0
 30
0.0
  9
$UCSORGBACK
 10
0.0
 20
0.0
 30
0.0
  9
$PUCSBASE
  2

  9
$PUCSNAME
  2

  9
$PUCSORG
 10
0.0
 20
0.0
 30
0.0
  9
$PUCSXDIR
 10
1.0
 20
0.0
 30
0.0
  9
$PUCSYDIR
 10
0.0
 20
1.0
 30
0.0
  9
$PUCSORTHOREF
  2

  9
$PUCSORTHOVIEW
 70
     0
  9
$PUCSORGTOP
 10
0.0
 20
0.0
 30
0.0
  9
$PUCSORGBOTTOM
 10
0.0
 20
0.0
 30
0.0
  9
$PUCSORGLEFT
 10
0.0
 20
0.0
 30
0.0
  9
$PUCSORGRIGHT
 10
0.0
 20
0.0
 30
0.0
  9
$PUCSORGFRONT
 10
0.0
 20
0.0
 30
0.0
  9
$PUCSORGBACK
 10
0.0
 20
0.0
 30
0.0
  9
$USERI1
 70
     0
  9
$USERI2
 70
     0
  9
$USERI3
 70
     0
  9
$USERI4
 70
     0
  9
$USERI5
 70
     0
  9
$USERR1
 40
0.0
  9
$USERR2
 40
0.0
  9
$USERR3
 40
0.0
  9
$USERR4
 40
0.0
  9
$USERR5
 40
0.0
  9
$WORLDVIEW
 70
     1
  9
$SHADEDGE
 70
     3
  9
$SHADEDIF
 70
    70
  9
$TILEMODE
 70
     1
  9
$MAXACTVP
 70
    64
  9
$PINSBASE
 10
0.0
 20
0.0
 30
0.0
  9
$PLIMCHECK
 70
     0
  9
$PEXTMIN
 10
1.000000000000000E+20
 20
1.000000000000000E+20
 30
1.000000000000000E+20
  9
$PEXTMAX
 10
-1.000000000000000E+20
 20
-1.000000000000000E+20
 30
-1.000000000000000E+20
  9
$PLIMMIN
 10
0.0
 20
0.0
  9
$PLIMMAX
 10
420.0
 20
297.0
  9
$UNITMODE
 70
     0
  9
$VISRETAIN
 70
     1
  9
$PLINEGEN
 70
     0
  9
$PSLTSCALE
 70
     1
  9
$TREEDEPTH
 70
  3020
  9
$CMLSTYLE
  2
STANDARD
  9
$CMLJUST
 70
     0
  9
$CMLSCALE
 40
20.0
  9
$PROXYGRAPHICS
 70
     1
  9
$MEASUREMENT
 70
     1
  9
$CELWEIGHT
370
    -1
  9
$ENDCAPS
280
     0
  9
$JOINSTYLE
280
     0
  9
$LWDISPLAY
290
     0
  9
$INSUNITS
 70
     4
  9
$HYPERLINKBASE
  1

  9
$STYLESHEET
  1

  9
$XEDIT
290
     1
  9
$CEPSNTYPE
380
     0
  9
$PSTYLEMODE
290
     1
  9
$FINGERPRINTGUID
  2
{9BAE1BD8-ED4E-4C9B-BBA1-95FF88811CCB}
  9
$VERSIONGUID
  2
{2702B31E-3083-4AD2-9237-DAA6375618D2}
  9
$EXTNAMES
290
     1
  9
$PSVPSCALE
 40
0.0
  9
$OLESTARTUP
290
     0
  0
ENDSEC
  0
SECTION
  2
CLASSES
  0
CLASS
  1
ACDBDICTIONARYWDFLT
  2
AcDbDictionaryWithDefault
  3
ObjectDBX Classes
 90
        0
280
     0
281
     0
  0
CLASS
  1
ACDBPLACEHOLDER
  2
AcDbPlaceHolder
  3
ObjectDBX Classes
 90
        0
280
     0
281
     0
  0
CLASS
  1
LAYOUT
  2
AcDbLayout
  3
ObjectDBX Classes
 90
        0
280
     0
281
     0
  0
CLASS
  1
DICTIONARYVAR
  2
AcDbDictionaryVar
  3
ObjectDBX Classes
 90
        0
280
     0
281
     0
  0
ENDSEC
  0
SECTION
  2
TABLES
  0
TABLE
  2
VPORT
  5
8
330
0
100
AcDbSymbolTable
 70
     2
  0
VPORT
  5
E91
330
8
100
AcDbSymbolTableRecord
100
AcDbViewportTableRecord
  2
*Active
 70
     0
 10
0.0
 20
0.0
 11
1.0
 21
1.0
 12
208.8241791379696
 22
222.3825146211803
 13
0.0
 23
0.0
 14
10.0
 24
10.0
 15
10.0
 25
10.0
 16
0.0
 26
0.0
 36
1.0
 17
0.0
 27
0.0
 37
0.0
 40
447.8631952287003
 41
1.383027522935779
 42
50.0
 43
0.0
 44
0.0
 50
0.0
 51
0.0
 71
     0
 72
   100
 73
     1
 74
     3
 75
     0
 76
     0
 77
     0
 78
     0
281
     0
 65
     1
110
0.0
120
0.0
130
0.0
111
1.0
121
0.0
131
0.0
112
0.0
122
1.0
132
0.0
 79
     0
146
0.0
  0
ENDTAB
  0
TABLE
  2
LTYPE
  5
5
330
0
100
AcDbSymbolTable
 70
     3
  0
LTYPE
  5
14
330
5
100
AcDbSymbolTableRecord
100
AcDbLinetypeTableRecord
  2
BYBLOCK
 70
     0
  3

 72
    65
 73
     0
 40
0.0
  0
LTYPE
  5
15
330
5
100
AcDbSymbolTableRecord
100
AcDbLinetypeTableRecord
  2
BYLAYER
 70
     0
  3

 72
    65
 73
     0
 40
0.0
  0
LTYPE
  5
16
330
5
100
AcDbSymbolTableRecord
100
AcDbLinetypeTableRecord
  2
CONTINUOUS
 70
     0
  3
Solid line
 72
    65
 73
     0
 40
0.0
  0
LTYPE
  5
2AC
330
5
100
AcDbSymbolTableRecord
100
AcDbLinetypeTableRecord
  2
CENTER
 70
     0
  3
__ . __ . __ . __ . __ . __ . __ . __ . __ . __
 72
    65
 73
     4
 40
1.0
 49
0.5
 74
     0
 49
-0.25
 74
     0
 49
0.0
 74
     0
 49
-0.25
 74
     0
  0
LTYPE
  5
9DA
330
5
100
AcDbSymbolTableRecord
100
AcDbLinetypeTableRecord
  2
DASHDOT
 70
     0
  3
__ . __ . __ . __ . __ . __ . __ . __ . __ . __
 72
    65
 73
     4
 40
7.5
 49
6.0
 74
     0
 49
-0.5
 74
     0
 49
0.5
 74
     0
 49
-0.5
 74
     0
  0
ENDTAB
  0
TABLE
  2
LAYER
  5
2
102
{ACAD_XDICTIONARY
360
2B2
102
}
330
0
100
AcDbSymbolTable
 70
     4
  0
LAYER
  5
10
330
2
100
AcDbSymbolTableRecord
100
AcDbLayerTableRecord
  2
0
 70
     0
 62
     7
  6
CONTINUOUS
370
    -3
390
F
  0
LAYER
  5
2AE
330
2
100
AcDbSymbolTableRecord
100
AcDbLayerTableRecord
  2
DEFPOINTS
 70
     0
 62
    -7
  6
CONTINUOUS
290
     0
370
    -3
390
F
  0
LAYER
  5
2AF
330
2
100
AcDbSymbolTableRecord
100
AcDbLayerTableRecord
  2
1
 70
     0
 62
     3
  6
CONTINUOUS
370
    -3
390
F
  0
LAYER
  5
9DB
330
2
100
AcDbSymbolTableRecord
100
AcDbLayerTableRecord
  2
2_カバ_
 70
     0
 62
     7
  6
CONTINUOUS
370
    -3
390
F
  0
ENDTAB
  0
TABLE
  2
STYLE
  5
3
330
0
100
AcDbSymbolTable
 70
     1
  0
STYLE
  5
11
330
3
100
AcDbSymbolTableRecord
100
AcDbTextStyleTableRecord
  2
STANDARD
 70
     0
 40
0.0
 41
1.0
 50
0.0
 71
     0
 42
2.5
  3
txt
  4

  0
ENDTAB
  0
TABLE
  2
VIEW
  5
6
330
0
100
AcDbSymbolTable
 70
     0
  0
ENDTAB
  0
TABLE
  2
UCS
  5
7
330
0
100
AcDbSymbolTable
 70
     0
  0
ENDTAB
  0
TABLE
  2
APPID
  5
9
330
0
100
AcDbSymbolTable
 70
     1
  0
APPID
  5
12
330
9
100
AcDbSymbolTableRecord
100
AcDbRegAppTableRecord
  2
ACAD
 70
     0
  0
ENDTAB
  0
TABLE
  2
DIMSTYLE
  5
A
330
0
100
AcDbSymbolTable
 70
     2
100
AcDbDimStyleTable
 71
     0
  0
DIMSTYLE
105
27
330
A
100
AcDbSymbolTableRecord
100
AcDbDimStyleTableRecord
  2
ISO-25
 70
     0
 41
2.5
 42
0.625
 43
3.75
 44
1.25
 73
     0
 74
     0
 77
     1
 78
     8
140
2.5
141
2.5
143
0.03937007874016
147
0.625
171
     3
172
     1
271
     2
272
     2
274
     3
283
     0
284
     8
340
11
  0
DIMSTYLE
105
2B1
330
A
100
AcDbSymbolTableRecord
100
AcDbDimStyleTableRecord
  2
STANDARD
 70
     0
 41
2.5
 42
0.625
 43
3.75
 44
1.25
 73
     0
 74
     0
 77
     1
 78
     8
140
2.5
141
2.5
143
0.0394
147
0.625
171
     4
172
     1
273
     8
274
     4
340
11
  0
ENDTAB
  0
TABLE
  2
BLOCK_RECORD
  5
1
330
0
100
AcDbSymbolTable
 70
     1
  0
BLOCK_RECORD
  5
1F
102
{ACAD_XDICTIONARY
360
900
102
}
330
1
100
AcDbSymbolTableRecord
100
AcDbBlockTableRecord
  2
*MODEL_SPACE
340
E8D
  0
BLOCK_RECORD
  5
1B
102
{ACAD_XDICTIONARY
360
8FE
102
}
330
1
100
AcDbSymbolTableRecord
100
AcDbBlockTableRecord
  2
*PAPER_SPACE
340
E8E
  0
BLOCK_RECORD
  5
236
330
1
100
AcDbSymbolTableRecord
100
AcDbBlockTableRecord
  2
A$C5CFD6E8C
340
0
102
{BLKREFS
331
704
331
705
102
}
  0
ENDTAB
  0
ENDSEC
  0
SECTION
  2
BLOCKS
  0
BLOCK
  5
20
330
1F
100
AcDbEntity
  8
0
100
AcDbBlockBegin
  2
*MODEL_SPACE
 70
     0
 10
0.0
 20
0.0
 30
0.0
  3
*MODEL_SPACE
  1

  0
ENDBLK
  5
21
330
1F
100
AcDbEntity
  8
0
100
AcDbBlockEnd
  0
BLOCK
  5
1C
330
1B
100
AcDbEntity
 67
     1
  8
0
100
AcDbBlockBegin
  2
*PAPER_SPACE
 70
     0
 10
0.0
 20
0.0
 30
0.0
  3
*PAPER_SPACE
  1

  0
ENDBLK
  5
1D
330
1B
100
AcDbEntity
 67
     1
  8
0
100
AcDbBlockEnd
  0
BLOCK
  5
23B
330
236
100
AcDbEntity
  8
0
 48
5.0
100
AcDbBlockBegin
  2
A$C5CFD6E8C
 70
     0
 10
0.0
 20
0.0
 30
0.0
  3
A$C5CFD6E8C
  1

  0
LINE
  5
237
330
236
100
AcDbEntity
  8
0
 62
     0
100
AcDbLine
 10
1.599997211020308
 20
2.70000247964549
 30
0.0
 11
1.599997211020308
 21
0.0000024796447633
 31
0.0
  0
LINE
  5
238
330
236
100
AcDbEntity
  8
0
 62
     0
100
AcDbLine
 10
-0.0000027889800549
 20
0.0000024796447633
 30
0.0
 11
-0.0000027889800549
 21
2.70000247964549
 31
0.0
  0
LINE
  5
239
330
236
100
AcDbEntity
  8
0
  6
CENTER
 62
     0
100
AcDbLine
 10
1.599997211020308
 20
2.70000247964549
 30
0.0
 11
-0.0000027889800549
 21
2.70000247964549
 31
0.0
  0
LINE
  5
23A
330
236
100
AcDbEntity
  8
0
  6
CENTER
 62
     0
100
AcDbLine
 10
1.599997211020308
 20
0.0000024796447633
 30
0.0
 11
-0.0000027889800549
 21
0.0000024796447633
 31
0.0
  0
ENDBLK
  5
23C
330
236
100
AcDbEntity
  8
0
 48
5.0
100
AcDbBlockEnd
  0
ENDSEC
  0
SECTION
  2
ENTITIES
  0
LINE
  5
565
330
1F
100
AcDbEntity
  8
1
100
AcDbLine
 10
21.49999532091281
 20
359.9738177244593
 30
0.0
 11
36.49999532091283
 21
359.9738177244593
 31
0.0
  0
LINE
  5
566
330
1F
100
AcDbEntity
  8
1
100
AcDbLine
 10
21.49999532091281
 20
175.9738177244594
 30
0.0
 11
36.49999532091283
 21
175.9738177244594
 31
0.0
  0
LINE
  5
567
330
1F
100
AcDbEntity
  8
1
100
AcDbLine
 10
28.99999532091282
 20
352.4738177244593
 30
0.0
 11
28.99999532091282
 21
367.4738177244593
 31
0.0
  0
LINE
  5
568
330
1F
100
AcDbEntity
  8
1
100
AcDbLine
 10
28.99999532091282
 20
168.4738177244593
 30
0.0
 11
28.99999532091282
 21
183.4738177244594
 31
0.0
  0
LINE
  5
576
330
1F
100
AcDbEntity
  8
0
100
AcDbLine
 10
49.99999544283082
 20
267.5738175651154
 30
0.0
 11
38.59999544283072
 21
267.5738175651154
 31
0.0
  0
LINE
  5
577
330
1F
100
AcDbEntity
  8
0
100
AcDbLine
 10
-0.0000046790871693
 20
363.8949171672615
 30
0.0
 11
-0.0000046790871693
 21
172.0527182816586
 31
0.0
  0
LINE
  5
578
330
1F
100
AcDbEntity
  8
0
100
AcDbLine
 10
57.99999532091283
 20
363.9738177244593
 30
0.0
 11
57.99999532091283
 21
171.9738177244594
 31
0.0
  0
LINE
  5
579
330
1F
100
AcDbEntity
  8
0
100
AcDbLine
 10
0.9738183726049099
 20
364.8945744922365
 30
0.0
 11
3.99999532091283
 21
364.9738177244593
 31
0.0
  0
LINE
  5
57A
330
1F
100
AcDbEntity
  8
0
100
AcDbLine
 10
26.89999532091269
 20
175.9738177244594
 30
0.0
 11
26.89999532091269
 21
170.9738177244593
 31
0.0
  0
LINE
  5
57B
330
1F
100
AcDbEntity
  8
0
100
AcDbLine
 10
0.4869068467587569
 20
354.8818242652095
 30
0.0
 11
3.99999532091283
 21
354.9738177244593
 31
0.0
  0
LINE
  5
57C
330
1F
100
AcDbEntity
  8
0
100
AcDbLine
 10
0.4869068467587569
 20
181.0658111837091
 30
0.0
 11
3.99999532091283
 21
180.9738177244594
 31
0.0
  0
LINE
  5
57D
330
1F
100
AcDbEntity
  8
0
100
AcDbLine
 10
4.999995320912828
 20
201.6069981493723
 30
0.0
 11
4.999995320912828
 21
354.9476318028903
 31
0.0
  0
ARC
  5
57E
330
1F
100
AcDbEntity
  8
0
100
AcDbCircle
 10
4.299995320912785
 20
197.9738177244594
 30
0.0
 40
3.699999999995998
100
AcDbArc
 50
0.0
 51
79.09453000325775
  0
LINE
  5
57F
330
1F
100
AcDbEntity
  8
0
100
AcDbLine
 10
7.999995320908737
 20
197.9738177244594
 30
0.0
 11
7.999995320907827
 21
181.0785614107358
 31
0.0
  0
LINE
  5
580
330
1F
100
AcDbEntity
  8
0
100
AcDbLine
 10
0.9738183726049099
 20
171.053060956682
 30
0.0
 11
3.99999532091283
 21
170.9738177244593
 31
0.0
  0
LINE
  5
581
330
1F
100
AcDbEntity
  8
0
100
AcDbLine
 10
4.999995320912828
 20
350.9738177244593
 30
0.0
 11
5.013083795065766
 21
350.9741604582172
 31
0.0
  0
LINE
  5
582
330
1F
100
AcDbEntity
  8
0
100
AcDbLine
 10
3.99999532091283
 20
364.9738177244593
 30
0.0
 11
56.99999532091283
 21
364.9738177244593
 31
0.0
  0
LINE
  5
583
330
1F
100
AcDbEntity
  8
0
100
AcDbLine
 10
3.99999532091283
 20
354.9738177244593
 30
0.0
 11
4.999995320912828
 21
354.9476318028903
 31
0.0
  0
LINE
  5
584
330
1F
100
AcDbEntity
  8
0
100
AcDbLine
 10
3.99999532091283
 20
180.9738177244594
 30
0.0
 11
7.999995320907827
 21
181.0785614107358
 31
0.0
  0
LINE
  5
585
330
1F
100
AcDbEntity
  8
0
100
AcDbLine
 10
3.99999532091283
 20
170.9738177244593
 30
0.0
 11
26.89999532091269
 21
170.9738177244593
 31
0.0
  0
CIRCLE
  5
586
330
1F
100
AcDbEntity
  8
0
100
AcDbCircle
 10
28.99999532091282
 20
359.9738177244593
 30
0.0
 40
2.1
  0
ARC
  5
587
330
1F
100
AcDbEntity
  8
0
100
AcDbCircle
 10
28.99999532091282
 20
359.9738177244593
 30
0.0
 40
5.5
100
AcDbArc
 50
180.0
 51
245.3800226713515
  0
ARC
  5
588
330
1F
100
AcDbEntity
  8
0
100
AcDbCircle
 10
28.99999532091282
 20
175.9738177244594
 30
0.0
 40
5.5
100
AcDbArc
 50
0.0
 51
65.38002267135155
  0
ARC
  5
589
330
1F
100
AcDbEntity
  8
0
100
AcDbCircle
 10
28.99999532091282
 20
175.9738177244594
 30
0.0
 40
2.1
100
AcDbArc
 50
0.0
 51
180.0
  0
LINE
  5
58B
330
1F
100
AcDbEntity
  8
0
100
AcDbLine
 10
34.49999532091283
 20
359.9738177244593
 30
0.0
 11
34.49999532091283
 21
364.9738177244593
 31
0.0
  0
LINE
  5
58C
330
1F
100
AcDbEntity
  8
0
100
AcDbLine
 10
23.49999532091282
 20
359.9738177244593
 30
0.0
 11
23.49999532091282
 21
364.9738177244593
 31
0.0
  0
LINE
  5
58D
330
1F
100
AcDbEntity
  8
0
100
AcDbLine
 10
23.49999532091282
 20
175.9738177244594
 30
0.0
 11
23.49999532091282
 21
170.9738177244593
 31
0.0
  0
LINE
  5
58E
330
1F
100
AcDbEntity
  8
0
100
AcDbLine
 10
31.09999532091273
 20
175.9738177244594
 30
0.0
 11
31.09999532091273
 21
170.9738177244593
 31
0.0
  0
LINE
  5
58F
330
1F
100
AcDbEntity
  8
0
100
AcDbLine
 10
34.49999532091283
 20
175.9738177244594
 30
0.0
 11
34.49999532091283
 21
170.9738177244593
 31
0.0
  0
CIRCLE
  5
590
330
1F
100
AcDbEntity
  8
0
100
AcDbCircle
 10
3.99999532091283
 20
195.9738177244594
 30
0.0
 40
2.0
  0
CIRCLE
  5
591
330
1F
100
AcDbEntity
  8
0
100
AcDbCircle
 10
3.99999532091283
 20
195.9738177244594
 30
0.0
 40
1.6
  0
CIRCLE
  5
592
330
1F
100
AcDbEntity
  8
0
100
AcDbCircle
 10
3.99999532091283
 20
185.9738177244594
 30
0.0
 40
2.0
  0
CIRCLE
  5
593
330
1F
100
AcDbEntity
  8
0
100
AcDbCircle
 10
3.99999532091283
 20
185.9738177244594
 30
0.0
 40
1.6
  0
ARC
  5
594
330
1F
100
AcDbEntity
  8
0
100
AcDbCircle
 10
0.9999953209128308
 20
363.8949171672615
 30
0.0
 40
1.0
100
AcDbArc
 50
91.50000000000273
 51
180.0
  0
ARC
  5
595
330
1F
100
AcDbEntity
  8
0
100
AcDbCircle
 10
56.99999532091283
 20
363.9738177244593
 30
0.0
 40
1.0
100
AcDbArc
 50
0.0
 51
90.0
  0
ARC
  5
596
330
1F
100
AcDbEntity
  8
0
100
AcDbCircle
 10
0.9999953209128308
 20
172.0527182816586
 30
0.0
 40
1.0
100
AcDbArc
 50
180.0
 51
268.4999999999971
  0
ARC
  5
597
330
1F
100
AcDbEntity
  8
0
100
AcDbCircle
 10
56.99999532091283
 20
171.9738177244594
 30
0.0
 40
1.0
100
AcDbArc
 50
270.0
 51
0.0
  0
ARC
  5
598
330
1F
100
AcDbEntity
  8
0
100
AcDbCircle
 10
0.4999953209128308
 20
354.381995602722
 30
0.0
 40
0.5
100
AcDbArc
 50
91.50000000000273
 51
180.0
  0
ARC
  5
599
330
1F
100
AcDbEntity
  8
0
100
AcDbCircle
 10
0.4999953209128308
 20
181.5656398461974
 30
0.0
 40
0.5
100
AcDbArc
 50
180.0
 51
268.4999999999971
  0
LINE
  5
59A
330
1F
100
AcDbEntity
  8
0
100
AcDbLine
 10
5.999995320911692
 20
180.9738177244594
 30
0.0
 11
57.99999532091283
 21
180.9738177244594
 31
0.0
  0
LINE
  5
59B
330
1F
100
AcDbEntity
  8
0
100
AcDbLine
 10
5.999995320912829
 20
354.4738177244592
 30
0.0
 11
4.999995320912828
 21
354.4738177244592
 31
0.0
  0
LINE
  5
59C
330
1F
100
AcDbEntity
  8
0
100
AcDbLine
 10
5.999995320912829
 20
354.9738177244593
 30
0.0
 11
5.999995320911692
 21
202.3555981844974
 31
0.0
  0
LINE
  5
59D
330
1F
100
AcDbEntity
  8
0
100
AcDbLine
 10
5.999995320912829
 20
354.9738177244593
 30
0.0
 11
57.99999532091283
 21
354.9738177244593
 31
0.0
  0
ARC
  5
59E
330
1F
100
AcDbEntity
  8
0
100
AcDbCircle
 10
4.299995320912785
 20
197.9738177244594
 30
0.0
 40
4.699999999995998
100
AcDbArc
 50
0.0
 51
68.7952336371078
  0
LINE
  5
59F
330
1F
100
AcDbEntity
  8
0
100
AcDbLine
 10
8.999995320908737
 20
197.9738177244594
 30
0.0
 11
8.999995320907828
 21
180.9738177244594
 31
0.0
  0
LINE
  5
5A0
330
1F
100
AcDbEntity
  8
0
100
AcDbLine
 10
8.999995320907828
 20
181.4738177244594
 30
0.0
 11
7.999995320907827
 21
181.4738177244588
 31
0.0
  0
LINE
  5
5A1
330
1F
100
AcDbEntity
  8
0
100
AcDbLine
 10
55.99999532091283
 20
182.9738177244594
 30
0.0
 11
55.99999532091283
 21
352.9738177244593
 31
0.0
  0
LINE
  5
5A2
330
1F
100
AcDbEntity
  8
0
100
AcDbLine
 10
55.99999532091283
 20
352.9738177244593
 30
0.0
 11
7.999995320912829
 21
352.9738177244593
 31
0.0
  0
ARC
  5
5A3
330
1F
100
AcDbEntity
  8
0
100
AcDbCircle
 10
4.299995320912785
 20
197.9738177244594
 30
0.0
 40
6.699999999996
100
AcDbArc
 50
0.0
 51
56.47925960399017
  0
LINE
  5
5A4
330
1F
100
AcDbEntity
  8
0
100
AcDbLine
 10
10.99999532090873
 20
197.9738177244594
 30
0.0
 11
10.99999532090782
 21
182.9738177244594
 31
0.0
  0
LINE
  5
5A5
330
1F
100
AcDbEntity
  8
0
100
AcDbLine
 10
55.99999532091283
 20
182.9738177244594
 30
0.0
 11
10.99999532090782
 21
182.9738177244594
 31
0.0
  0
LINE
  5
5A6
330
1F
100
AcDbEntity
  8
0
100
AcDbLine
 10
7.999995320912829
 20
352.9738177244593
 30
0.0
 11
7.999995320911692
 21
203.5595137419631
 31
0.0
  0
LINE
  5
5A7
330
1F
100
AcDbEntity
  8
0
100
AcDbLine
 10
57.99999532091283
 20
180.9738177244594
 30
0.0
 11
57.99999532091283
 21
354.9738177244593
 31
0.0
  0
LINE
  5
5A8
330
1F
100
AcDbEntity
  8
0
100
AcDbLine
 10
4.999995320912828
 20
201.6069981493733
 30
0.0
 11
4.999995320912828
 21
354.4738177244592
 31
0.0
  0
LINE
  5
5A9
330
1F
100
AcDbEntity
  8
0
100
AcDbLine
 10
7.999995320908737
 20
197.9738177244594
 30
0.0
 11
7.999995320907827
 21
181.4738177244594
 31
0.0
  0
ARC
  5
5AA
330
1F
100
AcDbEntity
  8
0
100
AcDbCircle
 10
4.299995320912785
 20
197.9738177244594
 30
0.0
 40
3.699999999995998
100
AcDbArc
 50
0.0
 51
79.09453000325775
  0
LINE
  5
5AB
330
1F
100
AcDbEntity
  8
0
100
AcDbLine
 10
5.999995320909648
 20
181.0261895675979
 30
0.0
 11
5.999995320911692
 21
180.9738177244594
 31
0.0
  0
LINE
  5
5AC
330
1F
100
AcDbEntity
  8
0
100
AcDbLine
 10
35.19999544282995
 20
263.0738175651154
 30
0.0
 11
35.19999544282995
 21
247.0738175651153
 31
0.0
  0
LINE
  5
5AD
330
1F
100
AcDbEntity
  8
0
100
AcDbLine
 10
38.59999544282981
 20
247.0738175651153
 30
0.0
 11
35.19999544282995
 21
247.0738175651153
 31
0.0
  0
LINE
  5
5AE
330
1F
100
AcDbEntity
  8
0
100
AcDbLine
 10
38.59999544282981
 20
263.0738175651154
 30
0.0
 11
35.19999544282995
 21
263.0738175651154
 31
0.0
  0
LINE
  5
5AF
330
1F
100
AcDbEntity
  8
0
100
AcDbLine
 10
38.59999544282981
 20
263.0738175651154
 30
0.0
 11
38.59999544282981
 21
267.5738175651154
 31
0.0
  0
LINE
  5
5B0
330
1F
100
AcDbEntity
  8
0
100
AcDbLine
 10
49.99999544283082
 20
185.1738175651153
 30
0.0
 11
38.59999544282981
 21
185.1738175651153
 31
0.0
  0
LINE
  5
5B1
330
1F
100
AcDbEntity
  8
0
100
AcDbLine
 10
38.59999544282981
 20
247.0738175651153
 30
0.0
 11
38.59999544282981
 21
232.6738175651153
 31
0.0
  0
LINE
  5
5B2
330
1F
100
AcDbEntity
  8
0
100
AcDbLine
 10
11.09999532090773
 20
183.173817724459
 30
0.0
 11
55.69999532091197
 21
183.173817724459
 31
0.0
  0
LINE
  5
5B3
330
1F
100
AcDbEntity
  8
0
100
AcDbLine
 10
55.69999532091197
 20
352.7738177244596
 30
0.0
 11
55.69999532091197
 21
183.173817724459
 31
0.0
  0
LINE
  5
5B4
330
1F
100
AcDbEntity
  8
0
100
AcDbLine
 10
11.09999532090885
 20
197.9738177244594
 30
0.0
 11
11.09999532090773
 21
183.173817724459
 31
0.0
  0
ARC
  5
5B5
330
1F
100
AcDbEntity
  8
0
100
AcDbCircle
 10
4.199995320911738
 20
197.9738177244594
 30
0.0
 40
6.899999999996
100
AcDbArc
 50
0.0
 51
55.58261128954843
  0
LINE
  5
5B6
330
1F
100
AcDbEntity
  8
0
100
AcDbLine
 10
8.09999532091183
 20
352.7738177244596
 30
0.0
 11
8.09999532091183
 21
203.6659175127581
 31
0.0
  0
LINE
  5
5B7
330
1F
100
AcDbEntity
  8
0
100
AcDbLine
 10
55.69999532091197
 20
352.7738177244596
 30
0.0
 11
8.09999532091183
 21
352.7738177244596
 31
0.0
  0
LINE
  5
5B8
330
1F
100
AcDbEntity
  8
0
100
AcDbLine
 10
25.19999544282971
 20
260.1738175651151
 30
0.0
 11
25.19999544282971
 21
256.5738175651154
 31
0.0
  0
LINE
  5
5B9
330
1F
100
AcDbEntity
  8
0
100
AcDbLine
 10
23.59999544282981
 20
271.4738175651155
 30
0.0
 11
23.59999544282981
 21
260.1738175651151
 31
0.0
  0
LINE
  5
5BA
330
1F
100
AcDbEntity
  8
0
100
AcDbLine
 10
12.99999544282968
 20
271.4738175651155
 30
0.0
 11
23.59999544282981
 21
271.4738175651155
 31
0.0
  0
LINE
  5
5BB
330
1F
100
AcDbEntity
  8
0
100
AcDbLine
 10
23.59999544282981
 20
239.5738175651151
 30
0.0
 11
25.19999544282971
 21
239.5738175651151
 31
0.0
  0
LINE
  5
5BC
330
1F
100
AcDbEntity
  8
0
100
AcDbLine
 10
23.59999544282981
 20
256.5738175651154
 30
0.0
 11
25.19999544282971
 21
256.5738175651154
 31
0.0
  0
LINE
  5
5BD
330
1F
100
AcDbEntity
  8
0
100
AcDbLine
 10
23.59999544282981
 20
260.1738175651151
 30
0.0
 11
25.19999544282971
 21
260.1738175651151
 31
0.0
  0
LINE
  5
5BE
330
1F
100
AcDbEntity
  8
0
100
AcDbLine
 10
23.59999544282981
 20
243.1738175651153
 30
0.0
 11
25.19999544282971
 21
243.1738175651153
 31
0.0
  0
LINE
  5
5BF
330
1F
100
AcDbEntity
  8
0
100
AcDbLine
 10
25.19999544282971
 20
243.1738175651153
 30
0.0
 11
25.19999544282971
 21
239.5738175651151
 31
0.0
  0
LINE
  5
5C0
330
1F
100
AcDbEntity
  8
0
100
AcDbLine
 10
23.59999544282981
 20
256.5738175651154
 30
0.0
 11
23.59999544282981
 21
243.1738175651153
 31
0.0
  0
LINE
  5
5C1
330
1F
100
AcDbEntity
  8
0
100
AcDbLine
 10
23.59999544282981
 20
185.1738175651153
 30
0.0
 11
12.99999544282968
 21
185.1738175651153
 31
0.0
  0
LINE
  5
5C2
330
1F
100
AcDbEntity
  8
0
100
AcDbLine
 10
23.59999544282981
 20
239.5738175651151
 30
0.0
 11
23.59999544282981
 21
185.1738175651153
 31
0.0
  0
LINE
  5
5C3
330
1F
100
AcDbEntity
  8
0
100
AcDbLine
 10
12.99999544282968
 20
271.4738175651155
 30
0.0
 11
12.99999544282968
 21
185.1738175651153
 31
0.0
  0
LINE
  5
5C4
330
1F
100
AcDbEntity
  8
0
100
AcDbLine
 10
12.99999544282968
 20
275.9738175651154
 30
0.0
 11
25.39999544282977
 21
275.9738175651154
 31
0.0
  0
LINE
  5
5C5
330
1F
100
AcDbEntity
  8
0
100
AcDbLine
 10
22.89999544282977
 20
339.0738175651151
 30
0.0
 11
22.89999544282977
 21
331.0738175651152
 31
0.0
  0
LINE
  5
5C6
330
1F
100
AcDbEntity
  8
0
100
AcDbLine
 10
12.99999544282968
 20
306.0738175651152
 30
0.0
 11
22.29999544282986
 21
306.0738175651152
 31
0.0
  0
LINE
  5
5C7
330
1F
100
AcDbEntity
  8
0
100
AcDbLine
 10
22.29999544282986
 20
322.8738175651155
 30
0.0
 11
25.89999544282977
 21
322.8738175651155
 31
0.0
  0
CIRCLE
  5
5C8
330
1F
100
AcDbEntity
  8
0
100
AcDbCircle
 10
16.59999544282982
 20
342.9738175651154
 30
0.0
 40
1.399999999999999
  0
LINE
  5
5C9
330
1F
100
AcDbEntity
  8
0
100
AcDbLine
 10
12.99999544282968
 20
302.1738175651151
 30
0.0
 11
12.99999544282968
 21
275.9738175651154
 31
0.0
  0
LINE
  5
5CA
330
1F
100
AcDbEntity
  8
0
100
AcDbLine
 10
22.89999544282977
 20
331.0738175651152
 30
0.0
 11
25.89999544282977
 21
331.0738175651152
 31
0.0
  0
LINE
  5
5CB
330
1F
100
AcDbEntity
  8
0
100
AcDbLine
 10
12.99999544282968
 20
302.1738175651151
 30
0.0
 11
25.39999544282977
 21
302.1738175651151
 31
0.0
  0
CIRCLE
  5
5CC
330
1F
100
AcDbEntity
  8
0
100
AcDbCircle
 10
16.59999544282982
 20
347.7738175651152
 30
0.0
 40
1.399999999999999
  0
CIRCLE
  5
5CD
330
1F
100
AcDbEntity
  8
0
100
AcDbCircle
 10
21.6999954428297
 20
347.7738175651152
 30
0.0
 40
1.399999999999999
  0
LINE
  5
5CE
330
1F
100
AcDbEntity
  8
0
100
AcDbLine
 10
25.89999544282977
 20
331.0738175651152
 30
0.0
 11
25.89999544282977
 21
322.8738175651155
 31
0.0
  0
LINE
  5
5CF
330
1F
100
AcDbEntity
  8
0
100
AcDbLine
 10
22.89999544282977
 20
339.0738175651151
 30
0.0
 11
12.99999544282968
 21
339.0738175651151
 31
0.0
  0
LINE
  5
5D0
330
1F
100
AcDbEntity
  8
0
100
AcDbLine
 10
12.99999544282968
 20
339.0738175651151
 30
0.0
 11
12.99999544282968
 21
306.0738175651152
 31
0.0
  0
CIRCLE
  5
5D1
330
1F
100
AcDbEntity
  8
0
100
AcDbCircle
 10
21.6999954428297
 20
342.9738175651154
 30
0.0
 40
1.399999999999999
  0
LINE
  5
5D2
330
1F
100
AcDbEntity
  8
0
100
AcDbLine
 10
22.29999544282986
 20
322.8738175651155
 30
0.0
 11
22.29999544282986
 21
306.0738175651152
 31
0.0
  0
LINE
  5
5D3
330
1F
100
AcDbEntity
  8
0
100
AcDbLine
 10
49.99999544283082
 20
230.6738175651153
 30
0.0
 11
38.59999544282981
 21
230.6738175651153
 31
0.0
  0
LINE
  5
5D4
330
1F
100
AcDbEntity
  8
0
100
AcDbLine
 10
49.99999544283082
 20
232.6738175651153
 30
0.0
 11
38.59999544282981
 21
232.6738175651153
 31
0.0
  0
LINE
  5
5D5
330
1F
100
AcDbEntity
  8
0
100
AcDbLine
 10
49.99999544283082
 20
267.5738175651154
 30
0.0
 11
49.99999544283082
 21
232.6738175651153
 31
0.0
  0
LINE
  5
5D6
330
1F
100
AcDbEntity
  8
0
100
AcDbLine
 10
49.99999544283082
 20
230.6738175651153
 30
0.0
 11
49.99999544283082
 21
185.1738175651153
 31
0.0
  0
LINE
  5
5D7
330
1F
100
AcDbEntity
  8
0
100
AcDbLine
 10
38.59999544282981
 20
230.6738175651153
 30
0.0
 11
38.59999544282981
 21
185.1738175651153
 31
0.0
  0
LINE
  5
5D8
330
1F
100
AcDbEntity
  8
0
100
AcDbLine
 10
25.39999544282977
 20
302.1738175651151
 30
0.0
 11
25.39999544282977
 21
275.9738175651154
 31
0.0
  0
CIRCLE
  5
5D9
330
1F
100
AcDbEntity
  8
0
100
AcDbCircle
 10
18.24999532091169
 20
334.8038177244593
 30
0.0
 40
1.290290050200999
  0
LINE
  5
5DA
330
1F
100
AcDbEntity
  8
0
100
AcDbLine
 10
21.99999532091169
 20
338.5538177244593
 30
0.0
 11
14.09999532091183
 21
338.5538177244593
 31
0.0
  0
LINE
  5
5DB
330
1F
100
AcDbEntity
  8
0
100
AcDbLine
 10
21.99999532091169
 20
331.0538177244602
 30
0.0
 11
14.09999532091183
 21
331.0538177244602
 31
0.0
  0
LINE
  5
5DC
330
1F
100
AcDbEntity
  8
0
100
AcDbLine
 10
21.99999532091169
 20
331.0538177244602
 30
0.0
 11
21.99999532091169
 21
338.5538177244593
 31
0.0
  0
LINE
  5
5DD
330
1F
100
AcDbEntity
  8
0
100
AcDbLine
 10
14.49999532091168
 20
331.0538177244602
 30
0.0
 11
14.49999532091168
 21
338.5538177244593
 31
0.0
  0
LINE
  5
5DE
330
1F
100
AcDbEntity
  8
0
100
AcDbLine
 10
14.09999532091183
 20
337.6438177244593
 30
0.0
 11
14.09999532091183
 21
338.5538177244593
 31
0.0
  0
LINE
  5
5DF
330
1F
100
AcDbEntity
  8
0
100
AcDbLine
 10
14.09999532091274
 20
337.6438177244601
 30
0.0
 11
14.49999532091168
 21
337.6438177244601
 31
0.0
  0
LINE
  5
5E0
330
1F
100
AcDbEntity
  8
0
100
AcDbLine
 10
14.09999532091274
 20
337.0438177244602
 30
0.0
 11
14.49999532091168
 21
337.0438177244602
 31
0.0
  0
LINE
  5
5E1
330
1F
100
AcDbEntity
  8
0
100
AcDbLine
 10
14.09999532091274
 20
331.9638177244605
 30
0.0
 11
14.49999532091168
 21
331.9638177244605
 31
0.0
  0
LINE
  5
5E2
330
1F
100
AcDbEntity
  8
0
100
AcDbLine
 10
14.09999532091274
 20
332.5638177244603
 30
0.0
 11
14.49999532091168
 21
332.5638177244603
 31
0.0
  0
LINE
  5
5E3
330
1F
100
AcDbEntity
  8
0
100
AcDbLine
 10
14.09999532091274
 20
335.1038177244602
 30
0.0
 11
14.49999532091168
 21
335.1038177244602
 31
0.0
  0
LINE
  5
5E4
330
1F
100
AcDbEntity
  8
0
100
AcDbLine
 10
14.09999532091274
 20
334.5038177244603
 30
0.0
 11
14.49999532091168
 21
334.5038177244603
 31
0.0
  0
LINE
  5
5E5
330
1F
100
AcDbEntity
  8
0
100
AcDbLine
 10
14.09999532091183
 20
331.0538177244602
 30
0.0
 11
14.09999532091183
 21
331.9638177244605
 31
0.0
  0
LINE
  5
5E6
330
1F
100
AcDbEntity
  8
0
100
AcDbLine
 10
14.09999532091183
 20
307.0138177244592
 30
0.0
 11
21.34999532091272
 21
307.0138177244592
 31
0.0
  0
CIRCLE
  5
5E7
330
1F
100
AcDbEntity
  8
0
100
AcDbCircle
 10
17.59999532091182
 20
319.9638177244596
 30
0.0
 40
1.0
  0
CIRCLE
  5
5E8
330
1F
100
AcDbEntity
  8
0
100
AcDbCircle
 10
17.59999532091182
 20
316.4638177244595
 30
0.0
 40
1.0
  0
CIRCLE
  5
5E9
330
1F
100
AcDbEntity
  8
0
100
AcDbCircle
 10
17.59999532091182
 20
312.9638177244596
 30
0.0
 40
1.0
  0
CIRCLE
  5
5EA
330
1F
100
AcDbEntity
  8
0
100
AcDbCircle
 10
17.59999532091182
 20
309.4638177244596
 30
0.0
 40
1.0
  0
LINE
  5
5EB
330
1F
100
AcDbEntity
  8
0
100
AcDbLine
 10
21.34999532091272
 20
307.0138177244592
 30
0.0
 11
21.34999532091272
 21
322.4138177244593
 31
0.0
  0
LINE
  5
5EC
330
1F
100
AcDbEntity
  8
0
100
AcDbLine
 10
21.34999532091272
 20
322.4138177244593
 30
0.0
 11
14.09999532091183
 21
322.4138177244593
 31
0.0
  0
LINE
  5
5ED
330
1F
100
AcDbEntity
  8
0
100
AcDbLine
 10
14.09999532091183
 20
322.4138177244593
 30
0.0
 11
14.09999532091183
 21
307.0138177244592
 31
0.0
  0
LINE
  5
5EE
330
1F
100
AcDbEntity
  8
0
100
AcDbLine
 10
24.29999532091278
 20
324.8638177244592
 30
0.0
 11
19.52450039192081
 21
324.8638177244592
 31
0.0
  0
LINE
  5
5EF
330
1F
100
AcDbEntity
  8
0
100
AcDbLine
 10
24.29999532091278
 20
328.6038177244595
 30
0.0
 11
19.52450039192081
 21
328.6038177244595
 31
0.0
  0
LINE
  5
5F0
330
1F
100
AcDbEntity
  8
0
100
AcDbLine
 10
24.29999532091278
 20
323.4138177244592
 30
0.0
 11
14.09999532091274
 21
323.4138177244592
 31
0.0
  0
LINE
  5
5F1
330
1F
100
AcDbEntity
  8
0
100
AcDbLine
 10
24.29999532091278
 20
330.0538177244593
 30
0.0
 11
14.09999532091274
 21
330.0538177244593
 31
0.0
  0
LINE
  5
5F2
330
1F
100
AcDbEntity
  8
0
100
AcDbLine
 10
24.29999532091278
 20
327.4038177244591
 30
0.0
 11
21.29999532091278
 21
327.4038177244591
 31
0.0
  0
LINE
  5
5F3
330
1F
100
AcDbEntity
  8
0
100
AcDbLine
 10
24.29999532091278
 20
326.0638177244595
 30
0.0
 11
21.29999532091278
 21
326.0638177244595
 31
0.0
  0
LINE
  5
5F4
330
1F
100
AcDbEntity
  8
0
100
AcDbLine
 10
24.29999532091278
 20
324.8638177244592
 30
0.0
 11
21.29999532091278
 21
324.8638177244592
 31
0.0
  0
LINE
  5
5F5
330
1F
100
AcDbEntity
  8
0
100
AcDbLine
 10
21.29999532091278
 20
327.4038177244591
 30
0.0
 11
21.29999532091278
 21
328.6038177244595
 31
0.0
  0
LINE
  5
5F6
330
1F
100
AcDbEntity
  8
0
100
AcDbLine
 10
21.29999532091278
 20
324.8638177244592
 30
0.0
 11
21.29999532091278
 21
326.0638177244595
 31
0.0
  0
LINE
  5
5F7
330
1F
100
AcDbEntity
  8
0
100
AcDbLine
 10
22.79999532091278
 20
326.0638177244595
 30
0.0
 11
22.79999532091278
 21
327.4038177244591
 31
0.0
  0
LINE
  5
5F8
330
1F
100
AcDbEntity
  8
0
100
AcDbLine
 10
23.29999532091278
 20
327.4038177244591
 30
0.0
 11
23.29999532091278
 21
328.6038177244595
 31
0.0
  0
LINE
  5
5F9
330
1F
100
AcDbEntity
  8
0
100
AcDbLine
 10
23.29999532091278
 20
324.8638177244592
 30
0.0
 11
23.29999532091278
 21
326.0638177244595
 31
0.0
  0
LINE
  5
5FA
330
1F
100
AcDbEntity
  8
0
100
AcDbLine
 10
24.29999532091278
 20
323.4138177244592
 30
0.0
 11
24.29999532091278
 21
330.0538177244593
 31
0.0
  0
LINE
  5
5FB
330
1F
100
AcDbEntity
  8
0
100
AcDbLine
 10
19.52450039192081
 20
328.6038177244595
 30
0.0
 11
19.52450039192081
 21
324.8638177244592
 31
0.0
  0
LINE
  5
5FC
330
1F
100
AcDbEntity
  8
0
100
AcDbLine
 10
14.09999532091274
 20
323.4138177244592
 30
0.0
 11
14.09999532091274
 21
330.0538177244593
 31
0.0
  0
LINE
  5
5FD
330
1F
100
AcDbEntity
  8
0
100
AcDbLine
 10
14.09999532091274
 20
293.6338177244591
 30
0.0
 11
15.59999532091183
 21
293.6338177244591
 31
0.0
  0
LINE
  5
5FE
330
1F
100
AcDbEntity
  8
0
100
AcDbLine
 10
14.09999532091274
 20
288.5538177244591
 30
0.0
 11
15.59999532091183
 21
288.5538177244591
 31
0.0
  0
LINE
  5
5FF
330
1F
100
AcDbEntity
  8
0
100
AcDbLine
 10
14.09999532091274
 20
283.4738177244592
 30
0.0
 11
15.59999532091183
 21
283.4738177244592
 31
0.0
  0
LINE
  5
600
330
1F
100
AcDbEntity
  8
0
100
AcDbLine
 10
14.09999532091183
 20
298.1338177244591
 30
0.0
 11
15.59999532091183
 21
298.1338177244591
 31
0.0
  0
LINE
  5
601
330
1F
100
AcDbEntity
  8
0
100
AcDbLine
 10
14.09999532091183
 20
276.9738177244594
 30
0.0
 11
15.59999532091183
 21
276.9738177244594
 31
0.0
  0
LINE
  5
602
330
1F
100
AcDbEntity
  8
0
100
AcDbLine
 10
19.5999953209118
 20
293.1338177244591
 30
0.0
 11
20.59999532091182
 21
293.1338177244591
 31
0.0
  0
LINE
  5
603
330
1F
100
AcDbEntity
  8
0
100
AcDbLine
 10
19.5999953209118
 20
288.0538177244591
 30
0.0
 11
20.59999532091182
 21
288.0538177244591
 31
0.0
  0
LINE
  5
604
330
1F
100
AcDbEntity
  8
0
100
AcDbLine
 10
19.5999953209118
 20
282.9738177244593
 30
0.0
 11
20.59999532091182
 21
282.9738177244593
 31
0.0
  0
LINE
  5
605
330
1F
100
AcDbEntity
  8
0
100
AcDbLine
 10
15.59999532091183
 20
301.1338177244591
 30
0.0
 11
16.59999532091183
 21
301.1338177244591
 31
0.0
  0
LINE
  5
606
330
1F
100
AcDbEntity
  8
0
100
AcDbLine
 10
16.59999532091183
 20
301.1338177244591
 30
0.0
 11
16.59999532091183
 21
276.9738177244594
 31
0.0
  0
LINE
  5
607
330
1F
100
AcDbEntity
  8
0
100
AcDbLine
 10
24.08499532091173
 20
301.1338177244591
 30
0.0
 11
23.58499532091173
 21
301.1338177244591
 31
0.0
  0
LINE
  5
608
330
1F
100
AcDbEntity
  8
0
100
AcDbLine
 10
23.58499532091173
 20
301.1338177244591
 30
0.0
 11
23.58499532091173
 21
276.9738177244594
 31
0.0
  0
LINE
  5
609
330
1F
100
AcDbEntity
  8
0
100
AcDbLine
 10
24.94499532091162
 20
301.1338177244591
 30
0.0
 11
24.94499532091162
 21
276.9738177244594
 31
0.0
  0
LINE
  5
60A
330
1F
100
AcDbEntity
  8
0
100
AcDbLine
 10
15.59999532091183
 20
301.1338177244591
 30
0.0
 11
15.59999532091183
 21
300.1338177244591
 31
0.0
  0
LINE
  5
60B
330
1F
100
AcDbEntity
  8
0
100
AcDbLine
 10
16.59999532091183
 20
300.1338177244591
 30
0.0
 11
23.58499532091173
 21
300.1338177244591
 31
0.0
  0
LINE
  5
60C
330
1F
100
AcDbEntity
  8
0
100
AcDbLine
 10
15.59999532091183
 20
276.9738177244594
 30
0.0
 11
15.59999532091183
 21
277.9738177244594
 31
0.0
  0
LINE
  5
60D
330
1F
100
AcDbEntity
  8
0
100
AcDbLine
 10
16.59999532091183
 20
277.9738177244594
 30
0.0
 11
23.58499532091173
 21
277.9738177244594
 31
0.0
  0
LINE
  5
60E
330
1F
100
AcDbEntity
  8
0
100
AcDbLine
 10
15.59999532091183
 20
276.9738177244594
 30
0.0
 11
24.94499532091162
 21
276.9738177244594
 31
0.0
  0
LINE
  5
60F
330
1F
100
AcDbEntity
  8
0
100
AcDbLine
 10
24.94499532091162
 20
301.1338177244591
 30
0.0
 11
15.59999532091183
 21
301.1338177244591
 31
0.0
  0
LINE
  5
610
330
1F
100
AcDbEntity
  8
0
100
AcDbLine
 10
15.59999532091183
 20
301.1338177244591
 30
0.0
 11
15.59999532091183
 21
276.9738177244594
 31
0.0
  0
LINE
  5
611
330
1F
100
AcDbEntity
  8
0
100
AcDbLine
 10
20.59999532091182
 20
293.1338177244591
 30
0.0
 11
20.59999532091182
 21
295.1338177244591
 31
0.0
  0
LINE
  5
612
330
1F
100
AcDbEntity
  8
0
100
AcDbLine
 10
20.59999532091182
 20
295.1338177244591
 30
0.0
 11
19.5999953209118
 21
295.1338177244591
 31
0.0
  0
LINE
  5
613
330
1F
100
AcDbEntity
  8
0
100
AcDbLine
 10
19.5999953209118
 20
295.1338177244591
 30
0.0
 11
19.5999953209118
 21
293.1338177244591
 31
0.0
  0
LINE
  5
614
330
1F
100
AcDbEntity
  8
0
100
AcDbLine
 10
20.59999532091182
 20
288.0538177244591
 30
0.0
 11
20.59999532091182
 21
290.0538177244591
 31
0.0
  0
LINE
  5
615
330
1F
100
AcDbEntity
  8
0
100
AcDbLine
 10
20.59999532091182
 20
290.0538177244591
 30
0.0
 11
19.5999953209118
 21
290.0538177244591
 31
0.0
  0
LINE
  5
616
330
1F
100
AcDbEntity
  8
0
100
AcDbLine
 10
19.5999953209118
 20
290.0538177244591
 30
0.0
 11
19.5999953209118
 21
288.0538177244591
 31
0.0
  0
LINE
  5
617
330
1F
100
AcDbEntity
  8
0
100
AcDbLine
 10
20.59999532091182
 20
282.9738177244593
 30
0.0
 11
20.59999532091182
 21
284.9738177244593
 31
0.0
  0
LINE
  5
618
330
1F
100
AcDbEntity
  8
0
100
AcDbLine
 10
20.59999532091182
 20
284.9738177244593
 30
0.0
 11
19.5999953209118
 21
284.9738177244593
 31
0.0
  0
LINE
  5
619
330
1F
100
AcDbEntity
  8
0
100
AcDbLine
 10
19.5999953209118
 20
284.9738177244593
 30
0.0
 11
19.5999953209118
 21
282.9738177244593
 31
0.0
  0
LINE
  5
61A
330
1F
100
AcDbEntity
  8
0
100
AcDbLine
 10
15.59999532091183
 20
276.9738177244594
 30
0.0
 11
15.59999532091183
 21
279.9738177244594
 31
0.0
  0
LINE
  5
61B
330
1F
100
AcDbEntity
  8
0
100
AcDbLine
 10
15.59999532091183
 20
279.9738177244594
 30
0.0
 11
14.09999532091183
 21
279.9738177244594
 31
0.0
  0
LINE
  5
61C
330
1F
100
AcDbEntity
  8
0
100
AcDbLine
 10
14.09999532091183
 20
279.9738177244594
 30
0.0
 11
14.09999532091183
 21
276.9738177244594
 31
0.0
  0
LINE
  5
61D
330
1F
100
AcDbEntity
  8
0
100
AcDbLine
 10
15.59999532091183
 20
283.4738177244592
 30
0.0
 11
15.59999532091183
 21
284.4738177244593
 31
0.0
  0
LINE
  5
61E
330
1F
100
AcDbEntity
  8
0
100
AcDbLine
 10
15.59999532091183
 20
284.4738177244593
 30
0.0
 11
14.09999532091274
 21
284.4738177244593
 31
0.0
  0
LINE
  5
61F
330
1F
100
AcDbEntity
  8
0
100
AcDbLine
 10
15.59999532091183
 20
288.5538177244591
 30
0.0
 11
15.59999532091183
 21
289.5538177244592
 31
0.0
  0
LINE
  5
620
330
1F
100
AcDbEntity
  8
0
100
AcDbLine
 10
15.59999532091183
 20
289.5538177244592
 30
0.0
 11
14.09999532091274
 21
289.5538177244592
 31
0.0
  0
LINE
  5
621
330
1F
100
AcDbEntity
  8
0
100
AcDbLine
 10
15.59999532091183
 20
293.6338177244591
 30
0.0
 11
15.59999532091183
 21
294.6338177244589
 31
0.0
  0
LINE
  5
622
330
1F
100
AcDbEntity
  8
0
100
AcDbLine
 10
15.59999532091183
 20
294.6338177244589
 30
0.0
 11
14.09999532091274
 21
294.6338177244589
 31
0.0
  0
LINE
  5
623
330
1F
100
AcDbEntity
  8
0
100
AcDbLine
 10
15.59999532091183
 20
298.1338177244591
 30
0.0
 11
15.59999532091183
 21
301.1338177244591
 31
0.0
  0
LINE
  5
624
330
1F
100
AcDbEntity
  8
0
100
AcDbLine
 10
15.59999532091183
 20
301.1338177244591
 30
0.0
 11
14.09999532091183
 21
301.1338177244591
 31
0.0
  0
LINE
  5
625
330
1F
100
AcDbEntity
  8
0
100
AcDbLine
 10
14.09999532091183
 20
301.1338177244591
 30
0.0
 11
14.09999532091183
 21
298.1338177244591
 31
0.0
  0
LINE
  5
626
330
1F
100
AcDbEntity
  8
0
100
AcDbLine
 10
14.09999532091183
 20
185.9738177244594
 30
0.0
 11
22.69999532091173
 21
185.9738177244594
 31
0.0
  0
CIRCLE
  5
627
330
1F
100
AcDbEntity
  8
0
100
AcDbCircle
 10
18.09999532091182
 20
193.5938177244593
 30
0.0
 40
2.0
  0
CIRCLE
  5
628
330
1F
100
AcDbEntity
  8
0
100
AcDbCircle
 10
18.09999532091182
 20
198.673817724459
 30
0.0
 40
2.0
  0
CIRCLE
  5
629
330
1F
100
AcDbEntity
  8
0
100
AcDbCircle
 10
18.09999532091182
 20
198.673817724459
 30
0.0
 40
2.0
  0
CIRCLE
  5
62A
330
1F
100
AcDbEntity
  8
0
100
AcDbCircle
 10
18.09999532091182
 20
203.7538177244604
 30
0.0
 40
2.0
  0
CIRCLE
  5
62B
330
1F
100
AcDbEntity
  8
0
100
AcDbCircle
 10
18.09999532091182
 20
203.7538177244604
 30
0.0
 40
2.0
  0
CIRCLE
  5
62C
330
1F
100
AcDbEntity
  8
0
100
AcDbCircle
 10
18.09999532091182
 20
213.9138177244594
 30
0.0
 40
2.0
  0
CIRCLE
  5
62D
330
1F
100
AcDbEntity
  8
0
100
AcDbCircle
 10
18.09999532091182
 20
213.9138177244594
 30
0.0
 40
2.0
  0
CIRCLE
  5
62E
330
1F
100
AcDbEntity
  8
0
100
AcDbCircle
 10
18.09999532091182
 20
218.9938177244601
 30
0.0
 40
2.0
  0
CIRCLE
  5
62F
330
1F
100
AcDbEntity
  8
0
100
AcDbCircle
 10
18.09999532091182
 20
188.8438177244593
 30
0.0
 40
1.0
  0
CIRCLE
  5
630
330
1F
100
AcDbEntity
  8
0
100
AcDbCircle
 10
18.09999532091182
 20
188.8438177244593
 30
0.0
 40
1.5
  0
CIRCLE
  5
631
330
1F
100
AcDbEntity
  8
0
100
AcDbCircle
 10
18.09999532091182
 20
223.7438177244603
 30
0.0
 40
1.0
  0
CIRCLE
  5
632
330
1F
100
AcDbEntity
  8
0
100
AcDbCircle
 10
18.09999532091182
 20
223.7438177244603
 30
0.0
 40
1.5
  0
CIRCLE
  5
633
330
1F
100
AcDbEntity
  8
0
100
AcDbCircle
 10
18.09999532091182
 20
208.8338177244593
 30
0.0
 40
2.0
  0
LINE
  5
634
330
1F
100
AcDbEntity
  8
0
100
AcDbLine
 10
22.69999532091173
 20
185.9738177244594
 30
0.0
 11
22.69999532091173
 21
226.613817724459
 31
0.0
  0
LINE
  5
635
330
1F
100
AcDbEntity
  8
0
100
AcDbLine
 10
22.69999532091173
 20
226.613817724459
 30
0.0
 11
14.09999532091183
 21
226.613817724459
 31
0.0
  0
LINE
  5
636
330
1F
100
AcDbEntity
  8
0
100
AcDbLine
 10
14.09999532091183
 20
226.613817724459
 30
0.0
 11
14.09999532091183
 21
185.9738177244594
 31
0.0
  0
LINE
  5
637
330
1F
100
AcDbEntity
  8
0
100
AcDbLine
 10
47.44999532091287
 20
204.0901008670515
 30
0.0
 11
47.44999532091287
 21
219.0575345818679
 31
0.0
  0
LINE
  5
638
330
1F
100
AcDbEntity
  8
0
100
AcDbLine
 10
41.14999532091268
 20
219.6738177244589
 30
0.0
 11
41.14999532091268
 21
203.4738177244594
 31
0.0
  0
LINE
  5
639
330
1F
100
AcDbEntity
  8
0
100
AcDbLine
 10
42.69999532091286
 20
220.1738177244592
 30
0.0
 11
42.69999532091286
 21
202.9738177244594
 31
0.0
  0
LINE
  5
63A
330
1F
100
AcDbEntity
  8
0
100
AcDbLine
 10
45.89999532091267
 20
202.9738177244594
 30
0.0
 11
45.89999532091267
 21
220.1738177244592
 31
0.0
  0
LINE
  5
63B
330
1F
100
AcDbEntity
  8
0
100
AcDbLine
 10
39.69999532091287
 20
229.173817724459
 30
0.0
 11
39.69999532091287
 21
193.9738177244594
 31
0.0
  0
LINE
  5
63C
330
1F
100
AcDbEntity
  8
0
100
AcDbLine
 10
48.79999532091279
 20
192.9738177244594
 30
0.0
 11
48.79999532091279
 21
230.173817724459
 31
0.0
  0
LINE
  5
63D
330
1F
100
AcDbEntity
  8
0
100
AcDbLine
 10
49.09999532091274
 20
200.3738177244594
 30
0.0
 11
49.09999532091274
 21
193.273817724459
 31
0.0
  0
CIRCLE
  5
63E
330
1F
100
AcDbEntity
  8
0
100
AcDbCircle
 10
44.29999532091279
 20
195.9438177244589
 30
0.0
 40
1.399999999999999
  0
ARC
  5
63F
330
1F
100
AcDbEntity
  8
0
100
AcDbCircle
 10
48.79999532091279
 20
193.273817724459
 30
0.0
 40
0.3
100
AcDbArc
 50
270.0
 51
0.0
  0
LINE
  5
640
330
1F
100
AcDbEntity
  8
0
100
AcDbLine
 10
40.49999532091283
 20
192.9738177244594
 30
0.0
 11
48.79999532091279
 21
192.9738177244594
 31
0.0
  0
ARC
  5
641
330
1F
100
AcDbEntity
  8
0
100
AcDbCircle
 10
40.49999532091283
 20
193.4738177244594
 30
0.0
 40
0.5
100
AcDbArc
 50
180.0
 51
270.0
  0
LINE
  5
642
330
1F
100
AcDbEntity
  8
0
100
AcDbLine
 10
39.99999532091283
 20
193.9738177244594
 30
0.0
 11
39.99999532091283
 21
193.4738177244594
 31
0.0
  0
LINE
  5
643
330
1F
100
AcDbEntity
  8
0
100
AcDbLine
 10
39.69999532091287
 20
193.9738177244594
 30
0.0
 11
48.79999532091279
 21
193.9738177244594
 31
0.0
  0
ARC
  5
644
330
1F
100
AcDbEntity
  8
0
100
AcDbCircle
 10
45.44999532091288
 20
204.0901008670515
 30
0.0
 40
2.0
100
AcDbArc
 50
284.9999999999943
 51
0.0
  0
LINE
  5
645
330
1F
100
AcDbEntity
  8
0
100
AcDbLine
 10
43.66763341111775
 20
201.5419660718816
 30
0.0
 11
45.96763341111794
 21
202.1582492144724
 31
0.0
  0
ARC
  5
646
330
1F
100
AcDbEntity
  8
0
100
AcDbCircle
 10
43.14999532091269
 20
203.4738177244594
 30
0.0
 40
2.0
100
AcDbArc
 50
180.0
 51
284.9999999999943
  0
LINE
  5
647
330
1F
100
AcDbEntity
  8
0
100
AcDbLine
 10
42.69999532091286
 20
202.9738177244594
 30
0.0
 11
45.89999532091267
 21
202.9738177244594
 31
0.0
  0
LINE
  5
648
330
1F
100
AcDbEntity
  8
0
100
AcDbLine
 10
48.79999532091279
 20
200.3738177244594
 30
0.0
 11
49.09999532091274
 21
200.3738177244594
 31
0.0
  0
LINE
  5
649
330
1F
100
AcDbEntity
  8
0
100
AcDbLine
 10
47.44999532091287
 20
197.9738177244594
 30
0.0
 11
47.44999532091287
 21
200.3738177244594
 31
0.0
  0
LINE
  5
64A
330
1F
100
AcDbEntity
  8
0
100
AcDbLine
 10
41.14999532091268
 20
200.3738177244594
 30
0.0
 11
41.14999532091268
 21
197.9738177244594
 31
0.0
  0
LINE
  5
64B
330
1F
100
AcDbEntity
  8
0
100
AcDbLine
 10
41.14999532091268
 20
200.3738177244594
 30
0.0
 11
47.44999532091287
 21
200.3738177244594
 31
0.0
  0
LINE
  5
64C
330
1F
100
AcDbEntity
  8
0
100
AcDbLine
 10
41.14999532091268
 20
198.4738177244594
 30
0.0
 11
47.44999532091287
 21
198.4738177244594
 31
0.0
  0
LINE
  5
64D
330
1F
100
AcDbEntity
  8
0
100
AcDbLine
 10
41.14999532091268
 20
197.9738177244594
 30
0.0
 11
47.44999532091287
 21
197.9738177244594
 31
0.0
  0
ARC
  5
64E
330
1F
100
AcDbEntity
  8
0
100
AcDbCircle
 10
48.79999532091279
 20
229.8738177244604
 30
0.0
 40
0.3
100
AcDbArc
 50
0.0
 51
90.0
  0
LINE
  5
64F
330
1F
100
AcDbEntity
  8
0
100
AcDbLine
 10
49.09999532091274
 20
229.8738177244604
 30
0.0
 11
49.09999532091274
 21
222.773817724459
 31
0.0
  0
LINE
  5
650
330
1F
100
AcDbEntity
  8
0
100
AcDbLine
 10
40.49999532091283
 20
230.173817724459
 30
0.0
 11
48.79999532091279
 21
230.1738177244605
 31
0.0
  0
ARC
  5
651
330
1F
100
AcDbEntity
  8
0
100
AcDbCircle
 10
45.44999532091288
 20
219.0575345818679
 30
0.0
 40
2.0
100
AcDbArc
 50
0.0
 51
75.00000000000555
  0
LINE
  5
652
330
1F
100
AcDbEntity
  8
0
100
AcDbLine
 10
43.66763341111775
 20
221.6056693770373
 30
0.0
 11
45.96763341111794
 21
220.9893862344464
 31
0.0
  0
ARC
  5
653
330
1F
100
AcDbEntity
  8
0
100
AcDbCircle
 10
43.14999532091269
 20
219.6738177244589
 30
0.0
 40
2.0
100
AcDbArc
 50
75.00000000000555
 51
180.0
  0
LINE
  5
654
330
1F
100
AcDbEntity
  8
0
100
AcDbLine
 10
45.89999532091267
 20
220.1738177244592
 30
0.0
 11
42.69999532091286
 21
220.1738177244606
 31
0.0
  0
ARC
  5
655
330
1F
100
AcDbEntity
  8
0
100
AcDbCircle
 10
40.49999532091283
 20
229.673817724459
 30
0.0
 40
0.5
100
AcDbArc
 50
90.0
 51
180.0
  0
LINE
  5
656
330
1F
100
AcDbEntity
  8
0
100
AcDbLine
 10
39.99999532091283
 20
229.673817724459
 30
0.0
 11
39.99999532091283
 21
229.173817724459
 31
0.0
  0
LINE
  5
657
330
1F
100
AcDbEntity
  8
0
100
AcDbLine
 10
39.69999532091287
 20
229.173817724459
 30
0.0
 11
48.79999532091279
 21
229.173817724459
 31
0.0
  0
LINE
  5
658
330
1F
100
AcDbEntity
  8
0
100
AcDbLine
 10
48.79999532091279
 20
222.773817724459
 30
0.0
 11
49.09999532091274
 21
222.773817724459
 31
0.0
  0
LINE
  5
659
330
1F
100
AcDbEntity
  8
0
100
AcDbLine
 10
47.44999532091287
 20
222.773817724459
 30
0.0
 11
47.44999532091287
 21
225.1738177244606
 31
0.0
  0
LINE
  5
65A
330
1F
100
AcDbEntity
  8
0
100
AcDbLine
 10
41.14999532091268
 20
225.1738177244606
 30
0.0
 11
41.14999532091268
 21
222.773817724459
 31
0.0
  0
LINE
  5
65B
330
1F
100
AcDbEntity
  8
0
100
AcDbLine
 10
41.14999532091268
 20
222.773817724459
 30
0.0
 11
47.44999532091287
 21
222.773817724459
 31
0.0
  0
LINE
  5
65C
330
1F
100
AcDbEntity
  8
0
100
AcDbLine
 10
41.14999532091268
 20
224.6738177244592
 30
0.0
 11
47.44999532091287
 21
224.6738177244592
 31
0.0
  0
LINE
  5
65D
330
1F
100
AcDbEntity
  8
0
100
AcDbLine
 10
41.14999532091268
 20
225.173817724459
 30
0.0
 11
47.44999532091287
 21
225.173817724459
 31
0.0
  0
CIRCLE
  5
65E
330
1F
100
AcDbEntity
  8
0
100
AcDbCircle
 10
44.29999532091279
 20
227.2038177244594
 30
0.0
 40
1.399999999999999
  0
LINE
  5
65F
330
1F
100
AcDbEntity
  8
0
100
AcDbLine
 10
48.79999532091279
 20
215.3838177244606
 30
0.0
 11
49.09999532091274
 21
215.3838177244606
 31
0.0
  0
LINE
  5
660
330
1F
100
AcDbEntity
  8
0
100
AcDbLine
 10
48.79999532091279
 20
214.1138177244601
 30
0.0
 11
49.09999532091274
 21
214.1138177244601
 31
0.0
  0
LINE
  5
661
330
1F
100
AcDbEntity
  8
0
100
AcDbLine
 10
48.79999532091279
 20
212.8438177244602
 30
0.0
 11
49.09999532091274
 21
212.8438177244602
 31
0.0
  0
LINE
  5
662
330
1F
100
AcDbEntity
  8
0
100
AcDbLine
 10
48.79999532091279
 20
211.5738177244602
 30
0.0
 11
49.09999532091274
 21
211.5738177244602
 31
0.0
  0
LINE
  5
663
330
1F
100
AcDbEntity
  8
0
100
AcDbLine
 10
48.79999532091279
 20
210.3038177244601
 30
0.0
 11
49.09999532091274
 21
210.3038177244601
 31
0.0
  0
LINE
  5
664
330
1F
100
AcDbEntity
  8
0
100
AcDbLine
 10
48.79999532091279
 20
209.0338177244602
 30
0.0
 11
49.09999532091274
 21
209.0338177244602
 31
0.0
  0
LINE
  5
665
330
1F
100
AcDbEntity
  8
0
100
AcDbLine
 10
48.79999532091279
 20
207.7638177244601
 30
0.0
 11
49.09999532091274
 21
207.7638177244601
 31
0.0
  0
LINE
  5
666
330
1F
100
AcDbEntity
  8
0
100
AcDbLine
 10
48.79999532091279
 20
217.9238177244605
 30
0.0
 11
49.09999532091274
 21
217.9238177244605
 31
0.0
  0
LINE
  5
667
330
1F
100
AcDbEntity
  8
0
100
AcDbLine
 10
48.79999532091279
 20
216.6538177244601
 30
0.0
 11
49.09999532091274
 21
216.6538177244601
 31
0.0
  0
LINE
  5
668
330
1F
100
AcDbEntity
  8
0
100
AcDbLine
 10
48.79999532091279
 20
215.3838177244606
 30
0.0
 11
49.09999532091274
 21
215.3838177244606
 31
0.0
  0
LINE
  5
669
330
1F
100
AcDbEntity
  8
0
100
AcDbLine
 10
48.79999532091279
 20
219.193817724459
 30
0.0
 11
49.09999532091274
 21
219.193817724459
 31
0.0
  0
LINE
  5
66A
330
1F
100
AcDbEntity
  8
0
100
AcDbLine
 10
48.79999532091279
 20
217.9238177244605
 30
0.0
 11
49.09999532091274
 21
217.9238177244605
 31
0.0
  0
LINE
  5
66B
330
1F
100
AcDbEntity
  8
0
100
AcDbLine
 10
48.79999532091279
 20
207.7638177244601
 30
0.0
 11
49.09999532091274
 21
207.7638177244601
 31
0.0
  0
LINE
  5
66C
330
1F
100
AcDbEntity
  8
0
100
AcDbLine
 10
48.79999532091279
 20
206.4938177244601
 30
0.0
 11
49.09999532091274
 21
206.4938177244601
 31
0.0
  0
LINE
  5
66D
330
1F
100
AcDbEntity
  8
0
100
AcDbLine
 10
48.79999532091279
 20
205.2238177244603
 30
0.0
 11
49.09999532091274
 21
205.2238177244603
 31
0.0
  0
LINE
  5
66E
330
1F
100
AcDbEntity
  8
0
100
AcDbLine
 10
48.79999532091279
 20
203.9538177244601
 30
0.0
 11
49.09999532091274
 21
203.9538177244601
 31
0.0
  0
LINE
  5
66F
330
1F
100
AcDbEntity
  8
0
100
AcDbLine
 10
14.09999532091274
 20
185.1738175651153
 30
0.0
 11
14.09999532091274
 21
271.4738175651155
 31
0.0
  0
LINE
  5
679
330
1F
100
AcDbEntity
  8
0
100
AcDbLine
 10
49.09999532091183
 20
185.9738177244594
 30
0.0
 11
49.09999532091183
 21
191.4738177244594
 31
0.0
  0
CIRCLE
  5
67A
330
1F
100
AcDbEntity
  8
0
100
AcDbCircle
 10
45.66999532091176
 20
187.4738177244594
 30
0.0
 40
0.32
  0
CIRCLE
  5
67B
330
1F
100
AcDbEntity
  8
0
100
AcDbCircle
 10
45.66999532091176
 20
189.9738177244594
 30
0.0
 40
0.32
  0
LINE
  5
67C
330
1F
100
AcDbEntity
  8
0
100
AcDbLine
 10
42.59999532091183
 20
185.9738177244594
 30
0.0
 11
43.59999532091181
 21
185.9738177244594
 31
0.0
  0
LINE
  5
67D
330
1F
100
AcDbEntity
  8
0
100
AcDbLine
 10
43.59999532091181
 20
185.9738177244594
 30
0.0
 11
43.59999532091181
 21
191.4738177244594
 31
0.0
  0
LINE
  5
67E
330
1F
100
AcDbEntity
  8
0
100
AcDbLine
 10
43.59999532091181
 20
187.9738177244594
 30
0.0
 11
43.59999532091181
 21
189.4738177244594
 31
0.0
  0
LINE
  5
67F
330
1F
100
AcDbEntity
  8
0
100
AcDbLine
 10
43.59999532091181
 20
189.4738177244594
 30
0.0
 11
42.59999532091183
 21
189.4738177244594
 31
0.0
  0
LINE
  5
680
330
1F
100
AcDbEntity
  8
0
100
AcDbLine
 10
42.59999532091183
 20
189.4738177244594
 30
0.0
 11
42.59999532091183
 21
187.9738177244594
 31
0.0
  0
LINE
  5
681
330
1F
100
AcDbEntity
  8
0
100
AcDbLine
 10
42.59999532091183
 20
187.9738177244594
 30
0.0
 11
43.59999532091181
 21
187.9738177244594
 31
0.0
  0
LINE
  5
682
330
1F
100
AcDbEntity
  8
0
100
AcDbLine
 10
49.09999532091183
 20
191.4738177244594
 30
0.0
 11
42.59999532091183
 21
191.4738177244594
 31
0.0
  0
LINE
  5
683
330
1F
100
AcDbEntity
  8
0
100
AcDbLine
 10
42.59999532091183
 20
191.4738177244594
 30
0.0
 11
42.59999532091183
 21
185.9738177244594
 31
0.0
  0
LINE
  5
684
330
1F
100
AcDbEntity
  8
0
100
AcDbLine
 10
42.59999532091183
 20
185.9738177244594
 30
0.0
 11
49.09999532091183
 21
185.9738177244594
 31
0.0
  0
CIRCLE
  5
685
330
1F
100
AcDbEntity
  8
0
100
AcDbCircle
 10
18.09999532091182
 20
238.6138177244589
 30
0.0
 40
0.75
  0
LINE
  5
686
330
1F
100
AcDbEntity
  8
0
100
AcDbLine
 10
22.59999532091182
 20
234.6138177244589
 30
0.0
 11
22.59999532091182
 21
265.113817724459
 31
0.0
  0
LINE
  5
687
330
1F
100
AcDbEntity
  8
0
100
AcDbLine
 10
14.09999532091183
 20
270.4738177244594
 30
0.0
 11
14.09999532091183
 21
229.613817724459
 31
0.0
  0
LINE
  5
688
330
1F
100
AcDbEntity
  8
0
100
AcDbLine
 10
20.29999532091165
 20
239.923817724459
 30
0.0
 11
20.29999532091165
 21
237.303817724459
 31
0.0
  0
ARC
  5
689
330
1F
100
AcDbEntity
  8
0
100
AcDbCircle
 10
18.09999532091182
 20
238.6138177244589
 30
0.0
 40
2.9
100
AcDbArc
 50
133.6028189726961
 51
226.3971810273038
  0
CIRCLE
  5
68A
330
1F
100
AcDbEntity
  8
0
100
AcDbCircle
 10
18.09999532091182
 20
238.6138177244589
 30
0.0
 40
1.5
  0
CIRCLE
  5
68B
330
1F
100
AcDbEntity
  8
0
100
AcDbCircle
 10
18.06360926050865
 20
232.513817724459
 30
0.0
 40
2.0
  0
LINE
  5
68C
330
1F
100
AcDbEntity
  8
0
100
AcDbLine
 10
14.09999532091183
 20
229.613817724459
 30
0.0
 11
21.09999532091181
 21
229.613817724459
 31
0.0
  0
LINE
  5
68D
330
1F
100
AcDbEntity
  8
0
100
AcDbLine
 10
16.09999532091183
 20
235.613817724459
 30
0.0
 11
21.09999532091181
 21
235.613817724459
 31
0.0
  0
LINE
  5
68E
330
1F
100
AcDbEntity
  8
0
100
AcDbLine
 10
16.09999532091183
 20
236.513817724459
 30
0.0
 11
16.09999532091183
 21
235.613817724459
 31
0.0
  0
LINE
  5
68F
330
1F
100
AcDbEntity
  8
0
100
AcDbLine
 10
21.09999532091181
 20
229.613817724459
 30
0.0
 11
21.09999532091181
 21
234.6138177244589
 31
0.0
  0
CIRCLE
  5
690
330
1F
100
AcDbEntity
  8
0
100
AcDbCircle
 10
18.06360926050865
 20
232.513817724459
 30
0.0
 40
0.9
  0
LINE
  5
691
330
1F
100
AcDbEntity
  8
0
100
AcDbLine
 10
21.09999532091181
 20
234.6138177244589
 30
0.0
 11
22.59999532091182
 21
234.6138177244589
 31
0.0
  0
LINE
  5
692
330
1F
100
AcDbEntity
  8
0
100
AcDbLine
 10
20.29999532091165
 20
237.303817724459
 30
0.0
 11
21.09999532091181
 21
237.303817724459
 31
0.0
  0
LINE
  5
693
330
1F
100
AcDbEntity
  8
0
100
AcDbLine
 10
21.09999532091181
 20
237.303817724459
 30
0.0
 11
21.09999532091181
 21
235.613817724459
 31
0.0
  0
ARC
  5
694
330
1F
100
AcDbEntity
  8
0
100
AcDbCircle
 10
18.09999532091182
 20
261.4738177244594
 30
0.0
 40
2.9
100
AcDbArc
 50
133.6028189726961
 51
226.3971810273038
  0
LINE
  5
695
330
1F
100
AcDbEntity
  8
0
100
AcDbLine
 10
21.09999532091181
 20
260.1638177244594
 30
0.0
 11
21.09999532091181
 21
255.1638177244594
 31
0.0
  0
LINE
  5
696
330
1F
100
AcDbEntity
  8
0
100
AcDbLine
 10
21.09999532091181
 20
252.5438177244594
 30
0.0
 11
21.09999532091181
 21
247.5438177244595
 31
0.0
  0
LINE
  5
697
330
1F
100
AcDbEntity
  8
0
100
AcDbLine
 10
16.09999532091183
 20
251.7538177244596
 30
0.0
 11
16.09999532091183
 21
248.3338177244593
 31
0.0
  0
ARC
  5
698
330
1F
100
AcDbEntity
  8
0
100
AcDbCircle
 10
18.09999532091182
 20
246.233817724459
 30
0.0
 40
2.9
100
AcDbArc
 50
133.6028189726961
 51
226.3971810273038
  0
LINE
  5
699
330
1F
100
AcDbEntity
  8
0
100
AcDbLine
 10
16.09999532091183
 20
244.1338177244591
 30
0.0
 11
16.09999532091183
 21
240.7138177244596
 31
0.0
  0
CIRCLE
  5
69A
330
1F
100
AcDbEntity
  8
0
100
AcDbCircle
 10
18.09999532091182
 20
246.233817724459
 30
0.0
 40
1.5
  0
LINE
  5
69B
330
1F
100
AcDbEntity
  8
0
100
AcDbLine
 10
21.09999532091181
 20
244.923817724459
 30
0.0
 11
21.09999532091181
 21
239.923817724459
 31
0.0
  0
LINE
  5
69C
330
1F
100
AcDbEntity
  8
0
100
AcDbLine
 10
20.29999532091165
 20
239.923817724459
 30
0.0
 11
21.09999532091181
 21
239.923817724459
 31
0.0
  0
LINE
  5
69D
330
1F
100
AcDbEntity
  8
0
100
AcDbLine
 10
22.59999532091182
 20
242.1638177244594
 30
0.0
 11
24.29999532091164
 21
242.1638177244594
 31
0.0
  0
LINE
  5
69E
330
1F
100
AcDbEntity
  8
0
100
AcDbLine
 10
24.29999532091164
 20
240.5638177244594
 30
0.0
 11
22.59999532091182
 21
240.5638177244594
 31
0.0
  0
LINE
  5
69F
330
1F
100
AcDbEntity
  8
0
100
AcDbLine
 10
24.29999532091164
 20
242.1638177244594
 30
0.0
 11
24.29999532091164
 21
240.5638177244594
 31
0.0
  0
CIRCLE
  5
6A0
330
1F
100
AcDbEntity
  8
0
100
AcDbCircle
 10
18.09999532091182
 20
246.233817724459
 30
0.0
 40
0.75
  0
LINE
  5
6A1
330
1F
100
AcDbEntity
  8
0
100
AcDbLine
 10
20.29999532091165
 20
244.923817724459
 30
0.0
 11
21.09999532091181
 21
244.923817724459
 31
0.0
  0
LINE
  5
6A2
330
1F
100
AcDbEntity
  8
0
100
AcDbLine
 10
20.29999532091165
 20
247.5438177244595
 30
0.0
 11
21.09999532091181
 21
247.5438177244595
 31
0.0
  0
LINE
  5
6A3
330
1F
100
AcDbEntity
  8
0
100
AcDbLine
 10
20.29999532091165
 20
247.5438177244595
 30
0.0
 11
20.29999532091165
 21
244.923817724459
 31
0.0
  0
ARC
  5
6A4
330
1F
100
AcDbEntity
  8
0
100
AcDbCircle
 10
18.09999532091182
 20
253.8538177244594
 30
0.0
 40
2.9
100
AcDbArc
 50
133.6028189726961
 51
226.3971810273038
  0
LINE
  5
6A5
330
1F
100
AcDbEntity
  8
0
100
AcDbLine
 10
16.09999532091183
 20
259.3738177244595
 30
0.0
 11
16.09999532091183
 21
255.9538177244593
 31
0.0
  0
LINE
  5
6A6
330
1F
100
AcDbEntity
  8
0
100
AcDbLine
 10
24.29999532091164
 20
257.5638177244595
 30
0.0
 11
22.59999532091182
 21
257.5638177244595
 31
0.0
  0
LINE
  5
6A7
330
1F
100
AcDbEntity
  8
0
100
AcDbLine
 10
24.29999532091164
 20
259.1638177244594
 30
0.0
 11
22.59999532091182
 21
259.1638177244594
 31
0.0
  0
LINE
  5
6A8
330
1F
100
AcDbEntity
  8
0
100
AcDbLine
 10
24.29999532091164
 20
259.1638177244594
 30
0.0
 11
24.29999532091164
 21
257.5638177244595
 31
0.0
  0
LINE
  5
6A9
330
1F
100
AcDbEntity
  8
0
100
AcDbLine
 10
20.29999532091165
 20
255.1638177244594
 30
0.0
 11
21.09999532091181
 21
255.1638177244594
 31
0.0
  0
CIRCLE
  5
6AA
330
1F
100
AcDbEntity
  8
0
100
AcDbCircle
 10
18.09999532091182
 20
253.8538177244594
 30
0.0
 40
0.75
  0
LINE
  5
6AB
330
1F
100
AcDbEntity
  8
0
100
AcDbLine
 10
20.29999532091165
 20
252.5438177244594
 30
0.0
 11
21.09999532091181
 21
252.5438177244594
 31
0.0
  0
CIRCLE
  5
6AC
330
1F
100
AcDbEntity
  8
0
100
AcDbCircle
 10
18.09999532091182
 20
253.8538177244594
 30
0.0
 40
1.5
  0
LINE
  5
6AD
330
1F
100
AcDbEntity
  8
0
100
AcDbLine
 10
20.29999532091165
 20
255.1638177244594
 30
0.0
 11
20.29999532091165
 21
252.5438177244594
 31
0.0
  0
LINE
  5
6AE
330
1F
100
AcDbEntity
  8
0
100
AcDbLine
 10
21.09999532091181
 20
265.4738177244594
 30
0.0
 11
21.09999532091181
 21
270.4738177244594
 31
0.0
  0
CIRCLE
  5
6AF
330
1F
100
AcDbEntity
  8
0
100
AcDbCircle
 10
18.09999532091182
 20
267.5738177244592
 30
0.0
 40
2.0
  0
LINE
  5
6B0
330
1F
100
AcDbEntity
  8
0
100
AcDbLine
 10
21.09999532091181
 20
264.113817724459
 30
0.0
 11
16.09999532091183
 21
264.113817724459
 31
0.0
  0
LINE
  5
6B1
330
1F
100
AcDbEntity
  8
0
100
AcDbLine
 10
16.09999532091183
 20
264.113817724459
 30
0.0
 11
16.09999532091183
 21
263.5738177244592
 31
0.0
  0
LINE
  5
6B2
330
1F
100
AcDbEntity
  8
0
100
AcDbLine
 10
21.09999532091181
 20
265.4738177244594
 30
0.0
 11
22.59999532091182
 21
265.4738177244594
 31
0.0
  0
CIRCLE
  5
6B3
330
1F
100
AcDbEntity
  8
0
100
AcDbCircle
 10
18.09999532091182
 20
267.5738177244592
 30
0.0
 40
0.9
  0
LINE
  5
6B4
330
1F
100
AcDbEntity
  8
0
100
AcDbLine
 10
20.29999532091165
 20
262.7838177244592
 30
0.0
 11
21.09999532091181
 21
262.7838177244592
 31
0.0
  0
LINE
  5
6B5
330
1F
100
AcDbEntity
  8
0
100
AcDbLine
 10
21.09999532091181
 20
264.113817724459
 30
0.0
 11
21.09999532091181
 21
262.7838177244592
 31
0.0
  0
LINE
  5
6B6
330
1F
100
AcDbEntity
  8
0
100
AcDbLine
 10
20.29999532091165
 20
260.1638177244594
 30
0.0
 11
21.09999532091181
 21
260.1638177244594
 31
0.0
  0
CIRCLE
  5
6B7
330
1F
100
AcDbEntity
  8
0
100
AcDbCircle
 10
18.09999532091182
 20
261.4738177244594
 30
0.0
 40
0.75
  0
LINE
  5
6B8
330
1F
100
AcDbEntity
  8
0
100
AcDbLine
 10
20.29999532091165
 20
262.7838177244592
 30
0.0
 11
20.29999532091165
 21
260.1638177244594
 31
0.0
  0
CIRCLE
  5
6B9
330
1F
100
AcDbEntity
  8
0
100
AcDbCircle
 10
18.09999532091182
 20
261.4738177244594
 30
0.0
 40
1.5
  0
LINE
  5
6BA
330
1F
100
AcDbEntity
  8
0
100
AcDbLine
 10
22.59999532091182
 20
265.4738177244594
 30
0.0
 11
22.59999532091182
 21
265.113817724459
 31
0.0
  0
LINE
  5
6BB
330
1F
100
AcDbEntity
  8
0
100
AcDbLine
 10
14.09999532091183
 20
270.4738177244594
 30
0.0
 11
21.09999532091181
 21
270.4738177244594
 31
0.0
  0
LINE
  5
6BC
330
1F
100
AcDbEntity
  8
0
100
AcDbLine
 10
14.09999532091183
 20
265.233817724459
 30
0.0
 11
14.09999532091183
 21
270.4738177244594
 31
0.0
  0
LINE
  5
6BD
330
1F
100
AcDbEntity
  8
0
100
AcDbLine
 10
14.09999532091183
 20
270.4738177244594
 30
0.0
 11
21.09999532091181
 21
270.4738177244594
 31
0.0
  0
LINE
  5
6BE
330
1F
100
AcDbEntity
  8
0
100
AcDbLine
 10
21.09999532091181
 20
270.4738177244594
 30
0.0
 11
21.09999532091181
 21
265.233817724459
 31
0.0
  0
LINE
  5
6BF
330
1F
100
AcDbEntity
  8
0
100
AcDbLine
 10
14.09999532091183
 20
234.8538177244595
 30
0.0
 11
14.09999532091183
 21
229.613817724459
 31
0.0
  0
LINE
  5
6C0
330
1F
100
AcDbEntity
  8
0
100
AcDbLine
 10
14.09999532091183
 20
229.613817724459
 30
0.0
 11
21.09999532091181
 21
229.613817724459
 31
0.0
  0
LINE
  5
6C1
330
1F
100
AcDbEntity
  8
0
100
AcDbLine
 10
21.09999532091181
 20
229.613817724459
 30
0.0
 11
21.09999532091181
 21
234.8538177244595
 31
0.0
  0
LINE
  5
6C2
330
1F
100
AcDbEntity
  8
0
100
AcDbLine
 10
41.19999532091195
 20
242.073817724459
 30
0.0
 11
49.09999532091183
 21
242.073817724459
 31
0.0
  0
LINE
  5
6C3
330
1F
100
AcDbEntity
  8
0
100
AcDbLine
 10
42.14999532091177
 20
243.0738177244589
 30
0.0
 11
48.14999532091178
 21
243.0738177244589
 31
0.0
  0
LINE
  5
6C4
330
1F
100
AcDbEntity
  8
0
100
AcDbLine
 10
43.14999532091177
 20
243.0738177244589
 30
0.0
 11
44.14999532091179
 21
243.0738177244589
 31
0.0
  0
LINE
  5
6C5
330
1F
100
AcDbEntity
  8
0
100
AcDbLine
 10
44.94999532091195
 20
243.0738177244589
 30
0.0
 11
44.94999532091195
 21
246.0738177244589
 31
0.0
  0
LINE
  5
6C6
330
1F
100
AcDbEntity
  8
0
100
AcDbLine
 10
48.14999532091178
 20
243.0738177244589
 30
0.0
 11
48.14999532091178
 21
246.0738177244589
 31
0.0
  0
LINE
  5
6C7
330
1F
100
AcDbEntity
  8
0
100
AcDbLine
 10
48.14999532091178
 20
246.0738177244589
 30
0.0
 11
42.14999532091177
 21
246.0738177244589
 31
0.0
  0
LINE
  5
6C8
330
1F
100
AcDbEntity
  8
0
100
AcDbLine
 10
42.14999532091177
 20
246.0738177244589
 30
0.0
 11
42.14999532091177
 21
243.0738177244589
 31
0.0
  0
LINE
  5
6C9
330
1F
100
AcDbEntity
  8
0
100
AcDbLine
 10
44.14999532091179
 20
243.0738177244589
 30
0.0
 11
44.14999532091179
 21
246.0738177244589
 31
0.0
  0
LINE
  5
6CA
330
1F
100
AcDbEntity
  8
0
100
AcDbLine
 10
44.14999532091179
 20
246.0738177244589
 30
0.0
 11
43.14999532091177
 21
246.0738177244589
 31
0.0
  0
LINE
  5
6CB
330
1F
100
AcDbEntity
  8
0
100
AcDbLine
 10
43.14999532091177
 20
246.0738177244589
 30
0.0
 11
43.14999532091177
 21
243.0738177244589
 31
0.0
  0
LINE
  5
6CC
330
1F
100
AcDbEntity
  8
0
100
AcDbLine
 10
49.09999532091183
 20
242.073817724459
 30
0.0
 11
49.09999532091183
 21
247.0738177244589
 31
0.0
  0
LINE
  5
6CD
330
1F
100
AcDbEntity
  8
0
100
AcDbLine
 10
49.09999532091183
 20
247.0738177244589
 30
0.0
 11
41.19999532091195
 21
247.0738177244589
 31
0.0
  0
LINE
  5
6CE
330
1F
100
AcDbEntity
  8
0
100
AcDbLine
 10
41.19999532091195
 20
247.0738177244589
 30
0.0
 11
41.19999532091195
 21
242.073817724459
 31
0.0
  0
CIRCLE
  5
6CF
330
1F
100
AcDbEntity
  8
0
100
AcDbCircle
 10
2.499995320912828
 20
203.9738177244594
 30
0.0
 40
2.149999999999999
  0
CIRCLE
  5
6D0
330
1F
100
AcDbEntity
  8
0
100
AcDbCircle
 10
2.499995320912828
 20
203.9738177244594
 30
0.0
 40
1.85
  0
LINE
  5
6D1
330
1F
100
AcDbEntity
  8
0
100
AcDbLine
 10
1.149995320912694
 20
203.6738177244592
 30
0.0
 11
3.849995320912738
 21
203.6738177244592
 31
0.0
  0
LINE
  5
6D2
330
1F
100
AcDbEntity
  8
0
100
AcDbLine
 10
2.349995320912739
 20
203.9738177244594
 30
0.0
 11
2.349995320912739
 21
205.3238177244593
 31
0.0
  0
LINE
  5
6D3
330
1F
100
AcDbEntity
  8
0
100
AcDbLine
 10
2.649995320911784
 20
203.9738177244594
 30
0.0
 11
2.649995320911784
 21
205.3238177244593
 31
0.0
  0
ARC
  5
6D4
330
1F
100
AcDbEntity
  8
0
100
AcDbCircle
 10
2.499995320912828
 20
205.3238177244593
 30
0.0
 40
0.15
100
AcDbArc
 50
0.0
 51
180.0
  0
ARC
  5
6D5
330
1F
100
AcDbEntity
  8
0
100
AcDbCircle
 10
1.149995320912694
 20
203.8238177244592
 30
0.0
 40
0.15
100
AcDbArc
 50
90.0
 51
270.0
  0
ARC
  5
6D6
330
1F
100
AcDbEntity
  8
0
100
AcDbCircle
 10
3.849995320912738
 20
203.8238177244592
 30
0.0
 40
0.15
100
AcDbArc
 50
270.0
 51
90.0
  0
LINE
  5
6D7
330
1F
100
AcDbEntity
  8
0
100
AcDbLine
 10
1.149995320912694
 20
203.9738177244594
 30
0.0
 11
2.349995320912739
 21
203.9738177244594
 31
0.0
  0
LINE
  5
6D8
330
1F
100
AcDbEntity
  8
0
100
AcDbLine
 10
2.649995320911784
 20
203.9738177244594
 30
0.0
 11
3.849995320912738
 21
203.9738177244594
 31
0.0
  0
LINE
  5
6D9
330
1F
100
AcDbEntity
  8
0
100
AcDbLine
 10
1.549995320912785
 20
203.3238177244593
 30
0.0
 11
3.449995320911738
 21
203.3238177244593
 31
0.0
  0
LINE
  5
6DA
330
1F
100
AcDbEntity
  8
0
100
AcDbLine
 10
1.549995320912785
 20
203.023817724459
 30
0.0
 11
3.449995320911738
 21
203.023817724459
 31
0.0
  0
LINE
  5
6DB
330
1F
100
AcDbEntity
  8
0
100
AcDbLine
 10
1.949995320912874
 20
202.673817724459
 30
0.0
 11
3.049995320911647
 21
202.673817724459
 31
0.0
  0
LINE
  5
6DC
330
1F
100
AcDbEntity
  8
0
100
AcDbLine
 10
1.949995320912874
 20
202.3738177244594
 30
0.0
 11
3.049995320911647
 21
202.3738177244594
 31
0.0
  0
ARC
  5
6DD
330
1F
100
AcDbEntity
  8
0
100
AcDbCircle
 10
1.949995320912874
 20
202.5238177244589
 30
0.0
 40
0.15
100
AcDbArc
 50
90.0
 51
270.0
  0
ARC
  5
6DE
330
1F
100
AcDbEntity
  8
0
100
AcDbCircle
 10
3.049995320911647
 20
202.5238177244589
 30
0.0
 40
0.15
100
AcDbArc
 50
270.0
 51
90.0
  0
ARC
  5
6DF
330
1F
100
AcDbEntity
  8
0
100
AcDbCircle
 10
1.549995320912785
 20
203.173817724459
 30
0.0
 40
0.15
100
AcDbArc
 50
90.0
 51
270.0
  0
ARC
  5
6E0
330
1F
100
AcDbEntity
  8
0
100
AcDbCircle
 10
3.449995320911738
 20
203.173817724459
 30
0.0
 40
0.15
100
AcDbArc
 50
270.0
 51
90.0
  0
LINE
  5
6E1
330
1F
100
AcDbEntity
  8
0
100
AcDbLine
 10
49.09999532091183
 20
241.5738177244592
 30
0.0
 11
41.84999532091183
 21
241.5738177244592
 31
0.0
  0
CIRCLE
  5
6E2
330
1F
100
AcDbEntity
  8
0
100
AcDbCircle
 10
45.59999532091183
 20
235.6238177244594
 30
0.0
 40
1.0
  0
CIRCLE
  5
6E3
330
1F
100
AcDbEntity
  8
0
100
AcDbCircle
 10
45.59999532091183
 20
239.1238177244594
 30
0.0
 40
1.0
  0
LINE
  5
6E4
330
1F
100
AcDbEntity
  8
0
100
AcDbLine
 10
41.84999532091183
 20
241.5738177244592
 30
0.0
 11
41.84999532091183
 21
233.173817724459
 31
0.0
  0
LINE
  5
6E5
330
1F
100
AcDbEntity
  8
0
100
AcDbLine
 10
41.84999532091183
 20
233.173817724459
 30
0.0
 11
49.09999532091183
 21
233.173817724459
 31
0.0
  0
LINE
  5
6E6
330
1F
100
AcDbEntity
  8
0
100
AcDbLine
 10
49.09999532091183
 20
233.173817724459
 30
0.0
 11
49.09999532091183
 21
241.5738177244592
 31
0.0
  0
LINE
  5
6E7
330
1F
100
AcDbEntity
  8
0
100
AcDbLine
 10
41.19999532091195
 20
262.0738177244593
 30
0.0
 11
49.09999532091183
 21
262.0738177244593
 31
0.0
  0
LINE
  5
6E8
330
1F
100
AcDbEntity
  8
0
100
AcDbLine
 10
42.14999532091177
 20
263.0738177244592
 30
0.0
 11
48.14999532091178
 21
263.0738177244592
 31
0.0
  0
LINE
  5
6E9
330
1F
100
AcDbEntity
  8
0
100
AcDbLine
 10
43.14999532091177
 20
263.0738177244592
 30
0.0
 11
44.14999532091179
 21
263.0738177244592
 31
0.0
  0
LINE
  5
6EA
330
1F
100
AcDbEntity
  8
0
100
AcDbLine
 10
44.94999532091195
 20
263.0738177244592
 30
0.0
 11
44.94999532091195
 21
266.0738177244592
 31
0.0
  0
LINE
  5
6EB
330
1F
100
AcDbEntity
  8
0
100
AcDbLine
 10
49.09999532091183
 20
262.0738177244593
 30
0.0
 11
49.09999532091183
 21
267.0738177244592
 31
0.0
  0
LINE
  5
6EC
330
1F
100
AcDbEntity
  8
0
100
AcDbLine
 10
49.09999532091183
 20
267.0738177244592
 30
0.0
 11
41.19999532091195
 21
267.0738177244592
 31
0.0
  0
LINE
  5
6ED
330
1F
100
AcDbEntity
  8
0
100
AcDbLine
 10
41.19999532091195
 20
267.0738177244592
 30
0.0
 11
41.19999532091195
 21
262.0738177244593
 31
0.0
  0
LINE
  5
6EE
330
1F
100
AcDbEntity
  8
0
100
AcDbLine
 10
44.14999532091179
 20
263.0738177244592
 30
0.0
 11
44.14999532091179
 21
266.0738177244592
 31
0.0
  0
LINE
  5
6EF
330
1F
100
AcDbEntity
  8
0
100
AcDbLine
 10
44.14999532091179
 20
266.0738177244592
 30
0.0
 11
43.14999532091177
 21
266.0738177244592
 31
0.0
  0
LINE
  5
6F0
330
1F
100
AcDbEntity
  8
0
100
AcDbLine
 10
43.14999532091177
 20
266.0738177244592
 30
0.0
 11
43.14999532091177
 21
263.0738177244592
 31
0.0
  0
LINE
  5
6F1
330
1F
100
AcDbEntity
  8
0
100
AcDbLine
 10
48.14999532091178
 20
263.0738177244592
 30
0.0
 11
48.14999532091178
 21
266.0738177244592
 31
0.0
  0
LINE
  5
6F2
330
1F
100
AcDbEntity
  8
0
100
AcDbLine
 10
48.14999532091178
 20
266.0738177244592
 30
0.0
 11
42.14999532091177
 21
266.0738177244592
 31
0.0
  0
LINE
  5
6F3
330
1F
100
AcDbEntity
  8
0
100
AcDbLine
 10
42.14999532091177
 20
266.0738177244592
 30
0.0
 11
42.14999532091177
 21
263.0738177244592
 31
0.0
  0
CIRCLE
  5
6F4
330
1F
100
AcDbEntity
  8
0
100
AcDbCircle
 10
42.59999532091272
 20
254.573817724459
 30
0.0
 40
5.5
  0
LINE
  5
6F5
330
1F
100
AcDbEntity
  8
0
100
AcDbLine
 10
36.29999532091186
 20
247.5738177244592
 30
0.0
 11
36.29999532091186
 21
261.5738177244592
 31
0.0
  0
LINE
  5
6F6
330
1F
100
AcDbEntity
  8
0
100
AcDbLine
 10
49.09999532091274
 20
247.5738177244592
 30
0.0
 11
49.09999532091274
 21
253.4738177244594
 31
0.0
  0
LINE
  5
6F7
330
1F
100
AcDbEntity
  8
0
100
AcDbLine
 10
49.09999532091274
 20
247.5738177244592
 30
0.0
 11
36.29999532091186
 21
247.5738177244592
 31
0.0
  0
LINE
  5
6F8
330
1F
100
AcDbEntity
  8
0
100
AcDbLine
 10
49.09999532091274
 20
261.5738177244592
 30
0.0
 11
36.29999532091186
 21
261.5738177244592
 31
0.0
  0
LINE
  5
6F9
330
1F
100
AcDbEntity
  8
0
100
AcDbLine
 10
49.09999532091274
 20
255.6738177244592
 30
0.0
 11
49.09999532091274
 21
261.5738177244592
 31
0.0
  0
LINE
  5
6FA
330
1F
100
AcDbEntity
  8
0
100
AcDbLine
 10
14.09999532091274
 20
306.0738175651152
 30
0.0
 11
14.09999532091274
 21
339.0738175651151
 31
0.0
  0
LINE
  5
6FB
330
1F
100
AcDbEntity
  8
0
100
AcDbLine
 10
14.09999532091274
 20
275.9738175651154
 30
0.0
 11
14.09999532091274
 21
302.1738175651151
 31
0.0
  0
LINE
  5
6FC
330
1F
100
AcDbEntity
  8
0
100
AcDbLine
 10
49.09999532091274
 20
267.5738175651154
 30
0.0
 11
49.09999532091274
 21
232.6738175651153
 31
0.0
  0
LINE
  5
6FD
330
1F
100
AcDbEntity
  8
0
100
AcDbLine
 10
49.09999532091274
 20
230.6738175651153
 30
0.0
 11
49.09999532091274
 21
185.1738175651153
 31
0.0
  0
ARC
  5
6FE
330
1F
100
AcDbEntity
  8
0
100
AcDbCircle
 10
28.99999532091282
 20
359.9738177244593
 30
0.0
 40
5.5
100
AcDbArc
 50
294.6199773286483
 51
0.0
  0
ARC
  5
6FF
330
1F
100
AcDbEntity
  8
0
100
AcDbCircle
 10
28.99999532091282
 20
175.9738177244594
 30
0.0
 40
5.5
100
AcDbArc
 50
114.6199773286484
 51
180.0
  0
LINE
  5
700
330
1F
100
AcDbEntity
  8
0
100
AcDbLine
 10
31.09999532091273
 20
170.9738177244593
 30
0.0
 11
56.99999532091283
 21
170.9738177244593
 31
0.0
  0
LINE
  5
701
330
1F
100
AcDbEntity
  8
0
  6
ByBlock
 62
     0
100
AcDbLine
 10
31.10014394600989
 20
308.2989530291596
 30
0.0
 11
46.00006963346184
 21
308.2989530291615
 31
0.0
  0
LINE
  5
702
330
1F
100
AcDbEntity
  8
0
  6
ByBlock
 62
     0
100
AcDbLine
 10
46.00006963346368
 20
275.4989494291621
 30
0.0
 11
46.00006963346184
 21
308.2989530291615
 31
0.0
  0
LINE
  5
703
330
1F
100
AcDbEntity
  8
0
  6
ByBlock
 62
     0
100
AcDbLine
 10
31.10014394600989
 20
275.4989494291621
 30
0.0
 11
46.00006963346368
 21
275.4989494291621
 31
0.0
  0
INSERT
  5
704
330
1F
100
AcDbEntity
  8
0
 62
     0
 48
5.0
100
AcDbBlockReference
  2
A$C5CFD6E8C
 10
47.49999810989288
 20
315.7488159785048
 30
0.0
  0
INSERT
  5
705
330
1F
100
AcDbEntity
  8
0
 62
     0
 48
5.0
100
AcDbBlockReference
  2
A$C5CFD6E8C
 10
47.49999810989288
 20
310.2488159785047
 30
0.0
  0
LINE
  5
706
330
1F
100
AcDbEntity
  8
0
 62
     0
 48
5.0
100
AcDbLine
 10
31.10014394600989
 20
308.2989530291596
 30
0.0
 11
31.10014394600989
 21
275.4989494291621
 31
0.0
  0
LINE
  5
707
330
1F
100
AcDbEntity
  8
0
 62
     0
100
AcDbLine
 10
36.42683401636782
 20
281.1338177244596
 30
0.0
 11
38.03660246377079
 21
281.1338177244596
 31
0.0
  0
LINE
  5
708
330
1F
100
AcDbEntity
  8
0
 62
     0
100
AcDbLine
 10
38.03660246377079
 20
287.4238177244603
 30
0.0
 11
36.42683401636782
 21
287.4238177244603
 31
0.0
  0
LINE
  5
709
330
1F
100
AcDbEntity
  8
0
 62
     0
100
AcDbLine
 10
36.42683401636782
 20
296.3738177244603
 30
0.0
 11
38.03660246377079
 21
296.3738177244603
 31
0.0
  0
LINE
  5
70A
330
1F
100
AcDbEntity
  8
0
 62
     0
100
AcDbLine
 10
36.42683401636782
 20
296.3738177244603
 30
0.0
 11
36.89999532091361
 21
296.0038177244602
 31
0.0
  0
LINE
  5
70B
330
1F
100
AcDbEntity
  8
0
 62
     0
100
AcDbLine
 10
38.03660246377079
 20
297.5838177244601
 30
0.0
 11
36.42683401636782
 21
297.5838177244601
 31
0.0
  0
LINE
  5
70C
330
1F
100
AcDbEntity
  8
0
 62
     0
100
AcDbLine
 10
36.42683401636782
 20
301.4538177244602
 30
0.0
 11
36.89999532091361
 21
301.0838177244603
 31
0.0
  0
LINE
  5
70D
330
1F
100
AcDbEntity
  8
0
 62
     0
100
AcDbLine
 10
37.32999532091275
 20
305.5988177244596
 30
0.0
 11
36.89999532091361
 21
305.5988177244596
 31
0.0
  0
LINE
  5
70E
330
1F
100
AcDbEntity
  8
0
 62
     0
100
AcDbLine
 10
36.89999532091361
 20
303.0338177244602
 30
0.0
 11
36.89999532091361
 21
305.5988177244596
 31
0.0
  0
LINE
  5
70F
330
1F
100
AcDbEntity
  8
0
 62
     0
100
AcDbLine
 10
44.99999532091375
 20
293.39881772446
 30
0.0
 11
44.99999532091375
 21
292.5988177244597
 31
0.0
  0
LINE
  5
710
330
1F
100
AcDbEntity
  8
0
 62
     0
100
AcDbLine
 10
44.99999532091375
 20
292.5988177244597
 30
0.0
 11
44.99999532091375
 21
291.1988177244601
 31
0.0
  0
LINE
  5
711
330
1F
100
AcDbEntity
  8
0
 62
     0
100
AcDbLine
 10
44.99999532091375
 20
283.2388177244602
 30
0.0
 11
44.99999532091375
 21
282.4388177244598
 31
0.0
  0
LINE
  5
712
330
1F
100
AcDbEntity
  8
0
 62
     0
100
AcDbLine
 10
44.99999532091375
 20
282.4388177244598
 30
0.0
 11
44.99999532091375
 21
281.0388177244599
 31
0.0
  0
LINE
  5
713
330
1F
100
AcDbEntity
  8
0
 62
     0
100
AcDbLine
 10
44.99999532091375
 20
280.2388177244599
 30
0.0
 11
44.99999532091375
 21
278.1988177244601
 31
0.0
  0
LINE
  5
714
330
1F
100
AcDbEntity
  8
0
 62
     0
100
AcDbLine
 10
44.99999532091375
 20
281.0388177244599
 30
0.0
 11
44.99999532091375
 21
280.2388177244599
 31
0.0
  0
LINE
  5
715
330
1F
100
AcDbEntity
  8
0
 62
     0
100
AcDbLine
 10
44.99999532091375
 20
287.5188177244599
 30
0.0
 11
44.99999532091375
 21
286.1188177244603
 31
0.0
  0
LINE
  5
716
330
1F
100
AcDbEntity
  8
0
 62
     0
100
AcDbLine
 10
44.99999532091375
 20
288.31881772446
 30
0.0
 11
44.99999532091375
 21
287.5188177244599
 31
0.0
  0
LINE
  5
717
330
1F
100
AcDbEntity
  8
0
 62
     0
100
AcDbLine
 10
44.99999532091375
 20
290.3988177244599
 30
0.0
 11
44.99999532091375
 21
288.31881772446
 31
0.0
  0
LINE
  5
718
330
1F
100
AcDbEntity
  8
0
 62
     0
100
AcDbLine
 10
44.99999532091375
 20
291.1988177244601
 30
0.0
 11
44.99999532091375
 21
290.3988177244599
 31
0.0
  0
LINE
  5
719
330
1F
100
AcDbEntity
  8
0
 62
     0
100
AcDbLine
 10
44.99999532091375
 20
285.31881772446
 30
0.0
 11
44.99999532091375
 21
283.2388177244602
 31
0.0
  0
LINE
  5
71A
330
1F
100
AcDbEntity
  8
0
 62
     0
100
AcDbLine
 10
44.99999532091375
 20
286.1188177244603
 30
0.0
 11
44.99999532091375
 21
285.31881772446
 31
0.0
  0
LINE
  5
71B
330
1F
100
AcDbEntity
  8
0
 62
     0
100
AcDbLine
 10
44.99999532091375
 20
303.5588177244598
 30
0.0
 11
44.99999532091375
 21
302.7588177244596
 31
0.0
  0
LINE
  5
71C
330
1F
100
AcDbEntity
  8
0
 62
     0
100
AcDbLine
 10
44.99999532091375
 20
305.5988177244596
 30
0.0
 11
44.99999532091375
 21
303.5588177244598
 31
0.0
  0
LINE
  5
71D
330
1F
100
AcDbEntity
  8
0
 62
     0
100
AcDbLine
 10
44.99999532091375
 20
298.4788177244599
 30
0.0
 11
44.99999532091375
 21
297.6788177244596
 31
0.0
  0
LINE
  5
71E
330
1F
100
AcDbEntity
  8
0
 62
     0
100
AcDbLine
 10
44.99999532091375
 20
302.7588177244596
 30
0.0
 11
44.99999532091375
 21
301.3588177244598
 31
0.0
  0
LINE
  5
71F
330
1F
100
AcDbEntity
  8
0
 62
     0
100
AcDbLine
 10
44.99999532091375
 20
300.5588177244598
 30
0.0
 11
44.99999532091375
 21
298.4788177244599
 31
0.0
  0
LINE
  5
720
330
1F
100
AcDbEntity
  8
0
 62
     0
100
AcDbLine
 10
44.99999532091375
 20
301.3588177244598
 30
0.0
 11
44.99999532091375
 21
300.5588177244598
 31
0.0
  0
LINE
  5
721
330
1F
100
AcDbEntity
  8
0
 62
     0
100
AcDbLine
 10
44.99999532091375
 20
297.6788177244596
 30
0.0
 11
44.99999532091375
 21
296.27881772446
 31
0.0
  0
LINE
  5
722
330
1F
100
AcDbEntity
  8
0
 62
     0
100
AcDbLine
 10
44.99999532091375
 20
295.4788177244598
 30
0.0
 11
44.99999532091375
 21
293.39881772446
 31
0.0
  0
LINE
  5
723
330
1F
100
AcDbEntity
  8
0
 62
     0
100
AcDbLine
 10
44.99999532091375
 20
296.27881772446
 30
0.0
 11
44.99999532091375
 21
295.4788177244598
 31
0.0
  0
LINE
  5
724
330
1F
100
AcDbEntity
  8
0
 62
     0
100
AcDbLine
 10
43.32999532091275
 20
299.0184255298972
 30
0.0
 11
43.32999532091275
 21
300.0192099190235
 31
0.0
  0
LINE
  5
725
330
1F
100
AcDbEntity
  8
0
 62
     0
100
AcDbLine
 10
43.62999532091362
 20
299.1328836473138
 30
0.0
 11
43.62999532091362
 21
299.9047518016066
 31
0.0
  0
LINE
  5
726
330
1F
100
AcDbEntity
  8
0
 62
     0
100
AcDbLine
 10
37.72499532091365
 20
280.7638177244598
 30
0.0
 11
36.89999532091361
 21
280.7638177244598
 31
0.0
  0
LINE
  5
727
330
1F
100
AcDbEntity
  8
0
 62
     0
100
AcDbLine
 10
36.89999532091361
 20
287.7938177244601
 30
0.0
 11
37.72499532091365
 21
287.7938177244601
 31
0.0
  0
LINE
  5
728
330
1F
100
AcDbEntity
  8
0
 62
     0
100
AcDbLine
 10
36.89999532091361
 20
296.0038177244602
 30
0.0
 11
37.72499532091365
 21
296.0038177244602
 31
0.0
  0
LINE
  5
729
330
1F
100
AcDbEntity
  8
0
 62
     0
100
AcDbLine
 10
36.89999532091361
 20
297.9538177244601
 30
0.0
 11
37.72499532091365
 21
297.9538177244601
 31
0.0
  0
LINE
  5
72A
330
1F
100
AcDbEntity
  8
0
 62
     0
100
AcDbLine
 10
36.89999532091361
 20
287.7938177244601
 30
0.0
 11
36.89999532091361
 21
290.9238177244607
 31
0.0
  0
LINE
  5
72B
330
1F
100
AcDbEntity
  8
0
 62
     0
100
AcDbLine
 10
38.03660246377079
 20
291.2548065436785
 30
0.0
 11
37.72499532091365
 21
290.9238177244607
 31
0.0
  0
LINE
  5
72C
330
1F
100
AcDbEntity
  8
0
 62
     0
100
AcDbLine
 10
36.89999532091361
 20
290.9238177244607
 30
0.0
 11
37.72499532091365
 21
290.9238177244607
 31
0.0
  0
LINE
  5
72D
330
1F
100
AcDbEntity
  8
0
 62
     0
100
AcDbLine
 10
36.89999532091361
 20
282.7138177244605
 30
0.0
 11
36.89999532091361
 21
285.8438177244597
 31
0.0
  0
LINE
  5
72E
330
1F
100
AcDbEntity
  8
0
 62
     0
100
AcDbLine
 10
36.89999532091361
 20
285.8438177244597
 30
0.0
 11
37.72499532091365
 21
285.8438177244597
 31
0.0
  0
LINE
  5
72F
330
1F
100
AcDbEntity
  8
0
 62
     0
100
AcDbLine
 10
36.89999532091361
 20
282.7138177244605
 30
0.0
 11
37.72499532091365
 21
282.7138177244605
 31
0.0
  0
LINE
  5
730
330
1F
100
AcDbEntity
  8
0
 62
     0
100
AcDbLine
 10
38.03660246377079
 20
296.3348065436783
 30
0.0
 11
37.72499532091365
 21
296.0038177244602
 31
0.0
  0
LINE
  5
731
330
1F
100
AcDbEntity
  8
0
 62
     0
100
AcDbLine
 10
38.03660246377079
 20
281.0948065436777
 30
0.0
 11
37.72499532091365
 21
280.7638177244598
 31
0.0
  0
LINE
  5
732
330
1F
100
AcDbEntity
  8
0
 62
     0
100
AcDbLine
 10
37.72499532091365
 20
287.7938177244601
 30
0.0
 11
38.03660246377079
 21
287.4628289052423
 31
0.0
  0
LINE
  5
733
330
1F
100
AcDbEntity
  8
0
 62
     0
100
AcDbLine
 10
37.72499532091365
 20
280.7638177244598
 30
0.0
 11
37.72499532091365
 21
279.1988177244602
 31
0.0
  0
LINE
  5
734
330
1F
100
AcDbEntity
  8
0
 62
     0
100
AcDbLine
 10
43.32999532091275
 20
279.1988177244602
 30
0.0
 11
43.62999532091362
 21
279.1988177244602
 31
0.0
  0
LINE
  5
735
330
1F
100
AcDbEntity
  8
0
 62
     0
100
AcDbLine
 10
40.89794451334593
 20
296.7467669168907
 30
0.0
 11
41.36204612848269
 21
296.7467669168907
 31
0.0
  0
LINE
  5
736
330
1F
100
AcDbEntity
  8
0
 62
     0
100
AcDbLine
 10
40.62999532091359
 20
296.4788177244598
 30
0.0
 11
40.89794451334593
 21
296.7467669168907
 31
0.0
  0
LINE
  5
737
330
1F
100
AcDbEntity
  8
0
 62
     0
100
AcDbLine
 10
41.62999532091361
 20
296.4788177244598
 30
0.0
 11
40.62999532091359
 21
296.4788177244598
 31
0.0
  0
LINE
  5
738
330
1F
100
AcDbEntity
  8
0
 62
     0
100
AcDbLine
 10
41.36204612848269
 20
296.7467669168907
 30
0.0
 11
41.62999532091361
 21
296.4788177244598
 31
0.0
  0
LINE
  5
739
330
1F
100
AcDbEntity
  8
0
 62
     0
100
AcDbLine
 10
41.62999532091361
 20
297.4788177244598
 30
0.0
 11
41.62999532091361
 21
296.4788177244598
 31
0.0
  0
LINE
  5
73A
330
1F
100
AcDbEntity
  8
0
 62
     0
100
AcDbLine
 10
40.62999532091359
 20
296.4788177244598
 30
0.0
 11
40.62999532091359
 21
297.4788177244598
 31
0.0
  0
LINE
  5
73B
330
1F
100
AcDbEntity
  8
0
 62
     0
100
AcDbLine
 10
40.62999532091359
 20
297.4788177244598
 30
0.0
 11
41.62999532091361
 21
297.4788177244598
 31
0.0
  0
LINE
  5
73C
330
1F
100
AcDbEntity
  8
0
 62
     0
100
AcDbLine
 10
40.89794451334593
 20
297.2108685320288
 30
0.0
 11
40.62999532091359
 21
297.4788177244598
 31
0.0
  0
LINE
  5
73D
330
1F
100
AcDbEntity
  8
0
 62
     0
100
AcDbLine
 10
40.89794451334593
 20
297.2108685320288
 30
0.0
 11
40.89794451334593
 21
296.7467669168907
 31
0.0
  0
LINE
  5
73E
330
1F
100
AcDbEntity
  8
0
 62
     0
100
AcDbLine
 10
41.36204612848269
 20
296.7467669168907
 30
0.0
 11
41.36204612848269
 21
297.2108685320288
 31
0.0
  0
LINE
  5
73F
330
1F
100
AcDbEntity
  8
0
 62
     0
100
AcDbLine
 10
40.89794451334593
 20
297.2108685320288
 30
0.0
 11
41.36204612848269
 21
297.2108685320288
 31
0.0
  0
LINE
  5
740
330
1F
100
AcDbEntity
  8
0
 62
     0
100
AcDbLine
 10
41.36204612848269
 20
297.2108685320288
 30
0.0
 11
41.62999532091361
 21
297.4788177244598
 31
0.0
  0
LINE
  5
741
330
1F
100
AcDbEntity
  8
0
 62
     0
100
AcDbLine
 10
41.87999532091359
 20
289.559779618783
 30
0.0
 11
41.87999532091359
 21
289.1578558301371
 31
0.0
  0
LINE
  5
742
330
1F
100
AcDbEntity
  8
0
 62
     0
100
AcDbLine
 10
41.87999532091359
 20
289.1578558301371
 30
0.0
 11
41.1299953209136
 21
289.3588177244598
 31
0.0
  0
LINE
  5
743
330
1F
100
AcDbEntity
  8
0
 62
     0
100
AcDbLine
 10
41.1299953209136
 20
289.3588177244598
 30
0.0
 11
41.87999532091359
 21
289.559779618783
 31
0.0
  0
LINE
  5
744
330
1F
100
AcDbEntity
  8
0
 62
     0
100
AcDbLine
 10
41.87999532091359
 20
294.6397796187838
 30
0.0
 11
41.87999532091359
 21
294.237855830137
 31
0.0
  0
LINE
  5
745
330
1F
100
AcDbEntity
  8
0
 62
     0
100
AcDbLine
 10
41.87999532091359
 20
294.237855830137
 30
0.0
 11
41.1299953209136
 21
294.4388177244598
 31
0.0
  0
LINE
  5
746
330
1F
100
AcDbEntity
  8
0
 62
     0
100
AcDbLine
 10
41.1299953209136
 20
294.4388177244598
 30
0.0
 11
41.87999532091359
 21
294.6397796187838
 31
0.0
  0
LINE
  5
747
330
1F
100
AcDbEntity
  8
0
 62
     0
100
AcDbLine
 10
38.03660246377079
 20
279.1988177244602
 30
0.0
 11
38.03660246377079
 21
281.0948065436777
 31
0.0
  0
LINE
  5
748
330
1F
100
AcDbEntity
  8
0
 62
     0
100
AcDbLine
 10
38.03660246377079
 20
279.1988177244602
 30
0.0
 11
43.32999532091275
 21
279.1988177244602
 31
0.0
  0
LINE
  5
749
330
1F
100
AcDbEntity
  8
0
 62
     0
100
AcDbLine
 10
37.72499532091365
 20
279.1988177244602
 30
0.0
 11
38.03660246377079
 21
279.1988177244602
 31
0.0
  0
LINE
  5
74A
330
1F
100
AcDbEntity
  8
0
 62
     0
100
AcDbLine
 10
38.03660246377079
 20
287.4628289052423
 30
0.0
 11
38.03660246377079
 21
287.4238177244603
 31
0.0
  0
LINE
  5
74B
330
1F
100
AcDbEntity
  8
0
 62
     0
100
AcDbLine
 10
38.03660246377079
 20
287.4238177244603
 30
0.0
 11
38.03660246377079
 21
286.2138177244604
 31
0.0
  0
LINE
  5
74C
330
1F
100
AcDbEntity
  8
0
 62
     0
100
AcDbLine
 10
38.03660246377079
 20
282.3828289052423
 30
0.0
 11
38.03660246377079
 21
286.1748065436776
 31
0.0
  0
LINE
  5
74D
330
1F
100
AcDbEntity
  8
0
 62
     0
100
AcDbLine
 10
38.03660246377079
 20
286.2138177244604
 30
0.0
 11
38.03660246377079
 21
286.1748065436776
 31
0.0
  0
LINE
  5
74E
330
1F
100
AcDbEntity
  8
0
 62
     0
100
AcDbLine
 10
38.03660246377079
 20
282.3828289052423
 30
0.0
 11
38.03660246377079
 21
282.3438177244597
 31
0.0
  0
LINE
  5
74F
330
1F
100
AcDbEntity
  8
0
 62
     0
100
AcDbLine
 10
38.03660246377079
 20
282.3438177244597
 30
0.0
 11
38.03660246377079
 21
281.1338177244596
 31
0.0
  0
LINE
  5
750
330
1F
100
AcDbEntity
  8
0
 62
     0
100
AcDbLine
 10
38.03660246377079
 20
281.1338177244596
 30
0.0
 11
38.03660246377079
 21
281.0948065436777
 31
0.0
  0
LINE
  5
751
330
1F
100
AcDbEntity
  8
0
 62
     0
100
AcDbLine
 10
41.87999532091359
 20
284.4797796187831
 30
0.0
 11
41.87999532091359
 21
284.0778558301371
 31
0.0
  0
LINE
  5
752
330
1F
100
AcDbEntity
  8
0
 62
     0
100
AcDbLine
 10
41.87999532091359
 20
284.0778558301371
 30
0.0
 11
41.1299953209136
 21
284.2788177244602
 31
0.0
  0
LINE
  5
753
330
1F
100
AcDbEntity
  8
0
 62
     0
100
AcDbLine
 10
41.1299953209136
 20
284.2788177244602
 30
0.0
 11
41.87999532091359
 21
284.4797796187831
 31
0.0
  0
LINE
  5
754
330
1F
100
AcDbEntity
  8
0
 62
     0
100
AcDbLine
 10
41.62999532091361
 20
281.2388177244601
 30
0.0
 11
41.62999532091361
 21
282.2388177244598
 31
0.0
  0
LINE
  5
755
330
1F
100
AcDbEntity
  8
0
 62
     0
100
AcDbLine
 10
41.36204612848269
 20
281.5067669168911
 30
0.0
 11
41.62999532091361
 21
281.2388177244601
 31
0.0
  0
LINE
  5
756
330
1F
100
AcDbEntity
  8
0
 62
     0
100
AcDbLine
 10
41.36204612848269
 20
281.9708685320292
 30
0.0
 11
41.62999532091361
 21
282.2388177244598
 31
0.0
  0
LINE
  5
757
330
1F
100
AcDbEntity
  8
0
 62
     0
100
AcDbLine
 10
41.36204612848269
 20
281.9708685320292
 30
0.0
 11
41.36204612848269
 21
281.5067669168911
 31
0.0
  0
LINE
  5
758
330
1F
100
AcDbEntity
  8
0
 62
     0
100
AcDbLine
 10
40.62999532091359
 20
282.2388177244598
 30
0.0
 11
41.62999532091361
 21
282.2388177244598
 31
0.0
  0
LINE
  5
759
330
1F
100
AcDbEntity
  8
0
 62
     0
100
AcDbLine
 10
41.36204612848269
 20
281.5067669168911
 30
0.0
 11
40.89794451334593
 21
281.5067669168911
 31
0.0
  0
LINE
  5
75A
330
1F
100
AcDbEntity
  8
0
 62
     0
100
AcDbLine
 10
40.62999532091359
 20
281.2388177244601
 30
0.0
 11
40.62999532091359
 21
282.2388177244598
 31
0.0
  0
LINE
  5
75B
330
1F
100
AcDbEntity
  8
0
 62
     0
100
AcDbLine
 10
40.62999532091359
 20
281.2388177244601
 30
0.0
 11
40.89794451334593
 21
281.5067669168911
 31
0.0
  0
LINE
  5
75C
330
1F
100
AcDbEntity
  8
0
 62
     0
100
AcDbLine
 10
40.89794451334593
 20
281.9708685320292
 30
0.0
 11
40.89794451334593
 21
281.5067669168911
 31
0.0
  0
LINE
  5
75D
330
1F
100
AcDbEntity
  8
0
 62
     0
100
AcDbLine
 10
40.89794451334593
 20
281.9708685320292
 30
0.0
 11
40.62999532091359
 21
282.2388177244598
 31
0.0
  0
LINE
  5
75E
330
1F
100
AcDbEntity
  8
0
 62
     0
100
AcDbLine
 10
40.89794451334593
 20
281.9708685320292
 30
0.0
 11
41.36204612848269
 21
281.9708685320292
 31
0.0
  0
LINE
  5
75F
330
1F
100
AcDbEntity
  8
0
 62
     0
100
AcDbLine
 10
41.62999532091361
 20
281.2388177244601
 30
0.0
 11
40.62999532091359
 21
281.2388177244601
 31
0.0
  0
LINE
  5
760
330
1F
100
AcDbEntity
  8
0
 62
     0
100
AcDbLine
 10
39.917559755615
 20
281.0388177244599
 30
0.0
 11
42.34243088621179
 21
281.0388177244599
 31
0.0
  0
LINE
  5
761
330
1F
100
AcDbEntity
  8
0
 62
     0
100
AcDbLine
 10
40.62999532091359
 20
291.39881772446
 30
0.0
 11
41.62999532091361
 21
291.39881772446
 31
0.0
  0
LINE
  5
762
330
1F
100
AcDbEntity
  8
0
 62
     0
100
AcDbLine
 10
40.62999532091359
 20
292.3988177244599
 30
0.0
 11
41.62999532091361
 21
292.3988177244599
 31
0.0
  0
LINE
  5
763
330
1F
100
AcDbEntity
  8
0
 62
     0
100
AcDbLine
 10
40.62999532091359
 20
291.39881772446
 30
0.0
 11
40.62999532091359
 21
292.3988177244599
 31
0.0
  0
LINE
  5
764
330
1F
100
AcDbEntity
  8
0
 62
     0
100
AcDbLine
 10
41.62999532091361
 20
292.3988177244599
 30
0.0
 11
41.62999532091361
 21
291.39881772446
 31
0.0
  0
LINE
  5
765
330
1F
100
AcDbEntity
  8
0
 62
     0
100
AcDbLine
 10
40.89794451334593
 20
291.6667669168908
 30
0.0
 11
41.36204612848269
 21
291.6667669168908
 31
0.0
  0
LINE
  5
766
330
1F
100
AcDbEntity
  8
0
 62
     0
100
AcDbLine
 10
40.89794451334593
 20
292.130868532029
 30
0.0
 11
40.89794451334593
 21
291.6667669168908
 31
0.0
  0
LINE
  5
767
330
1F
100
AcDbEntity
  8
0
 62
     0
100
AcDbLine
 10
40.89794451334593
 20
292.130868532029
 30
0.0
 11
40.62999532091359
 21
292.3988177244599
 31
0.0
  0
LINE
  5
768
330
1F
100
AcDbEntity
  8
0
 62
     0
100
AcDbLine
 10
41.36204612848269
 20
291.6667669168908
 30
0.0
 11
41.36204612848269
 21
292.130868532029
 31
0.0
  0
LINE
  5
769
330
1F
100
AcDbEntity
  8
0
 62
     0
100
AcDbLine
 10
40.89794451334593
 20
292.130868532029
 30
0.0
 11
41.36204612848269
 21
292.130868532029
 31
0.0
  0
LINE
  5
76A
330
1F
100
AcDbEntity
  8
0
 62
     0
100
AcDbLine
 10
41.36204612848269
 20
291.6667669168908
 30
0.0
 11
41.62999532091361
 21
291.39881772446
 31
0.0
  0
LINE
  5
76B
330
1F
100
AcDbEntity
  8
0
 62
     0
100
AcDbLine
 10
40.62999532091359
 20
291.39881772446
 30
0.0
 11
40.89794451334593
 21
291.6667669168908
 31
0.0
  0
LINE
  5
76C
330
1F
100
AcDbEntity
  8
0
 62
     0
100
AcDbLine
 10
41.36204612848269
 20
292.130868532029
 30
0.0
 11
41.62999532091361
 21
292.3988177244599
 31
0.0
  0
LINE
  5
76D
330
1F
100
AcDbEntity
  8
0
 62
     0
100
AcDbLine
 10
43.62999532091362
 20
279.584751801606
 30
0.0
 11
43.62999532091362
 21
279.1988177244602
 31
0.0
  0
LINE
  5
76E
330
1F
100
AcDbEntity
  8
0
 62
     0
100
AcDbLine
 10
43.62999532091362
 20
283.8928836473142
 30
0.0
 11
43.62999532091362
 21
284.6647518016069
 31
0.0
  0
LINE
  5
76F
330
1F
100
AcDbEntity
  8
0
 62
     0
100
AcDbLine
 10
43.62999532091362
 20
288.9728836473141
 30
0.0
 11
43.62999532091362
 21
289.7447518016068
 31
0.0
  0
LINE
  5
770
330
1F
100
AcDbEntity
  8
0
 62
     0
100
AcDbLine
 10
43.32999532091275
 20
293.9384255298971
 30
0.0
 11
43.32999532091275
 21
294.9392099190236
 31
0.0
  0
LINE
  5
771
330
1F
100
AcDbEntity
  8
0
 62
     0
100
AcDbLine
 10
43.62999532091362
 20
294.052883647314
 30
0.0
 11
43.62999532091362
 21
294.8247518016069
 31
0.0
  0
LINE
  5
772
330
1F
100
AcDbEntity
  8
0
 62
     0
100
AcDbLine
 10
43.32999532091275
 20
288.8584255298973
 30
0.0
 11
43.32999532091275
 21
289.8592099190236
 31
0.0
  0
LINE
  5
773
330
1F
100
AcDbEntity
  8
0
 62
     0
100
AcDbLine
 10
43.32999532091275
 20
283.7784255298974
 30
0.0
 11
43.32999532091275
 21
284.7792099190236
 31
0.0
  0
LINE
  5
774
330
1F
100
AcDbEntity
  8
0
 62
     0
100
AcDbLine
 10
43.32999532091275
 20
279.1988177244602
 30
0.0
 11
43.32999532091275
 21
279.6992099190229
 31
0.0
  0
LINE
  5
775
330
1F
100
AcDbEntity
  8
0
 62
     0
100
AcDbLine
 10
40.62999532091359
 20
286.31881772446
 30
0.0
 11
40.62999532091359
 21
287.31881772446
 31
0.0
  0
LINE
  5
776
330
1F
100
AcDbEntity
  8
0
 62
     0
100
AcDbLine
 10
41.62999532091361
 20
287.31881772446
 30
0.0
 11
41.62999532091361
 21
286.31881772446
 31
0.0
  0
LINE
  5
777
330
1F
100
AcDbEntity
  8
0
 62
     0
100
AcDbLine
 10
41.36204612848269
 20
286.586766916891
 30
0.0
 11
41.62999532091361
 21
286.31881772446
 31
0.0
  0
LINE
  5
778
330
1F
100
AcDbEntity
  8
0
 62
     0
100
AcDbLine
 10
41.62999532091361
 20
286.31881772446
 30
0.0
 11
40.62999532091359
 21
286.31881772446
 31
0.0
  0
LINE
  5
779
330
1F
100
AcDbEntity
  8
0
 62
     0
100
AcDbLine
 10
40.62999532091359
 20
286.31881772446
 30
0.0
 11
40.89794451334593
 21
286.586766916891
 31
0.0
  0
LINE
  5
77A
330
1F
100
AcDbEntity
  8
0
 62
     0
100
AcDbLine
 10
41.36204612848269
 20
287.0508685320288
 30
0.0
 11
41.36204612848269
 21
286.586766916891
 31
0.0
  0
LINE
  5
77B
330
1F
100
AcDbEntity
  8
0
 62
     0
100
AcDbLine
 10
40.89794451334593
 20
286.586766916891
 30
0.0
 11
41.36204612848269
 21
286.586766916891
 31
0.0
  0
LINE
  5
77C
330
1F
100
AcDbEntity
  8
0
 62
     0
100
AcDbLine
 10
40.89794451334593
 20
287.0508685320288
 30
0.0
 11
40.89794451334593
 21
286.586766916891
 31
0.0
  0
LINE
  5
77D
330
1F
100
AcDbEntity
  8
0
 62
     0
100
AcDbLine
 10
40.89794451334593
 20
287.0508685320288
 30
0.0
 11
41.36204612848269
 21
287.0508685320288
 31
0.0
  0
LINE
  5
77E
330
1F
100
AcDbEntity
  8
0
 62
     0
100
AcDbLine
 10
40.89794451334593
 20
287.0508685320288
 30
0.0
 11
40.62999532091359
 21
287.31881772446
 31
0.0
  0
LINE
  5
77F
330
1F
100
AcDbEntity
  8
0
 62
     0
100
AcDbLine
 10
40.62999532091359
 20
287.31881772446
 30
0.0
 11
41.62999532091361
 21
287.31881772446
 31
0.0
  0
LINE
  5
780
330
1F
100
AcDbEntity
  8
0
 62
     0
100
AcDbLine
 10
41.36204612848269
 20
287.0508685320288
 30
0.0
 11
41.62999532091361
 21
287.31881772446
 31
0.0
  0
LINE
  5
781
330
1F
100
AcDbEntity
  8
0
 62
     0
100
AcDbLine
 10
38.03660246377079
 20
297.5838177244601
 30
0.0
 11
38.03660246377079
 21
297.6228289052422
 31
0.0
  0
LINE
  5
782
330
1F
100
AcDbEntity
  8
0
 62
     0
100
AcDbLine
 10
38.03660246377079
 20
296.3738177244603
 30
0.0
 11
38.03660246377079
 21
297.5838177244601
 31
0.0
  0
LINE
  5
783
330
1F
100
AcDbEntity
  8
0
 62
     0
100
AcDbLine
 10
38.03660246377079
 20
296.3348065436783
 30
0.0
 11
38.03660246377079
 21
296.3738177244603
 31
0.0
  0
LINE
  5
784
330
1F
100
AcDbEntity
  8
0
 62
     0
100
AcDbLine
 10
38.03660246377079
 20
287.4628289052423
 30
0.0
 11
38.03660246377079
 21
291.2548065436785
 31
0.0
  0
LINE
  5
785
330
1F
100
AcDbEntity
  8
0
 62
     0
100
AcDbLine
 10
38.03660246377079
 20
291.2938177244602
 30
0.0
 11
38.03660246377079
 21
291.2548065436785
 31
0.0
  0
LINE
  5
786
330
1F
100
AcDbEntity
  8
0
 62
     0
100
AcDbLine
 10
38.03660246377079
 20
292.5038177244605
 30
0.0
 11
38.03660246377079
 21
291.2938177244602
 31
0.0
  0
LINE
  5
787
330
1F
100
AcDbEntity
  8
0
 62
     0
100
AcDbLine
 10
38.03660246377079
 20
292.5428289052423
 30
0.0
 11
38.03660246377079
 21
296.3348065436783
 31
0.0
  0
LINE
  5
788
330
1F
100
AcDbEntity
  8
0
 62
     0
100
AcDbLine
 10
38.03660246377079
 20
292.5038177244605
 30
0.0
 11
38.03660246377079
 21
292.5428289052423
 31
0.0
  0
LINE
  5
789
330
1F
100
AcDbEntity
  8
0
 62
     0
100
AcDbLine
 10
37.72499532091365
 20
282.7138177244605
 30
0.0
 11
37.72499532091365
 21
285.8438177244597
 31
0.0
  0
LINE
  5
78A
330
1F
100
AcDbEntity
  8
0
 62
     0
100
AcDbLine
 10
37.72499532091365
 20
287.7938177244601
 30
0.0
 11
37.72499532091365
 21
290.9238177244607
 31
0.0
  0
LINE
  5
78B
330
1F
100
AcDbEntity
  8
0
 62
     0
100
AcDbLine
 10
37.72499532091365
 20
292.8738177244603
 30
0.0
 11
37.72499532091365
 21
296.0038177244602
 31
0.0
  0
LINE
  5
78C
330
1F
100
AcDbEntity
  8
0
 62
     0
100
AcDbLine
 10
37.72499532091365
 20
297.9538177244601
 30
0.0
 11
38.03660246377079
 21
297.6228289052422
 31
0.0
  0
LINE
  5
78D
330
1F
100
AcDbEntity
  8
0
 62
     0
100
AcDbLine
 10
38.03660246377079
 20
286.1748065436776
 30
0.0
 11
37.72499532091365
 21
285.8438177244597
 31
0.0
  0
LINE
  5
78E
330
1F
100
AcDbEntity
  8
0
 62
     0
100
AcDbLine
 10
37.72499532091365
 20
282.7138177244605
 30
0.0
 11
38.03660246377079
 21
282.3828289052423
 31
0.0
  0
LINE
  5
78F
330
1F
100
AcDbEntity
  8
0
 62
     0
100
AcDbLine
 10
37.72499532091365
 20
292.8738177244603
 30
0.0
 11
38.03660246377079
 21
292.5428289052423
 31
0.0
  0
LINE
  5
790
330
1F
100
AcDbEntity
  8
0
 62
     0
100
AcDbLine
 10
36.89999532091361
 20
292.8738177244603
 30
0.0
 11
37.72499532091365
 21
292.8738177244603
 31
0.0
  0
LINE
  5
791
330
1F
100
AcDbEntity
  8
0
 62
     0
100
AcDbLine
 10
36.89999532091361
 20
292.8738177244603
 30
0.0
 11
36.89999532091361
 21
296.0038177244602
 31
0.0
  0
LINE
  5
792
330
1F
100
AcDbEntity
  8
0
 62
     0
100
AcDbLine
 10
38.03660246377079
 20
302.7028289052422
 30
0.0
 11
38.03660246377079
 21
304.5988177244597
 31
0.0
  0
LINE
  5
793
330
1F
100
AcDbEntity
  8
0
 62
     0
100
AcDbLine
 10
41.87999532091359
 20
299.7197796187835
 30
0.0
 11
41.87999532091359
 21
299.3178558301368
 31
0.0
  0
LINE
  5
794
330
1F
100
AcDbEntity
  8
0
 62
     0
100
AcDbLine
 10
41.87999532091359
 20
299.3178558301368
 30
0.0
 11
41.1299953209136
 21
299.5188177244599
 31
0.0
  0
LINE
  5
795
330
1F
100
AcDbEntity
  8
0
 62
     0
100
AcDbLine
 10
41.1299953209136
 20
299.5188177244599
 30
0.0
 11
41.87999532091359
 21
299.7197796187835
 31
0.0
  0
LINE
  5
796
330
1F
100
AcDbEntity
  8
0
 62
     0
100
AcDbLine
 10
36.89999532091361
 20
297.9538177244601
 30
0.0
 11
36.89999532091361
 21
301.0838177244603
 31
0.0
  0
LINE
  5
797
330
1F
100
AcDbEntity
  8
0
 62
     0
100
AcDbLine
 10
38.03660246377079
 20
301.4148065436783
 30
0.0
 11
38.03660246377079
 21
301.4538177244602
 31
0.0
  0
LINE
  5
798
330
1F
100
AcDbEntity
  8
0
 62
     0
100
AcDbLine
 10
38.03660246377079
 20
297.6228289052422
 30
0.0
 11
38.03660246377079
 21
301.4148065436783
 31
0.0
  0
LINE
  5
799
330
1F
100
AcDbEntity
  8
0
 62
     0
100
AcDbLine
 10
37.72499532091365
 20
297.9538177244601
 30
0.0
 11
37.72499532091365
 21
301.0838177244603
 31
0.0
  0
LINE
  5
79A
330
1F
100
AcDbEntity
  8
0
 62
     0
100
AcDbLine
 10
38.03660246377079
 20
304.5988177244597
 30
0.0
 11
37.72499532091365
 21
304.5988177244597
 31
0.0
  0
LINE
  5
79B
330
1F
100
AcDbEntity
  8
0
 62
     0
100
AcDbLine
 10
37.72499532091365
 20
304.5988177244597
 30
0.0
 11
37.72499532091365
 21
303.0338177244602
 31
0.0
  0
LINE
  5
79C
330
1F
100
AcDbEntity
  8
0
 62
     0
100
AcDbLine
 10
36.89999532091361
 20
303.0338177244602
 30
0.0
 11
37.72499532091365
 21
303.0338177244602
 31
0.0
  0
LINE
  5
79D
330
1F
100
AcDbEntity
  8
0
 62
     0
100
AcDbLine
 10
43.62999532091362
 20
304.5988177244597
 30
0.0
 11
43.62999532091362
 21
304.2128836473136
 31
0.0
  0
LINE
  5
79E
330
1F
100
AcDbEntity
  8
0
 62
     0
100
AcDbLine
 10
43.32999532091275
 20
304.0984255298972
 30
0.0
 11
43.32999532091275
 21
304.5988177244597
 31
0.0
  0
LINE
  5
79F
330
1F
100
AcDbEntity
  8
0
 62
     0
100
AcDbLine
 10
43.32999532091275
 20
304.5988177244597
 30
0.0
 11
38.03660246377079
 21
304.5988177244597
 31
0.0
  0
LINE
  5
7A0
330
1F
100
AcDbEntity
  8
0
 62
     0
100
AcDbLine
 10
43.62999532091362
 20
304.5988177244597
 30
0.0
 11
43.32999532091275
 21
304.5988177244597
 31
0.0
  0
LINE
  5
7A1
330
1F
100
AcDbEntity
  8
0
 62
     0
100
AcDbLine
 10
41.62999532091497
 20
302.5588177244598
 30
0.0
 11
41.36204612848269
 21
302.2908685320288
 31
0.0
  0
LINE
  5
7A2
330
1F
100
AcDbEntity
  8
0
 62
     0
100
AcDbLine
 10
41.62999532091361
 20
301.5588177244598
 30
0.0
 11
41.62999532091497
 21
302.5588177244598
 31
0.0
  0
LINE
  5
7A3
330
1F
100
AcDbEntity
  8
0
 62
     0
100
AcDbLine
 10
41.36204612848269
 20
301.8267669168908
 30
0.0
 11
41.62999532091361
 21
301.5588177244598
 31
0.0
  0
LINE
  5
7A4
330
1F
100
AcDbEntity
  8
0
 62
     0
100
AcDbLine
 10
41.36204612848269
 20
301.8267669168908
 30
0.0
 11
41.36204612848269
 21
302.2908685320288
 31
0.0
  0
LINE
  5
7A5
330
1F
100
AcDbEntity
  8
0
 62
     0
100
AcDbLine
 10
40.62999532091497
 20
302.5588177244598
 30
0.0
 11
41.62999532091497
 21
302.5588177244598
 31
0.0
  0
LINE
  5
7A6
330
1F
100
AcDbEntity
  8
0
 62
     0
100
AcDbLine
 10
40.62999532091359
 20
301.5588177244598
 30
0.0
 11
40.89794451334593
 21
301.8267669168908
 31
0.0
  0
LINE
  5
7A7
330
1F
100
AcDbEntity
  8
0
 62
     0
100
AcDbLine
 10
40.62999532091497
 20
302.5588177244598
 30
0.0
 11
40.62999532091359
 21
301.5588177244598
 31
0.0
  0
LINE
  5
7A8
330
1F
100
AcDbEntity
  8
0
 62
     0
100
AcDbLine
 10
40.62999532091497
 20
302.5588177244598
 30
0.0
 11
40.89794451334593
 21
302.2908685320288
 31
0.0
  0
LINE
  5
7A9
330
1F
100
AcDbEntity
  8
0
 62
     0
100
AcDbLine
 10
40.89794451334593
 20
301.8267669168908
 30
0.0
 11
41.36204612848269
 21
301.8267669168908
 31
0.0
  0
LINE
  5
7AA
330
1F
100
AcDbEntity
  8
0
 62
     0
100
AcDbLine
 10
40.89794451334593
 20
302.2908685320288
 30
0.0
 11
40.89794451334593
 21
301.8267669168908
 31
0.0
  0
LINE
  5
7AB
330
1F
100
AcDbEntity
  8
0
 62
     0
100
AcDbLine
 10
40.89794451334593
 20
302.2908685320288
 30
0.0
 11
41.36204612848269
 21
302.2908685320288
 31
0.0
  0
LINE
  5
7AC
330
1F
100
AcDbEntity
  8
0
 62
     0
100
AcDbLine
 10
40.62999532091359
 20
301.5588177244598
 30
0.0
 11
41.62999532091361
 21
301.5588177244598
 31
0.0
  0
LINE
  5
7AD
330
1F
100
AcDbEntity
  8
0
 62
     0
100
AcDbLine
 10
36.89999532091361
 20
301.0838177244603
 30
0.0
 11
37.72499532091365
 21
301.0838177244603
 31
0.0
  0
LINE
  5
7AE
330
1F
100
AcDbEntity
  8
0
 62
     0
100
AcDbLine
 10
38.03660246377079
 20
301.4148065436783
 30
0.0
 11
37.72499532091365
 21
301.0838177244603
 31
0.0
  0
LINE
  5
7AF
330
1F
100
AcDbEntity
  8
0
 62
     0
100
AcDbLine
 10
37.72499532091365
 20
303.0338177244602
 30
0.0
 11
38.03660246377079
 21
302.7028289052422
 31
0.0
  0
LINE
  5
7B0
330
1F
100
AcDbEntity
  8
0
 62
     0
100
AcDbLine
 10
38.03660246377079
 20
302.6638177244602
 30
0.0
 11
38.03660246377079
 21
302.7028289052422
 31
0.0
  0
LINE
  5
7B1
330
1F
100
AcDbEntity
  8
0
 62
     0
100
AcDbLine
 10
38.03660246377079
 20
301.4538177244602
 30
0.0
 11
38.03660246377079
 21
302.6638177244602
 31
0.0
  0
LINE
  5
7B2
330
1F
100
AcDbEntity
  8
0
 62
     0
100
AcDbLine
 10
40.92903342658972
 20
278.1988177244601
 30
0.0
 11
41.1299953209136
 21
278.1988177244601
 31
0.0
  0
LINE
  5
7B3
330
1F
100
AcDbEntity
  8
0
 62
     0
100
AcDbLine
 10
41.33095721523682
 20
278.1988177244601
 30
0.0
 11
44.99999532091375
 21
278.1988177244601
 31
0.0
  0
LINE
  5
7B4
330
1F
100
AcDbEntity
  8
0
 62
     0
100
AcDbLine
 10
41.1299953209136
 20
278.1988177244601
 30
0.0
 11
41.33095721523682
 21
278.1988177244601
 31
0.0
  0
LINE
  5
7B5
330
1F
100
AcDbEntity
  8
0
 62
     0
100
AcDbLine
 10
37.32999532091275
 20
278.1988177244601
 30
0.0
 11
40.92903342658972
 21
278.1988177244601
 31
0.0
  0
LINE
  5
7B6
330
1F
100
AcDbEntity
  8
0
 62
     0
100
AcDbLine
 10
36.89999532091361
 20
278.1988177244601
 30
0.0
 11
37.32999532091275
 21
278.1988177244601
 31
0.0
  0
LINE
  5
7B7
330
1F
100
AcDbEntity
  8
0
 62
     0
100
AcDbLine
 10
36.89999532091361
 20
280.7638177244598
 30
0.0
 11
36.89999532091361
 21
278.1988177244601
 31
0.0
  0
LINE
  5
7B8
330
1F
100
AcDbEntity
  8
0
 62
     0
100
AcDbLine
 10
41.64999646091268
 20
305.5988177244596
 30
0.0
 11
37.32999532091275
 21
305.5988177244596
 31
0.0
  0
LINE
  5
7B9
330
1F
100
AcDbEntity
  8
0
 62
     0
100
AcDbLine
 10
41.85025240275968
 20
305.5988177244596
 30
0.0
 11
41.64999646091268
 21
305.5988177244596
 31
0.0
  0
LINE
  5
7BA
330
1F
100
AcDbEntity
  8
0
 62
     0
100
AcDbLine
 10
41.95875443728186
 20
305.5988177244596
 30
0.0
 11
41.85025240275968
 21
305.5988177244596
 31
0.0
  0
LINE
  5
7BB
330
1F
100
AcDbEntity
  8
0
 62
     0
100
AcDbLine
 10
42.10894639366665
 20
305.5988177244596
 30
0.0
 11
41.95875443728186
 21
305.5988177244596
 31
0.0
  0
LINE
  5
7BC
330
1F
100
AcDbEntity
  8
0
 62
     0
100
AcDbLine
 10
42.33689780590975
 20
305.5988177244596
 30
0.0
 11
42.10894639366665
 21
305.5988177244596
 31
0.0
  0
LINE
  5
7BD
330
1F
100
AcDbEntity
  8
0
 62
     0
100
AcDbLine
 10
44.49999532091374
 20
305.5988177244596
 30
0.0
 11
44.29973937906675
 21
305.5988177244596
 31
0.0
  0
LINE
  5
7BE
330
1F
100
AcDbEntity
  8
0
 62
     0
100
AcDbLine
 10
44.99999532091375
 20
305.5988177244596
 30
0.0
 11
44.49999532091374
 21
305.5988177244596
 31
0.0
  0
LINE
  5
7BF
330
1F
100
AcDbEntity
  8
0
 62
     0
100
AcDbLine
 10
42.47202140554986
 20
305.5988177244596
 30
0.0
 11
42.33689780590975
 21
305.5988177244596
 31
0.0
  0
LINE
  5
7C0
330
1F
100
AcDbEntity
  8
0
 62
     0
100
AcDbLine
 10
43.38785913643889
 20
305.5988177244596
 30
0.0
 11
43.25273553679994
 21
305.5988177244596
 31
0.0
  0
LINE
  5
7C1
330
1F
100
AcDbEntity
  8
0
 62
     0
100
AcDbLine
 10
43.61581054868293
 20
305.5988177244596
 30
0.0
 11
43.38785913643889
 21
305.5988177244596
 31
0.0
  0
LINE
  5
7C2
330
1F
100
AcDbEntity
  8
0
 62
     0
100
AcDbLine
 10
44.19123734453775
 20
305.5988177244596
 30
0.0
 11
44.04104538815272
 21
305.5988177244596
 31
0.0
  0
LINE
  5
7C3
330
1F
100
AcDbEntity
  8
0
 62
     0
100
AcDbLine
 10
44.29973937906675
 20
305.5988177244596
 30
0.0
 11
44.19123734453775
 21
305.5988177244596
 31
0.0
  0
LINE
  5
7C4
330
1F
100
AcDbEntity
  8
0
 62
     0
100
AcDbLine
 10
43.76600250506771
 20
305.5988177244596
 30
0.0
 11
43.61581054868293
 21
305.5988177244596
 31
0.0
  0
LINE
  5
7C5
330
1F
100
AcDbEntity
  8
0
 62
     0
100
AcDbLine
 10
44.04104538815272
 20
305.5988177244596
 30
0.0
 11
43.76600250506771
 21
305.5988177244596
 31
0.0
  0
LINE
  5
7C6
330
1F
100
AcDbEntity
  8
0
 62
     0
100
AcDbLine
 10
42.645434534174
 20
305.5988177244596
 30
0.0
 11
42.47202140554986
 21
305.5988177244596
 31
0.0
  0
LINE
  5
7C7
330
1F
100
AcDbEntity
  8
0
 62
     0
100
AcDbLine
 10
43.07932240817467
 20
305.5988177244596
 30
0.0
 11
42.645434534174
 21
305.5988177244596
 31
0.0
  0
LINE
  5
7C8
330
1F
100
AcDbEntity
  8
0
 62
     0
100
AcDbLine
 10
43.25273553679994
 20
305.5988177244596
 30
0.0
 11
43.07932240817467
 21
305.5988177244596
 31
0.0
  0
LINE
  5
7C9
330
1F
100
AcDbEntity
  8
0
 62
     0
100
AcDbLine
 10
36.42683401636782
 20
297.5838177244601
 30
0.0
 11
36.89999532091361
 21
297.9538177244601
 31
0.0
  0
LINE
  5
7CA
330
1F
100
AcDbEntity
  8
0
 62
     0
100
AcDbLine
 10
36.42683401636782
 20
297.5838177244601
 30
0.0
 11
36.42683401636782
 21
296.3738177244603
 31
0.0
  0
LINE
  5
7CB
330
1F
100
AcDbEntity
  8
0
 62
     0
100
AcDbLine
 10
36.42683401636782
 20
291.2938177244602
 30
0.0
 11
36.89999532091361
 21
290.9238177244607
 31
0.0
  0
LINE
  5
7CC
330
1F
100
AcDbEntity
  8
0
 62
     0
100
AcDbLine
 10
36.42683401636782
 20
291.2938177244602
 30
0.0
 11
38.03660246377079
 21
291.2938177244602
 31
0.0
  0
LINE
  5
7CD
330
1F
100
AcDbEntity
  8
0
 62
     0
100
AcDbLine
 10
36.42683401636782
 20
287.4238177244603
 30
0.0
 11
36.89999532091361
 21
287.7938177244601
 31
0.0
  0
LINE
  5
7CE
330
1F
100
AcDbEntity
  8
0
 62
     0
100
AcDbLine
 10
36.42683401636782
 20
286.2138177244604
 30
0.0
 11
36.42683401636782
 21
287.4238177244603
 31
0.0
  0
LINE
  5
7CF
330
1F
100
AcDbEntity
  8
0
 62
     0
100
AcDbLine
 10
36.42683401636782
 20
286.2138177244604
 30
0.0
 11
36.89999532091361
 21
285.8438177244597
 31
0.0
  0
LINE
  5
7D0
330
1F
100
AcDbEntity
  8
0
 62
     0
100
AcDbLine
 10
36.42683401636782
 20
291.2938177244602
 30
0.0
 11
36.42683401636782
 21
292.5038177244605
 31
0.0
  0
LINE
  5
7D1
330
1F
100
AcDbEntity
  8
0
 62
     0
100
AcDbLine
 10
36.42683401636782
 20
282.3438177244597
 30
0.0
 11
36.89999532091361
 21
282.7138177244605
 31
0.0
  0
LINE
  5
7D2
330
1F
100
AcDbEntity
  8
0
 62
     0
100
AcDbLine
 10
36.42683401636782
 20
281.1338177244596
 30
0.0
 11
36.42683401636782
 21
282.3438177244597
 31
0.0
  0
LINE
  5
7D3
330
1F
100
AcDbEntity
  8
0
 62
     0
100
AcDbLine
 10
38.03660246377079
 20
282.3438177244597
 30
0.0
 11
36.42683401636782
 21
282.3438177244597
 31
0.0
  0
LINE
  5
7D4
330
1F
100
AcDbEntity
  8
0
 62
     0
100
AcDbLine
 10
36.89999532091361
 20
280.7638177244598
 30
0.0
 11
36.42683401636782
 21
281.1338177244596
 31
0.0
  0
LINE
  5
7D5
330
1F
100
AcDbEntity
  8
0
 62
     0
100
AcDbLine
 10
36.42683401636782
 20
286.2138177244604
 30
0.0
 11
38.03660246377079
 21
286.2138177244604
 31
0.0
  0
LINE
  5
7D6
330
1F
100
AcDbEntity
  8
0
 62
     0
100
AcDbLine
 10
36.42683401636782
 20
292.5038177244605
 30
0.0
 11
36.89999532091361
 21
292.8738177244603
 31
0.0
  0
LINE
  5
7D7
330
1F
100
AcDbEntity
  8
0
 62
     0
100
AcDbLine
 10
38.03660246377079
 20
292.5038177244605
 30
0.0
 11
36.42683401636782
 21
292.5038177244605
 31
0.0
  0
LINE
  5
7D8
330
1F
100
AcDbEntity
  8
0
 62
     0
100
AcDbLine
 10
36.42683401636782
 20
301.4538177244602
 30
0.0
 11
38.03660246377079
 21
301.4538177244602
 31
0.0
  0
LINE
  5
7D9
330
1F
100
AcDbEntity
  8
0
 62
     0
100
AcDbLine
 10
36.42683401636782
 20
301.4538177244602
 30
0.0
 11
36.42683401636782
 21
302.6638177244602
 31
0.0
  0
LINE
  5
7DA
330
1F
100
AcDbEntity
  8
0
 62
     0
100
AcDbLine
 10
38.03660246377079
 20
302.6638177244602
 30
0.0
 11
36.42683401636782
 21
302.6638177244602
 31
0.0
  0
LINE
  5
7DB
330
1F
100
AcDbEntity
  8
0
 62
     0
100
AcDbLine
 10
36.42683401636782
 20
302.6638177244602
 30
0.0
 11
36.89999532091361
 21
303.0338177244602
 31
0.0
  0
LINE
  5
7DC
330
1F
100
AcDbEntity
  8
0
 62
     0
100
AcDbLine
 10
36.39999532091361
 20
278.1988177244601
 30
0.0
 11
36.89999532091361
 21
278.1988177244601
 31
0.0
  0
LINE
  5
7DD
330
1F
100
AcDbEntity
  8
0
 62
     0
100
AcDbLine
 10
36.39999532091361
 20
278.1988177244601
 30
0.0
 11
36.39999532091361
 21
305.5988177244596
 31
0.0
  0
LINE
  5
7DE
330
1F
100
AcDbEntity
  8
0
 62
     0
100
AcDbLine
 10
36.89999532091361
 20
305.5988177244596
 30
0.0
 11
36.39999532091361
 21
305.5988177244596
 31
0.0
  0
ARC
  5
7DF
330
1F
100
AcDbEntity
  8
0
 62
     0
100
AcDbCircle
 10
41.1299953209136
 20
302.0588177244598
 30
0.0
 40
3.299999999999346
100
AcDbArc
 50
319.2509456225097
 51
40.74905437749029
  0
ARC
  5
7E0
330
1F
100
AcDbEntity
  8
0
 62
     0
100
AcDbCircle
 10
41.1299953209136
 20
302.0588177244598
 30
0.0
 40
2.999999999999346
100
AcDbArc
 50
317.1665719339527
 51
42.83342806604736
  0
ARC
  5
7E1
330
1F
100
AcDbEntity
  8
0
 62
     0
100
AcDbCircle
 10
41.1299953209136
 20
281.7388177244601
 30
0.0
 40
1.400000000000003
100
AcDbArc
 50
330.0000000000048
 51
209.9999999999949
  0
ARC
  5
7E2
330
1F
100
AcDbEntity
  8
0
 62
     0
100
AcDbCircle
 10
41.1299953209136
 20
286.81881772446
 30
0.0
 40
2.999999999999798
100
AcDbArc
 50
317.1665719339527
 51
42.83342806604736
  0
ARC
  5
7E3
330
1F
100
AcDbEntity
  8
0
 62
     0
100
AcDbCircle
 10
41.1299953209136
 20
281.7388177244601
 30
0.0
 40
3.299999999999986
100
AcDbArc
 50
319.2509456225477
 51
40.74905437745228
  0
ARC
  5
7E4
330
1F
100
AcDbEntity
  8
0
 62
     0
100
AcDbCircle
 10
41.1299953209136
 20
286.81881772446
 30
0.0
 40
3.299999999999825
100
AcDbArc
 50
319.2509456225477
 51
40.74905437745228
  0
ARC
  5
7E5
330
1F
100
AcDbEntity
  8
0
 62
     0
100
AcDbCircle
 10
41.1299953209136
 20
291.89881772446
 30
0.0
 40
3.299999999999825
100
AcDbArc
 50
319.2509456225477
 51
40.74905437745228
  0
ARC
  5
7E6
330
1F
100
AcDbEntity
  8
0
 62
     0
100
AcDbCircle
 10
41.1299953209136
 20
296.9788177244598
 30
0.0
 40
3.299999999999816
100
AcDbArc
 50
319.2509456225477
 51
40.74905437745228
  0
ARC
  5
7E7
330
1F
100
AcDbEntity
  8
0
 62
     0
100
AcDbCircle
 10
41.1299953209136
 20
291.89881772446
 30
0.0
 40
2.999999999999798
100
AcDbArc
 50
317.1665719339527
 51
42.83342806604736
  0
ARC
  5
7E8
330
1F
100
AcDbEntity
  8
0
 62
     0
100
AcDbCircle
 10
41.1299953209136
 20
296.9788177244598
 30
0.0
 40
2.999999999999796
100
AcDbArc
 50
317.1665719339527
 51
42.83342806604736
  0
ARC
  5
7E9
330
1F
100
AcDbEntity
  8
0
 62
     0
100
AcDbCircle
 10
41.1299953209136
 20
281.7388177244601
 30
0.0
 40
2.99999999999996
100
AcDbArc
 50
317.1665719339527
 51
42.83342806604736
  0
CIRCLE
  5
7EA
330
1F
100
AcDbEntity
  8
0
 62
     0
100
AcDbCircle
 10
41.1299953209136
 20
296.9788177244598
 30
0.0
 40
1.399999999998762
  0
CIRCLE
  5
7EB
330
1F
100
AcDbEntity
  8
0
 62
     0
100
AcDbCircle
 10
41.1299953209136
 20
291.89881772446
 30
0.0
 40
1.399999999998762
  0
CIRCLE
  5
7EC
330
1F
100
AcDbEntity
  8
0
 62
     0
100
AcDbCircle
 10
41.1299953209136
 20
286.81881772446
 30
0.0
 40
1.399999999999999
  0
CIRCLE
  5
7ED
330
1F
100
AcDbEntity
  8
0
 62
     0
100
AcDbCircle
 10
41.1299953209136
 20
302.0588177244598
 30
0.0
 40
1.399999999999379
  0
ARC
  5
7EE
330
1F
100
AcDbEntity
  8
0
 62
     0
100
AcDbCircle
 10
50.04147254164877
 20
266.6281294056568
 30
6.483974233579615E+99
 40
18.41680697560812
100
AcDbArc
 50
110.3730936678195
 51
110.8717620092467
  0
LINE
  5
7EF
330
1F
100
AcDbEntity
  8
0
 62
     0
100
AcDbLine
 10
43.47997791009766
 20
283.8364287805788
 30
6.483974233579615E+99
 11
43.40446093051878
 21
283.8074271548865
 31
6.483974233579615E+99
  0
LINE
  5
7F0
330
1F
100
AcDbEntity
  8
0
 62
     0
100
AcDbLine
 10
43.40446093051878
 20
283.8074271548865
 30
6.483974233579615E+99
 11
43.32999532091275
 21
283.7784255298974
 31
6.483974233579615E+99
  0
ARC
  5
7F1
330
1F
100
AcDbEntity
  8
0
 62
     0
100
AcDbCircle
 10
49.51641454577474
 20
295.472905105028
 30
6.483974233579615E+99
 40
16.94347197733493
100
AcDbArc
 50
248.5849640485429
 51
249.1287512867595
  0
LINE
  5
7F2
330
1F
100
AcDbEntity
  8
0
 62
     0
100
AcDbLine
 10
43.47997791009766
 20
279.6412066683415
 30
6.483974233579615E+99
 11
43.55478092202178
 21
279.6128692392475
 31
6.483974233579615E+99
  0
LINE
  5
7F3
330
1F
100
AcDbEntity
  8
0
 62
     0
100
AcDbLine
 10
43.55478092202178
 20
279.6128692392475
 30
6.483974233579615E+99
 11
43.62999532091362
 21
279.584751801606
 31
6.483974233579615E+99
  0
ARC
  5
7F4
330
1F
100
AcDbEntity
  8
0
 62
     0
100
AcDbCircle
 10
49.49616210210479
 20
300.500537109995
 30
6.483974233579615E+99
 40
16.88732487456338
100
AcDbArc
 50
248.5840600477168
 51
249.1296552877332
  0
LINE
  5
7F5
330
1F
100
AcDbEntity
  8
0
 62
     0
100
AcDbLine
 10
43.47997791018587
 20
284.7212066683076
 30
6.483974233579615E+99
 11
43.5544886244229
 21
284.6929792344468
 31
6.483974233579615E+99
  0
LINE
  5
7F6
330
1F
100
AcDbEntity
  8
0
 62
     0
100
AcDbLine
 10
43.5544886244229
 20
284.6929792344468
 30
6.483974233579615E+99
 11
43.62999532091362
 21
284.6647518016069
 31
6.483974233579615E+99
  0
ARC
  5
7F7
330
1F
100
AcDbEntity
  8
0
 62
     0
100
AcDbCircle
 10
50.04147254156896
 20
271.7081294059397
 30
6.483974233579615E+99
 40
18.41680697531573
100
AcDbArc
 50
110.3730936679033
 51
110.8717620093307
  0
LINE
  5
7F8
330
1F
100
AcDbEntity
  8
0
 62
     0
100
AcDbLine
 10
43.47997791009766
 20
288.9164287805787
 30
6.483974233579615E+99
 11
43.40421303807079
 21
288.8873312844189
 31
6.483974233579615E+99
  0
LINE
  5
7F9
330
1F
100
AcDbEntity
  8
0
 62
     0
100
AcDbLine
 10
43.40421303807079
 20
288.8873312844189
 30
6.483974233579615E+99
 11
43.32999532091275
 21
288.8584255298973
 31
6.483974233579615E+99
  0
ARC
  5
7FA
330
1F
100
AcDbEntity
  8
0
 62
     0
100
AcDbCircle
 10
49.51641454642981
 20
305.6329051067031
 30
6.483974233579615E+99
 40
16.94347197913375
100
AcDbArc
 50
248.5849640485708
 51
249.1287512870381
  0
LINE
  5
7FB
330
1F
100
AcDbEntity
  8
0
 62
     0
100
AcDbLine
 10
43.47997791018587
 20
289.8012066683077
 30
6.483974233579615E+99
 11
43.55448862442176
 21
289.772979234448
 31
6.483974233579615E+99
  0
LINE
  5
7FC
330
1F
100
AcDbEntity
  8
0
 62
     0
100
AcDbLine
 10
43.55448862442176
 20
289.772979234448
 30
6.483974233579615E+99
 11
43.62999532091362
 21
289.7447518016068
 31
6.483974233579615E+99
  0
ARC
  5
7FD
330
1F
100
AcDbEntity
  8
0
 62
     0
100
AcDbCircle
 10
49.4961608825397
 20
310.6605339565521
 30
6.483974233579615E+99
 40
16.8873214935453
100
AcDbArc
 50
248.5840599931691
 51
249.1296553424153
  0
LINE
  5
7FE
330
1F
100
AcDbEntity
  8
0
 62
     0
100
AcDbLine
 10
43.47997791018587
 20
294.8812066683073
 30
6.483974233579615E+99
 11
43.55448862442085
 21
294.8529792344479
 31
6.483974233579615E+99
  0
LINE
  5
7FF
330
1F
100
AcDbEntity
  8
0
 62
     0
100
AcDbLine
 10
43.55448862442085
 20
294.8529792344479
 30
6.483974233579615E+99
 11
43.62999532091362
 21
294.8247518016069
 31
6.483974233579615E+99
  0
ARC
  5
800
330
1F
100
AcDbEntity
  8
0
 62
     0
100
AcDbCircle
 10
50.01643279247081
 20
276.8546674838862
 30
6.483974233579615E+99
 40
18.34571401668807
100
AcDbArc
 50
110.3721274466995
 51
110.872728230389
  0
LINE
  5
801
330
1F
100
AcDbEntity
  8
0
 62
     0
100
AcDbLine
 10
43.47997791009766
 20
293.9964287805787
 30
6.483974233579615E+99
 11
43.40421303135599
 21
293.9673312818212
 31
6.483974233579615E+99
  0
LINE
  5
802
330
1F
100
AcDbEntity
  8
0
 62
     0
100
AcDbLine
 10
43.40421303135599
 20
293.9673312818212
 30
6.483974233579615E+99
 11
43.32999532091275
 21
293.9384255298971
 31
6.483974233579615E+99
  0
ARC
  5
803
330
1F
100
AcDbEntity
  8
0
 62
     0
100
AcDbCircle
 10
50.04147254159488
 20
286.9481294058676
 30
6.483974233579615E+99
 40
18.41680697539202
100
AcDbArc
 50
110.3730936679033
 51
110.8717620093307
  0
LINE
  5
804
330
1F
100
AcDbEntity
  8
0
 62
     0
100
AcDbLine
 10
43.47997791009766
 20
304.1564287805785
 30
6.483974233579615E+99
 11
43.40421309362364
 21
304.1273313059035
 31
6.483974233579615E+99
  0
LINE
  5
805
330
1F
100
AcDbEntity
  8
0
 62
     0
100
AcDbLine
 10
43.40421309362364
 20
304.1273313059035
 30
6.483974233579615E+99
 11
43.32999532091275
 21
304.0984255298972
 31
6.483974233579615E+99
  0
ARC
  5
806
330
1F
100
AcDbEntity
  8
0
 62
     0
100
AcDbCircle
 10
49.49616207235862
 20
315.7405370330796
 30
6.483974233579615E+99
 40
16.8873247920978
100
AcDbArc
 50
248.5840600463733
 51
249.129655289072
  0
LINE
  5
807
330
1F
100
AcDbEntity
  8
0
 62
     0
100
AcDbLine
 10
43.47997791018587
 20
299.9612066683075
 30
6.483974233579615E+99
 11
43.5544886244229
 21
299.9329792344478
 31
6.483974233579615E+99
  0
LINE
  5
808
330
1F
100
AcDbEntity
  8
0
 62
     0
100
AcDbLine
 10
43.5544886244229
 20
299.9329792344478
 30
6.483974233579615E+99
 11
43.62999532091362
 21
299.9047518016066
 31
6.483974233579615E+99
  0
ARC
  5
809
330
1F
100
AcDbEntity
  8
0
 62
     0
100
AcDbCircle
 10
50.04147254157556
 20
281.8681294058503
 30
0.0
 40
18.41680697540189
100
AcDbArc
 50
110.3730936678195
 51
110.8717620092467
  0
LINE
  5
80A
330
1F
100
AcDbEntity
  8
0
 62
     0
100
AcDbLine
 10
43.47997791009766
 20
299.0764287805784
 30
0.0
 11
43.40446093051878
 21
299.0474271548864
 31
0.0
  0
LINE
  5
80B
330
1F
100
AcDbEntity
  8
0
 62
     0
100
AcDbLine
 10
43.40446093051878
 20
299.0474271548864
 30
0.0
 11
43.32999532091275
 21
299.0184255298972
 31
0.0
  0
LINE
  5
80C
330
1F
100
AcDbEntity
  8
0
 62
     0
100
AcDbLine
 10
44.99999532091375
 20
308.1988177244596
 30
0.0
 11
44.99999532091375
 21
275.5988177244599
 31
0.0
  0
LWPOLYLINE
  5
80D
330
1F
100
AcDbEntity
  8
0
 62
     0
100
AcDbPolyline
 90
        4
 70
     1
 43
0.0
 10
47.49999532091282
 20
318.4488184581504
 10
49.09999532091274
 20
318.4488184581504
 10
49.09999532091274
 20
315.7488184581497
 10
47.49999532091282
 20
315.7488184581497
  0
LWPOLYLINE
  5
80E
330
1F
100
AcDbEntity
  8
0
 62
     0
100
AcDbPolyline
 90
        4
 70
     1
 43
0.0
 10
47.49999532091282
 20
312.9488184581504
 10
49.09999532091274
 20
312.9488184581504
 10
49.09999532091274
 20
310.2488184581496
 10
47.49999532091282
 20
310.2488184581496
  0
LINE
  5
80F
330
1F
100
AcDbEntity
  8
0
100
AcDbLine
 10
44.99999532091282
 20
308.1988177244596
 30
0.0
 11
46.00006963346184
 21
308.1988177244596
 31
0.0
  0
LINE
  5
810
330
1F
100
AcDbEntity
  8
0
100
AcDbLine
 10
44.99999532091375
 20
275.5988177244599
 30
0.0
 11
46.00006963346368
 21
275.5988177244599
 31
0.0
  0
TEXT
  5
8D9
330
1F
100
AcDbEntity
  8
0
100
AcDbText
 10
-2.351641724060759
 20
397.4088272036248
 30
0.0
 40
10.0
  1
SCON-CA-20I~300I-CC-*-1/2
100
AcDbText
  0
LINE
  5
90B
330
1F
100
AcDbEntity
  8
0
100
AcDbLine
 10
278.9999953209118
 20
364.8428881166133
 30
0.0
 11
278.9999953209118
 21
171.1047473323054
 31
0.0
  0
LINE
  5
90C
330
1F
100
AcDbEntity
  8
0
100
AcDbLine
 10
273.9999953209117
 20
170.9738177244593
 30
0.0
 11
273.9999953209117
 21
180.9738177244594
 31
0.0
  0
LINE
  5
90D
330
1F
100
AcDbEntity
  8
0
100
AcDbLine
 10
157.9999953209128
 20
180.9738177244594
 30
0.0
 11
157.9999953209128
 21
354.9738177244593
 31
0.0
  0
LINE
  5
90E
330
1F
100
AcDbEntity
  8
0
100
AcDbLine
 10
157.9999953209128
 20
354.9738177244593
 30
0.0
 11
273.9999953209117
 21
354.9738177244593
 31
0.0
  0
LINE
  5
90F
330
1F
100
AcDbEntity
  8
0
100
AcDbLine
 10
157.9999953209128
 20
180.9738177244594
 30
0.0
 11
273.9999953209117
 21
180.9738177244594
 31
0.0
  0
LINE
  5
910
330
1F
100
AcDbEntity
  8
0
100
AcDbLine
 10
273.9999953209117
 20
364.9738177244593
 30
0.0
 11
278.9999953209118
 21
364.8428881166133
 31
0.0
  0
LINE
  5
911
330
1F
100
AcDbEntity
  8
0
100
AcDbLine
 10
275.4140350856484
 20
364.9367897900843
 30
0.0
 11
275.4140350856477
 21
171.0108456588343
 31
0.0
  0
LINE
  5
912
330
1F
100
AcDbEntity
  8
0
100
AcDbLine
 10
273.9999953209117
 20
170.9738177244593
 30
0.0
 11
278.9999953209118
 21
171.1047473323054
 31
0.0
  0
LINE
  5
913
330
1F
100
AcDbEntity
  8
0
100
AcDbLine
 10
157.9999953209128
 20
180.9738177244594
 30
0.0
 11
157.9999953209128
 21
354.9738177244593
 31
0.0
  0
LINE
  5
914
330
1F
100
AcDbEntity
  8
0
100
AcDbLine
 10
157.9999953209128
 20
354.9738177244593
 30
0.0
 11
275.3878491640807
 21
354.9738177244593
 31
0.0
  0
LINE
  5
915
330
1F
100
AcDbEntity
  8
0
100
AcDbLine
 10
174.9999953209128
 20
180.9738177244594
 30
0.0
 11
174.9999953209128
 21
354.9738177244593
 31
0.0
  0
LINE
  5
916
330
1F
100
AcDbEntity
  8
0
100
AcDbLine
 10
256.9999953209125
 20
180.9738177244594
 30
0.0
 11
256.9999953209125
 21
354.9738177244593
 31
0.0
  0
LINE
  5
917
330
1F
100
AcDbEntity
  8
0
100
AcDbLine
 10
174.9999953209128
 20
353.9738177244593
 30
0.0
 11
256.9999953209125
 21
353.9738177244593
 31
0.0
  0
LINE
  5
918
330
1F
100
AcDbEntity
  8
0
100
AcDbLine
 10
179.9999953209128
 20
351.9738177244593
 30
0.0
 11
181.9999953209128
 21
351.9738177244593
 31
0.0
  0
LINE
  5
919
330
1F
100
AcDbEntity
  8
0
100
AcDbLine
 10
179.9999953209128
 20
181.9738177244594
 30
0.0
 11
179.9999953209128
 21
235.2238177244594
 31
0.0
  0
LINE
  5
91A
330
1F
100
AcDbEntity
  8
0
100
AcDbLine
 10
181.9999953209128
 20
181.9738177244594
 30
0.0
 11
181.9999953209128
 21
235.2238177244594
 31
0.0
  0
LINE
  5
91B
330
1F
100
AcDbEntity
  8
0
100
AcDbLine
 10
179.9999953209128
 20
300.7238177244593
 30
0.0
 11
181.9999953209128
 21
300.7238177244593
 31
0.0
  0
LINE
  5
91C
330
1F
100
AcDbEntity
  8
0
100
AcDbLine
 10
179.9999953209128
 20
235.2238177244594
 30
0.0
 11
181.9999953209128
 21
235.2238177244594
 31
0.0
  0
LINE
  5
91D
330
1F
100
AcDbEntity
  8
0
100
AcDbLine
 10
174.9999953209128
 20
181.9738177244594
 30
0.0
 11
256.9999953209125
 21
181.9738177244594
 31
0.0
  0
LINE
  5
91E
330
1F
100
AcDbEntity
  8
0
100
AcDbLine
 10
179.9999953209128
 20
183.9738177244594
 30
0.0
 11
181.9999953209128
 21
183.9738177244594
 31
0.0
  0
LINE
  5
91F
330
1F
100
AcDbEntity
  8
0
100
AcDbLine
 10
179.9999953209128
 20
300.7238177244593
 30
0.0
 11
179.9999953209128
 21
353.9738177244593
 31
0.0
  0
LINE
  5
920
330
1F
100
AcDbEntity
  8
0
100
AcDbLine
 10
181.9999953209128
 20
300.7238177244593
 30
0.0
 11
181.9999953209128
 21
353.9738177244593
 31
0.0
  0
LINE
  5
921
330
1F
100
AcDbEntity
  8
0
100
AcDbLine
 10
186.9999953209128
 20
351.9738177244593
 30
0.0
 11
188.9999953209128
 21
351.9738177244593
 31
0.0
  0
LINE
  5
922
330
1F
100
AcDbEntity
  8
0
100
AcDbLine
 10
186.9999953209128
 20
181.9738177244594
 30
0.0
 11
186.9999953209128
 21
235.2238177244594
 31
0.0
  0
LINE
  5
923
330
1F
100
AcDbEntity
  8
0
100
AcDbLine
 10
188.9999953209128
 20
181.9738177244594
 30
0.0
 11
188.9999953209128
 21
235.2238177244594
 31
0.0
  0
LINE
  5
924
330
1F
100
AcDbEntity
  8
0
100
AcDbLine
 10
186.9999953209128
 20
300.7238177244593
 30
0.0
 11
188.9999953209128
 21
300.7238177244593
 31
0.0
  0
LINE
  5
925
330
1F
100
AcDbEntity
  8
0
100
AcDbLine
 10
186.9999953209128
 20
235.2238177244594
 30
0.0
 11
188.9999953209128
 21
235.2238177244594
 31
0.0
  0
LINE
  5
926
330
1F
100
AcDbEntity
  8
0
100
AcDbLine
 10
186.9999953209128
 20
183.9738177244594
 30
0.0
 11
188.9999953209128
 21
183.9738177244594
 31
0.0
  0
LINE
  5
927
330
1F
100
AcDbEntity
  8
0
100
AcDbLine
 10
186.9999953209128
 20
300.7238177244593
 30
0.0
 11
186.9999953209128
 21
353.9738177244593
 31
0.0
  0
LINE
  5
928
330
1F
100
AcDbEntity
  8
0
100
AcDbLine
 10
188.9999953209128
 20
300.7238177244593
 30
0.0
 11
188.9999953209128
 21
353.9738177244593
 31
0.0
  0
LINE
  5
929
330
1F
100
AcDbEntity
  8
0
100
AcDbLine
 10
193.9999953209128
 20
351.9738177244593
 30
0.0
 11
195.9999953209128
 21
351.9738177244593
 31
0.0
  0
LINE
  5
92A
330
1F
100
AcDbEntity
  8
0
100
AcDbLine
 10
193.9999953209128
 20
181.9738177244594
 30
0.0
 11
193.9999953209128
 21
235.2238177244594
 31
0.0
  0
LINE
  5
92B
330
1F
100
AcDbEntity
  8
0
100
AcDbLine
 10
195.9999953209128
 20
181.9738177244594
 30
0.0
 11
195.9999953209128
 21
235.2238177244594
 31
0.0
  0
LINE
  5
92C
330
1F
100
AcDbEntity
  8
0
100
AcDbLine
 10
193.9999953209128
 20
300.7238177244593
 30
0.0
 11
195.9999953209128
 21
300.7238177244593
 31
0.0
  0
LINE
  5
92D
330
1F
100
AcDbEntity
  8
0
100
AcDbLine
 10
193.9999953209128
 20
235.2238177244594
 30
0.0
 11
195.9999953209128
 21
235.2238177244594
 31
0.0
  0
LINE
  5
92E
330
1F
100
AcDbEntity
  8
0
100
AcDbLine
 10
193.9999953209128
 20
183.9738177244594
 30
0.0
 11
195.9999953209128
 21
183.9738177244594
 31
0.0
  0
LINE
  5
92F
330
1F
100
AcDbEntity
  8
0
100
AcDbLine
 10
193.9999953209128
 20
300.7238177244593
 30
0.0
 11
193.9999953209128
 21
353.9738177244593
 31
0.0
  0
LINE
  5
930
330
1F
100
AcDbEntity
  8
0
100
AcDbLine
 10
195.9999953209128
 20
300.7238177244593
 30
0.0
 11
195.9999953209128
 21
353.9738177244593
 31
0.0
  0
LINE
  5
931
330
1F
100
AcDbEntity
  8
0
100
AcDbLine
 10
200.9999953209128
 20
181.9738177244594
 30
0.0
 11
200.9999953209128
 21
235.2238177244594
 31
0.0
  0
LINE
  5
932
330
1F
100
AcDbEntity
  8
0
100
AcDbLine
 10
202.9999953209128
 20
181.9738177244594
 30
0.0
 11
202.9999953209128
 21
235.2238177244594
 31
0.0
  0
LINE
  5
933
330
1F
100
AcDbEntity
  8
0
100
AcDbLine
 10
200.9999953209128
 20
300.7238177244593
 30
0.0
 11
202.9999953209128
 21
300.7238177244593
 31
0.0
  0
LINE
  5
934
330
1F
100
AcDbEntity
  8
0
100
AcDbLine
 10
200.9999953209128
 20
235.2238177244594
 30
0.0
 11
202.9999953209128
 21
235.2238177244594
 31
0.0
  0
LINE
  5
935
330
1F
100
AcDbEntity
  8
0
100
AcDbLine
 10
200.9999953209128
 20
183.9738177244594
 30
0.0
 11
202.9999953209128
 21
183.9738177244594
 31
0.0
  0
LINE
  5
936
330
1F
100
AcDbEntity
  8
0
100
AcDbLine
 10
200.9999953209128
 20
300.7238177244593
 30
0.0
 11
200.9999953209128
 21
353.9738177244593
 31
0.0
  0
LINE
  5
937
330
1F
100
AcDbEntity
  8
0
100
AcDbLine
 10
202.9999953209128
 20
300.7238177244593
 30
0.0
 11
202.9999953209128
 21
353.9738177244593
 31
0.0
  0
LINE
  5
938
330
1F
100
AcDbEntity
  8
0
100
AcDbLine
 10
207.9999953209128
 20
351.9738177244593
 30
0.0
 11
209.9999953209128
 21
351.9738177244593
 31
0.0
  0
LINE
  5
939
330
1F
100
AcDbEntity
  8
0
100
AcDbLine
 10
207.9999953209128
 20
181.9738177244594
 30
0.0
 11
207.9999953209128
 21
235.2238177244594
 31
0.0
  0
LINE
  5
93A
330
1F
100
AcDbEntity
  8
0
100
AcDbLine
 10
209.9999953209128
 20
181.9738177244594
 30
0.0
 11
209.9999953209128
 21
235.2238177244594
 31
0.0
  0
LINE
  5
93B
330
1F
100
AcDbEntity
  8
0
100
AcDbLine
 10
207.9999953209128
 20
300.7238177244593
 30
0.0
 11
209.9999953209128
 21
300.7238177244593
 31
0.0
  0
LINE
  5
93C
330
1F
100
AcDbEntity
  8
0
100
AcDbLine
 10
207.9999953209128
 20
235.2238177244594
 30
0.0
 11
209.9999953209128
 21
235.2238177244594
 31
0.0
  0
LINE
  5
93D
330
1F
100
AcDbEntity
  8
0
100
AcDbLine
 10
207.9999953209128
 20
183.9738177244594
 30
0.0
 11
209.9999953209128
 21
183.9738177244594
 31
0.0
  0
LINE
  5
93E
330
1F
100
AcDbEntity
  8
0
100
AcDbLine
 10
207.9999953209128
 20
300.7238177244593
 30
0.0
 11
207.9999953209128
 21
353.9738177244593
 31
0.0
  0
LINE
  5
93F
330
1F
100
AcDbEntity
  8
0
100
AcDbLine
 10
209.9999953209128
 20
300.7238177244593
 30
0.0
 11
209.9999953209128
 21
353.9738177244593
 31
0.0
  0
LINE
  5
940
330
1F
100
AcDbEntity
  8
0
100
AcDbLine
 10
214.9999953209128
 20
351.9738177244593
 30
0.0
 11
216.9999953209128
 21
351.9738177244593
 31
0.0
  0
LINE
  5
941
330
1F
100
AcDbEntity
  8
0
100
AcDbLine
 10
214.9999953209128
 20
181.9738177244594
 30
0.0
 11
214.9999953209128
 21
235.2238177244594
 31
0.0
  0
LINE
  5
942
330
1F
100
AcDbEntity
  8
0
100
AcDbLine
 10
216.9999953209128
 20
181.9738177244594
 30
0.0
 11
216.9999953209128
 21
235.2238177244594
 31
0.0
  0
LINE
  5
943
330
1F
100
AcDbEntity
  8
0
100
AcDbLine
 10
214.9999953209128
 20
300.7238177244593
 30
0.0
 11
216.9999953209128
 21
300.7238177244593
 31
0.0
  0
LINE
  5
944
330
1F
100
AcDbEntity
  8
0
100
AcDbLine
 10
214.9999953209128
 20
235.2238177244594
 30
0.0
 11
216.9999953209128
 21
235.2238177244594
 31
0.0
  0
LINE
  5
945
330
1F
100
AcDbEntity
  8
0
100
AcDbLine
 10
214.9999953209128
 20
183.9738177244594
 30
0.0
 11
216.9999953209128
 21
183.9738177244594
 31
0.0
  0
LINE
  5
946
330
1F
100
AcDbEntity
  8
0
100
AcDbLine
 10
214.9999953209128
 20
300.7238177244593
 30
0.0
 11
214.9999953209128
 21
353.9738177244593
 31
0.0
  0
LINE
  5
947
330
1F
100
AcDbEntity
  8
0
100
AcDbLine
 10
216.9999953209128
 20
300.7238177244593
 30
0.0
 11
216.9999953209128
 21
353.9738177244593
 31
0.0
  0
LINE
  5
948
330
1F
100
AcDbEntity
  8
0
100
AcDbLine
 10
221.9999953209129
 20
351.9738177244593
 30
0.0
 11
223.9999953209128
 21
351.9738177244593
 31
0.0
  0
LINE
  5
949
330
1F
100
AcDbEntity
  8
0
100
AcDbLine
 10
221.9999953209129
 20
181.9738177244594
 30
0.0
 11
221.9999953209129
 21
235.2238177244594
 31
0.0
  0
LINE
  5
94A
330
1F
100
AcDbEntity
  8
0
100
AcDbLine
 10
223.9999953209128
 20
181.9738177244594
 30
0.0
 11
223.9999953209128
 21
235.2238177244594
 31
0.0
  0
LINE
  5
94B
330
1F
100
AcDbEntity
  8
0
100
AcDbLine
 10
221.9999953209129
 20
300.7238177244593
 30
0.0
 11
223.9999953209128
 21
300.7238177244593
 31
0.0
  0
LINE
  5
94C
330
1F
100
AcDbEntity
  8
0
100
AcDbLine
 10
221.9999953209129
 20
235.2238177244594
 30
0.0
 11
223.9999953209128
 21
235.2238177244594
 31
0.0
  0
LINE
  5
94D
330
1F
100
AcDbEntity
  8
0
100
AcDbLine
 10
221.9999953209129
 20
183.9738177244594
 30
0.0
 11
223.9999953209128
 21
183.9738177244594
 31
0.0
  0
LINE
  5
94E
330
1F
100
AcDbEntity
  8
0
100
AcDbLine
 10
221.9999953209129
 20
300.7238177244593
 30
0.0
 11
221.9999953209129
 21
353.9738177244593
 31
0.0
  0
LINE
  5
94F
330
1F
100
AcDbEntity
  8
0
100
AcDbLine
 10
223.9999953209128
 20
300.7238177244593
 30
0.0
 11
223.9999953209128
 21
353.9738177244593
 31
0.0
  0
LINE
  5
950
330
1F
100
AcDbEntity
  8
0
100
AcDbLine
 10
228.9999953209128
 20
351.9738177244593
 30
0.0
 11
230.9999953209128
 21
351.9738177244593
 31
0.0
  0
LINE
  5
951
330
1F
100
AcDbEntity
  8
0
100
AcDbLine
 10
228.9999953209128
 20
181.9738177244594
 30
0.0
 11
228.9999953209128
 21
235.2238177244594
 31
0.0
  0
LINE
  5
952
330
1F
100
AcDbEntity
  8
0
100
AcDbLine
 10
230.9999953209128
 20
181.9738177244594
 30
0.0
 11
230.9999953209128
 21
235.2238177244594
 31
0.0
  0
LINE
  5
953
330
1F
100
AcDbEntity
  8
0
100
AcDbLine
 10
228.9999953209128
 20
300.7238177244593
 30
0.0
 11
230.9999953209128
 21
300.7238177244593
 31
0.0
  0
LINE
  5
954
330
1F
100
AcDbEntity
  8
0
100
AcDbLine
 10
228.9999953209128
 20
235.2238177244594
 30
0.0
 11
230.9999953209128
 21
235.2238177244594
 31
0.0
  0
LINE
  5
955
330
1F
100
AcDbEntity
  8
0
100
AcDbLine
 10
228.9999953209128
 20
183.9738177244594
 30
0.0
 11
230.9999953209128
 21
183.9738177244594
 31
0.0
  0
LINE
  5
956
330
1F
100
AcDbEntity
  8
0
100
AcDbLine
 10
228.9999953209128
 20
300.7238177244593
 30
0.0
 11
228.9999953209128
 21
353.9738177244593
 31
0.0
  0
LINE
  5
957
330
1F
100
AcDbEntity
  8
0
100
AcDbLine
 10
230.9999953209128
 20
300.7238177244593
 30
0.0
 11
230.9999953209128
 21
353.9738177244593
 31
0.0
  0
LINE
  5
958
330
1F
100
AcDbEntity
  8
0
100
AcDbLine
 10
235.9999953209128
 20
351.9738177244593
 30
0.0
 11
237.9999953209128
 21
351.9738177244593
 31
0.0
  0
LINE
  5
959
330
1F
100
AcDbEntity
  8
0
100
AcDbLine
 10
235.9999953209128
 20
181.9738177244594
 30
0.0
 11
235.9999953209128
 21
235.2238177244594
 31
0.0
  0
LINE
  5
95A
330
1F
100
AcDbEntity
  8
0
100
AcDbLine
 10
237.9999953209128
 20
181.9738177244594
 30
0.0
 11
237.9999953209128
 21
235.2238177244594
 31
0.0
  0
LINE
  5
95B
330
1F
100
AcDbEntity
  8
0
100
AcDbLine
 10
235.9999953209128
 20
300.7238177244593
 30
0.0
 11
237.9999953209128
 21
300.7238177244593
 31
0.0
  0
LINE
  5
95C
330
1F
100
AcDbEntity
  8
0
100
AcDbLine
 10
235.9999953209128
 20
235.2238177244594
 30
0.0
 11
237.9999953209128
 21
235.2238177244594
 31
0.0
  0
LINE
  5
95D
330
1F
100
AcDbEntity
  8
0
100
AcDbLine
 10
235.9999953209128
 20
183.9738177244594
 30
0.0
 11
237.9999953209128
 21
183.9738177244594
 31
0.0
  0
LINE
  5
95E
330
1F
100
AcDbEntity
  8
0
100
AcDbLine
 10
235.9999953209128
 20
300.7238177244593
 30
0.0
 11
235.9999953209128
 21
353.9738177244593
 31
0.0
  0
LINE
  5
95F
330
1F
100
AcDbEntity
  8
0
100
AcDbLine
 10
237.9999953209128
 20
300.7238177244593
 30
0.0
 11
237.9999953209128
 21
353.9738177244593
 31
0.0
  0
LINE
  5
960
330
1F
100
AcDbEntity
  8
0
100
AcDbLine
 10
242.9999953209128
 20
351.9738177244593
 30
0.0
 11
244.9999953209128
 21
351.9738177244593
 31
0.0
  0
LINE
  5
961
330
1F
100
AcDbEntity
  8
0
100
AcDbLine
 10
242.9999953209128
 20
181.9738177244594
 30
0.0
 11
242.9999953209128
 21
235.2238177244594
 31
0.0
  0
LINE
  5
962
330
1F
100
AcDbEntity
  8
0
100
AcDbLine
 10
244.9999953209128
 20
181.9738177244594
 30
0.0
 11
244.9999953209128
 21
235.2238177244594
 31
0.0
  0
LINE
  5
963
330
1F
100
AcDbEntity
  8
0
100
AcDbLine
 10
242.9999953209128
 20
300.7238177244593
 30
0.0
 11
244.9999953209128
 21
300.7238177244593
 31
0.0
  0
LINE
  5
964
330
1F
100
AcDbEntity
  8
0
100
AcDbLine
 10
242.9999953209128
 20
235.2238177244594
 30
0.0
 11
244.9999953209128
 21
235.2238177244594
 31
0.0
  0
LINE
  5
965
330
1F
100
AcDbEntity
  8
0
100
AcDbLine
 10
242.9999953209128
 20
183.9738177244594
 30
0.0
 11
244.9999953209128
 21
183.9738177244594
 31
0.0
  0
LINE
  5
966
330
1F
100
AcDbEntity
  8
0
100
AcDbLine
 10
242.9999953209128
 20
300.7238177244593
 30
0.0
 11
242.9999953209128
 21
353.9738177244593
 31
0.0
  0
LINE
  5
967
330
1F
100
AcDbEntity
  8
0
100
AcDbLine
 10
244.9999953209128
 20
300.7238177244593
 30
0.0
 11
244.9999953209128
 21
353.9738177244593
 31
0.0
  0
LINE
  5
968
330
1F
100
AcDbEntity
  8
0
100
AcDbLine
 10
249.9999953209128
 20
351.9738177244593
 30
0.0
 11
251.9999953209126
 21
351.9738177244593
 31
0.0
  0
LINE
  5
969
330
1F
100
AcDbEntity
  8
0
100
AcDbLine
 10
249.9999953209128
 20
181.9738177244594
 30
0.0
 11
249.9999953209128
 21
235.2238177244594
 31
0.0
  0
LINE
  5
96A
330
1F
100
AcDbEntity
  8
0
100
AcDbLine
 10
251.9999953209126
 20
181.9738177244594
 30
0.0
 11
251.9999953209126
 21
235.2238177244594
 31
0.0
  0
LINE
  5
96B
330
1F
100
AcDbEntity
  8
0
100
AcDbLine
 10
249.9999953209128
 20
300.7238177244593
 30
0.0
 11
251.9999953209126
 21
300.7238177244593
 31
0.0
  0
LINE
  5
96C
330
1F
100
AcDbEntity
  8
0
100
AcDbLine
 10
249.9999953209128
 20
235.2238177244594
 30
0.0
 11
251.9999953209126
 21
235.2238177244594
 31
0.0
  0
LINE
  5
96D
330
1F
100
AcDbEntity
  8
0
100
AcDbLine
 10
249.9999953209128
 20
183.9738177244594
 30
0.0
 11
251.9999953209126
 21
183.9738177244594
 31
0.0
  0
LINE
  5
96E
330
1F
100
AcDbEntity
  8
0
100
AcDbLine
 10
249.9999953209128
 20
300.7238177244593
 30
0.0
 11
249.9999953209128
 21
353.9738177244593
 31
0.0
  0
LINE
  5
96F
330
1F
100
AcDbEntity
  8
0
100
AcDbLine
 10
251.9999953209126
 20
300.7238177244593
 30
0.0
 11
251.9999953209126
 21
353.9738177244593
 31
0.0
  0
LINE
  5
970
330
1F
100
AcDbEntity
  8
0
100
AcDbLine
 10
179.9999953209128
 20
329.4738177244592
 30
0.0
 11
181.9999953209128
 21
329.4738177244592
 31
0.0
  0
LINE
  5
971
330
1F
100
AcDbEntity
  8
0
100
AcDbLine
 10
179.9999953209128
 20
326.4738177244593
 30
0.0
 11
181.9999953209128
 21
326.4738177244593
 31
0.0
  0
LINE
  5
972
330
1F
100
AcDbEntity
  8
0
100
AcDbLine
 10
179.9999953209128
 20
209.4738177244594
 30
0.0
 11
181.9999953209128
 21
209.4738177244594
 31
0.0
  0
LINE
  5
973
330
1F
100
AcDbEntity
  8
0
100
AcDbLine
 10
179.9999953209128
 20
206.4738177244594
 30
0.0
 11
181.9999953209128
 21
206.4738177244594
 31
0.0
  0
LINE
  5
974
330
1F
100
AcDbEntity
  8
0
100
AcDbLine
 10
186.9999953209128
 20
329.4738177244592
 30
0.0
 11
188.9999953209128
 21
329.4738177244592
 31
0.0
  0
LINE
  5
975
330
1F
100
AcDbEntity
  8
0
100
AcDbLine
 10
186.9999953209128
 20
326.4738177244593
 30
0.0
 11
188.9999953209128
 21
326.4738177244593
 31
0.0
  0
LINE
  5
976
330
1F
100
AcDbEntity
  8
0
100
AcDbLine
 10
186.9999953209128
 20
209.4738177244594
 30
0.0
 11
188.9999953209128
 21
209.4738177244594
 31
0.0
  0
LINE
  5
977
330
1F
100
AcDbEntity
  8
0
100
AcDbLine
 10
186.9999953209128
 20
206.4738177244594
 30
0.0
 11
188.9999953209128
 21
206.4738177244594
 31
0.0
  0
LINE
  5
978
330
1F
100
AcDbEntity
  8
0
100
AcDbLine
 10
193.9999953209128
 20
329.4738177244592
 30
0.0
 11
195.9999953209128
 21
329.4738177244592
 31
0.0
  0
LINE
  5
979
330
1F
100
AcDbEntity
  8
0
100
AcDbLine
 10
193.9999953209128
 20
326.4738177244593
 30
0.0
 11
195.9999953209128
 21
326.4738177244593
 31
0.0
  0
LINE
  5
97A
330
1F
100
AcDbEntity
  8
0
100
AcDbLine
 10
193.9999953209128
 20
209.4738177244594
 30
0.0
 11
195.9999953209128
 21
209.4738177244594
 31
0.0
  0
LINE
  5
97B
330
1F
100
AcDbEntity
  8
0
100
AcDbLine
 10
193.9999953209128
 20
206.4738177244594
 30
0.0
 11
195.9999953209128
 21
206.4738177244594
 31
0.0
  0
LINE
  5
97C
330
1F
100
AcDbEntity
  8
0
100
AcDbLine
 10
200.9999953209128
 20
329.4738177244592
 30
0.0
 11
202.9999953209128
 21
329.4738177244592
 31
0.0
  0
LINE
  5
97D
330
1F
100
AcDbEntity
  8
0
100
AcDbLine
 10
200.9999953209128
 20
326.4738177244593
 30
0.0
 11
202.9999953209128
 21
326.4738177244593
 31
0.0
  0
LINE
  5
97E
330
1F
100
AcDbEntity
  8
0
100
AcDbLine
 10
200.9999953209128
 20
209.4738177244594
 30
0.0
 11
202.9999953209128
 21
209.4738177244594
 31
0.0
  0
LINE
  5
97F
330
1F
100
AcDbEntity
  8
0
100
AcDbLine
 10
200.9999953209128
 20
206.4738177244594
 30
0.0
 11
202.9999953209128
 21
206.4738177244594
 31
0.0
  0
LINE
  5
980
330
1F
100
AcDbEntity
  8
0
100
AcDbLine
 10
207.9999953209128
 20
329.4738177244592
 30
0.0
 11
209.9999953209128
 21
329.4738177244592
 31
0.0
  0
LINE
  5
981
330
1F
100
AcDbEntity
  8
0
100
AcDbLine
 10
207.9999953209128
 20
326.4738177244593
 30
0.0
 11
209.9999953209128
 21
326.4738177244593
 31
0.0
  0
LINE
  5
982
330
1F
100
AcDbEntity
  8
0
100
AcDbLine
 10
207.9999953209128
 20
209.4738177244594
 30
0.0
 11
209.9999953209128
 21
209.4738177244594
 31
0.0
  0
LINE
  5
983
330
1F
100
AcDbEntity
  8
0
100
AcDbLine
 10
207.9999953209128
 20
206.4738177244594
 30
0.0
 11
209.9999953209128
 21
206.4738177244594
 31
0.0
  0
LINE
  5
984
330
1F
100
AcDbEntity
  8
0
100
AcDbLine
 10
214.9999953209128
 20
329.4738177244592
 30
0.0
 11
216.9999953209128
 21
329.4738177244592
 31
0.0
  0
LINE
  5
985
330
1F
100
AcDbEntity
  8
0
100
AcDbLine
 10
214.9999953209128
 20
326.4738177244593
 30
0.0
 11
216.9999953209128
 21
326.4738177244593
 31
0.0
  0
LINE
  5
986
330
1F
100
AcDbEntity
  8
0
100
AcDbLine
 10
214.9999953209128
 20
209.4738177244594
 30
0.0
 11
216.9999953209128
 21
209.4738177244594
 31
0.0
  0
LINE
  5
987
330
1F
100
AcDbEntity
  8
0
100
AcDbLine
 10
214.9999953209128
 20
206.4738177244594
 30
0.0
 11
216.9999953209128
 21
206.4738177244594
 31
0.0
  0
LINE
  5
988
330
1F
100
AcDbEntity
  8
0
100
AcDbLine
 10
221.9999953209129
 20
329.4738177244592
 30
0.0
 11
223.9999953209128
 21
329.4738177244592
 31
0.0
  0
LINE
  5
989
330
1F
100
AcDbEntity
  8
0
100
AcDbLine
 10
221.9999953209129
 20
326.4738177244593
 30
0.0
 11
223.9999953209128
 21
326.4738177244593
 31
0.0
  0
LINE
  5
98A
330
1F
100
AcDbEntity
  8
0
100
AcDbLine
 10
221.9999953209129
 20
209.4738177244594
 30
0.0
 11
223.9999953209128
 21
209.4738177244594
 31
0.0
  0
LINE
  5
98B
330
1F
100
AcDbEntity
  8
0
100
AcDbLine
 10
221.9999953209129
 20
206.4738177244594
 30
0.0
 11
223.9999953209128
 21
206.4738177244594
 31
0.0
  0
LINE
  5
98C
330
1F
100
AcDbEntity
  8
0
100
AcDbLine
 10
228.9999953209128
 20
329.4738177244592
 30
0.0
 11
230.9999953209128
 21
329.4738177244592
 31
0.0
  0
LINE
  5
98D
330
1F
100
AcDbEntity
  8
0
100
AcDbLine
 10
228.9999953209128
 20
326.4738177244593
 30
0.0
 11
230.9999953209128
 21
326.4738177244593
 31
0.0
  0
LINE
  5
98E
330
1F
100
AcDbEntity
  8
0
100
AcDbLine
 10
228.9999953209128
 20
209.4738177244594
 30
0.0
 11
230.9999953209128
 21
209.4738177244594
 31
0.0
  0
LINE
  5
98F
330
1F
100
AcDbEntity
  8
0
100
AcDbLine
 10
228.9999953209128
 20
206.4738177244594
 30
0.0
 11
230.9999953209128
 21
206.4738177244594
 31
0.0
  0
LINE
  5
990
330
1F
100
AcDbEntity
  8
0
100
AcDbLine
 10
235.9999953209128
 20
329.4738177244592
 30
0.0
 11
237.9999953209128
 21
329.4738177244592
 31
0.0
  0
LINE
  5
991
330
1F
100
AcDbEntity
  8
0
100
AcDbLine
 10
235.9999953209128
 20
326.4738177244593
 30
0.0
 11
237.9999953209128
 21
326.4738177244593
 31
0.0
  0
LINE
  5
992
330
1F
100
AcDbEntity
  8
0
100
AcDbLine
 10
235.9999953209128
 20
209.4738177244594
 30
0.0
 11
237.9999953209128
 21
209.4738177244594
 31
0.0
  0
LINE
  5
993
330
1F
100
AcDbEntity
  8
0
100
AcDbLine
 10
235.9999953209128
 20
206.4738177244594
 30
0.0
 11
237.9999953209128
 21
206.4738177244594
 31
0.0
  0
LINE
  5
994
330
1F
100
AcDbEntity
  8
0
100
AcDbLine
 10
242.9999953209128
 20
329.4738177244592
 30
0.0
 11
244.9999953209128
 21
329.4738177244592
 31
0.0
  0
LINE
  5
995
330
1F
100
AcDbEntity
  8
0
100
AcDbLine
 10
242.9999953209128
 20
326.4738177244593
 30
0.0
 11
244.9999953209128
 21
326.4738177244593
 31
0.0
  0
LINE
  5
996
330
1F
100
AcDbEntity
  8
0
100
AcDbLine
 10
242.9999953209128
 20
209.4738177244594
 30
0.0
 11
244.9999953209128
 21
209.4738177244594
 31
0.0
  0
LINE
  5
997
330
1F
100
AcDbEntity
  8
0
100
AcDbLine
 10
242.9999953209128
 20
206.4738177244594
 30
0.0
 11
244.9999953209128
 21
206.4738177244594
 31
0.0
  0
LINE
  5
998
330
1F
100
AcDbEntity
  8
0
100
AcDbLine
 10
249.9999953209128
 20
329.4738177244592
 30
0.0
 11
251.9999953209126
 21
329.4738177244592
 31
0.0
  0
LINE
  5
999
330
1F
100
AcDbEntity
  8
0
100
AcDbLine
 10
249.9999953209128
 20
326.4738177244593
 30
0.0
 11
251.9999953209126
 21
326.4738177244593
 31
0.0
  0
LINE
  5
99A
330
1F
100
AcDbEntity
  8
0
100
AcDbLine
 10
249.9999953209128
 20
209.4738177244594
 30
0.0
 11
251.9999953209126
 21
209.4738177244594
 31
0.0
  0
LINE
  5
99B
330
1F
100
AcDbEntity
  8
0
100
AcDbLine
 10
249.9999953209128
 20
206.4738177244594
 30
0.0
 11
251.9999953209126
 21
206.4738177244594
 31
0.0
  0
LINE
  5
99C
330
1F
100
AcDbEntity
  8
0
100
AcDbLine
 10
229.9999953209128
 20
181.9738177244594
 30
0.0
 11
229.9999953209116
 21
181.4738177244594
 31
0.0
  0
LINE
  5
99D
330
1F
100
AcDbEntity
  8
0
100
AcDbLine
 10
174.9999953209128
 20
181.4738177244594
 30
0.0
 11
229.9999953209128
 21
181.4738177244594
 31
0.0
  0
LINE
  5
99E
330
1F
100
AcDbEntity
  8
0
100
AcDbLine
 10
275.3878491640795
 20
180.9738177244594
 30
0.0
 11
275.3878491640807
 21
354.9738177244593
 31
0.0
  0
LINE
  5
99F
330
1F
100
AcDbEntity
  8
0
100
AcDbLine
 10
154.5999953209129
 20
221.6738184581496
 30
0.0
 11
154.5999953209129
 21
201.4738184581495
 31
0.0
  0
LINE
  5
9A0
330
1F
100
AcDbEntity
  8
0
100
AcDbLine
 10
155.4999953209128
 20
197.9738184581496
 30
0.0
 11
154.9999953209128
 21
198.4738184581495
 31
0.0
  0
LINE
  5
9A1
330
1F
100
AcDbEntity
  8
0
100
AcDbLine
 10
154.9999953209129
 20
199.3738184581498
 30
0.0
 11
154.9999953209128
 21
198.4738184581495
 31
0.0
  0
LINE
  5
9A2
330
1F
100
AcDbEntity
  8
0
100
AcDbLine
 10
156.2999953209129
 20
197.9738184581496
 30
0.0
 11
155.4999953209128
 21
197.9738184581496
 31
0.0
  0
ARC
  5
9A3
330
1F
100
AcDbEntity
  8
0
100
AcDbCircle
 10
155.9999953209129
 20
199.3738184581497
 30
0.0
 40
1.0
100
AcDbArc
 50
90.0
 51
180.0
  0
LINE
  5
9A4
330
1F
100
AcDbEntity
  8
0
100
AcDbLine
 10
157.9999953209128
 20
200.3738184581496
 30
0.0
 11
155.9999953209129
 21
200.3738184581496
 31
0.0
  0
LINE
  5
9A5
330
1F
100
AcDbEntity
  8
0
100
AcDbLine
 10
157.9999953209128
 20
199.1738184581496
 30
0.0
 11
156.2999953209129
 21
199.1738184581496
 31
0.0
  0
LINE
  5
9A6
330
1F
100
AcDbEntity
  8
0
100
AcDbLine
 10
157.9999953209128
 20
201.4738184581495
 30
0.0
 11
154.5999953209129
 21
201.4738184581495
 31
0.0
  0
LINE
  5
9A7
330
1F
100
AcDbEntity
  8
0
100
AcDbLine
 10
156.2999953209129
 20
197.9738184581496
 30
0.0
 11
156.2999953209129
 21
199.1738184581496
 31
0.0
  0
LINE
  5
9A8
330
1F
100
AcDbEntity
  8
0
100
AcDbLine
 10
155.499995320913
 20
225.1738184581496
 30
0.0
 11
154.9999953209129
 21
224.6738184581495
 31
0.0
  0
LINE
  5
9A9
330
1F
100
AcDbEntity
  8
0
100
AcDbLine
 10
154.9999953209129
 20
224.6738184581495
 30
0.0
 11
154.9999953209129
 21
223.7738184581496
 31
0.0
  0
LINE
  5
9AA
330
1F
100
AcDbEntity
  8
0
100
AcDbLine
 10
156.2999953209129
 20
225.1738184581496
 30
0.0
 11
155.499995320913
 21
225.1738184581496
 31
0.0
  0
ARC
  5
9AB
330
1F
100
AcDbEntity
  8
0
100
AcDbCircle
 10
155.9999953209129
 20
223.7738184581498
 30
0.0
 40
1.0
100
AcDbArc
 50
180.0
 51
270.0
  0
LINE
  5
9AC
330
1F
100
AcDbEntity
  8
0
100
AcDbLine
 10
157.9999953209128
 20
222.7738184581498
 30
0.0
 11
155.9999953209129
 21
222.7738184581498
 31
0.0
  0
LINE
  5
9AD
330
1F
100
AcDbEntity
  8
0
100
AcDbLine
 10
154.5999953209129
 20
221.6738184581496
 30
0.0
 11
157.9999953209128
 21
221.6738184581496
 31
0.0
  0
LINE
  5
9AE
330
1F
100
AcDbEntity
  8
0
100
AcDbLine
 10
157.9999953209128
 20
223.9738184581498
 30
0.0
 11
156.2999953209128
 21
223.9738184581498
 31
0.0
  0
LINE
  5
9AF
330
1F
100
AcDbEntity
  8
0
100
AcDbLine
 10
156.2999953209129
 20
223.9738184581495
 30
0.0
 11
156.2999953209129
 21
225.1738184581496
 31
0.0
  0
LINE
  5
9B0
330
1F
100
AcDbEntity
  8
0
100
AcDbLine
 10
157.9999953209128
 20
185.9738184581495
 30
0.0
 11
155.4999953209127
 21
185.9738184581495
 31
0.0
  0
LINE
  5
9B1
330
1F
100
AcDbEntity
  8
0
100
AcDbLine
 10
155.4999953209127
 20
185.9738184581495
 30
0.0
 11
155.4999953209127
 21
191.4738184581494
 31
0.0
  0
LINE
  5
9B2
330
1F
100
AcDbEntity
  8
0
100
AcDbLine
 10
155.4999953209127
 20
191.4738184581494
 30
0.0
 11
157.9999953209128
 21
191.4738184581494
 31
0.0
  0
LINE
  5
9B3
330
1F
100
AcDbEntity
  8
0
100
AcDbLine
 10
157.9999953209128
 20
226.6138177244595
 30
0.0
 11
156.9999953209128
 21
226.6138177244595
 31
0.0
  0
LINE
  5
9B4
330
1F
100
AcDbEntity
  8
0
100
AcDbLine
 10
156.9999953209128
 20
226.6138177244595
 30
0.0
 11
156.9999953209128
 21
223.9738184581498
 31
0.0
  0
LINE
  5
9B5
330
1F
100
AcDbEntity
  8
0
100
AcDbLine
 10
151.3999953209128
 20
276.9738177244593
 30
0.0
 11
157.9999953209128
 21
276.9738177244593
 31
0.0
  0
LINE
  5
9B6
330
1F
100
AcDbEntity
  8
0
100
AcDbLine
 10
157.9999953209128
 20
301.1338177244591
 30
0.0
 11
151.3999953209128
 21
301.1338177244591
 31
0.0
  0
LINE
  5
9B7
330
1F
100
AcDbEntity
  8
0
100
AcDbLine
 10
151.3999953209128
 20
301.1338177244591
 30
0.0
 11
151.3999953209128
 21
276.9738177244593
 31
0.0
  0
LINE
  5
9B8
330
1F
100
AcDbEntity
  8
0
100
AcDbLine
 10
152.6999953209128
 20
235.8138177244594
 30
0.0
 11
152.6999953209128
 21
264.2738177244595
 31
0.0
  0
LINE
  5
9B9
330
1F
100
AcDbEntity
  8
0
100
AcDbLine
 10
152.6999953209128
 20
239.9238177244594
 30
0.0
 11
156.9999953209125
 21
239.9238177244594
 31
0.0
  0
LINE
  5
9BA
330
1F
100
AcDbEntity
  8
0
100
AcDbLine
 10
156.9999953209128
 20
235.8138177244594
 30
0.0
 11
152.6999953209128
 21
235.8138177244594
 31
0.0
  0
LINE
  5
9BB
330
1F
100
AcDbEntity
  8
0
100
AcDbLine
 10
152.6999953209128
 20
260.1638177244594
 30
0.0
 11
157.9999953209128
 21
260.1638177244594
 31
0.0
  0
LINE
  5
9BC
330
1F
100
AcDbEntity
  8
0
100
AcDbLine
 10
152.6999953209128
 20
255.1638177244595
 30
0.0
 11
157.9999953209128
 21
255.1638177244595
 31
0.0
  0
LINE
  5
9BD
330
1F
100
AcDbEntity
  8
0
100
AcDbLine
 10
152.6999953209128
 20
247.5438177244595
 30
0.0
 11
157.9999953209128
 21
247.5438177244595
 31
0.0
  0
LINE
  5
9BE
330
1F
100
AcDbEntity
  8
0
100
AcDbLine
 10
152.6999953209128
 20
252.5438177244594
 30
0.0
 11
157.9999953209128
 21
252.5438177244594
 31
0.0
  0
LINE
  5
9BF
330
1F
100
AcDbEntity
  8
0
100
AcDbLine
 10
152.6999953209128
 20
244.9238177244594
 30
0.0
 11
157.199995320913
 21
244.9238177244594
 31
0.0
  0
LINE
  5
9C0
330
1F
100
AcDbEntity
  8
0
100
AcDbLine
 10
157.199995320913
 20
264.2738177244595
 30
0.0
 11
152.6999953209128
 21
264.2738177244595
 31
0.0
  0
LINE
  5
9C1
330
1F
100
AcDbEntity
  8
0
100
AcDbLine
 10
200.9999953209128
 20
351.9738177244593
 30
0.0
 11
202.9999953209128
 21
351.9738177244593
 31
0.0
  0
LINE
  5
9C2
330
1F
100
AcDbEntity
  8
0
100
AcDbLine
 10
273.9999953209117
 20
354.9738177244593
 30
0.0
 11
273.9999953209117
 21
364.9738177244593
 31
0.0
  0
LINE
  5
9C3
330
1F
100
AcDbEntity
  8
0
100
AcDbLine
 10
157.9999953209128
 20
180.9738177244594
 30
0.0
 11
275.3878491640807
 21
180.9738177244594
 31
0.0
  0
LINE
  5
9CB
330
1F
100
AcDbEntity
  8
0
100
AcDbLine
 10
156.9999953209128
 20
222.7738184581498
 30
0.0
 11
156.9999953209128
 21
221.6738184581496
 31
0.0
  0
LINE
  5
9CC
330
1F
100
AcDbEntity
  8
0
100
AcDbLine
 10
156.9999953209128
 20
201.4738184581495
 30
0.0
 11
156.9999953209128
 21
200.3738184581496
 31
0.0
  0
LINE
  5
9CD
330
1F
100
AcDbEntity
  8
0
100
AcDbLine
 10
156.9999953209128
 20
199.1738184581496
 30
0.0
 11
156.9999953209128
 21
191.4738184581494
 31
0.0
  0
LINE
  5
9CE
330
1F
100
AcDbEntity
  8
0
100
AcDbLine
 10
157.9999953209128
 20
322.4138177244593
 30
0.0
 11
156.9956333800618
 21
322.4138177244593
 31
0.0
  0
LINE
  5
9CF
330
1F
100
AcDbEntity
  8
0
100
AcDbLine
 10
157.9999953209128
 20
233.1738184581495
 30
0.0
 11
156.9999953209128
 21
233.1738184581495
 31
0.0
  0
LINE
  5
9D0
330
1F
100
AcDbEntity
  8
0
100
AcDbLine
 10
156.9999953209128
 20
233.1738184581495
 30
0.0
 11
156.9999953209125
 21
241.5738184581496
 31
0.0
  0
LINE
  5
9D1
330
1F
100
AcDbEntity
  8
0
100
AcDbLine
 10
156.9999953209125
 20
241.5738184581496
 30
0.0
 11
157.9999953209128
 21
241.5738184581496
 31
0.0
  0
LINE
  5
9D2
330
1F
100
AcDbEntity
  8
0
100
AcDbLine
 10
157.9999953209128
 20
243.0738184581496
 30
0.0
 11
157.199995320913
 21
243.0738184581496
 31
0.0
  0
LINE
  5
9D3
330
1F
100
AcDbEntity
  8
0
100
AcDbLine
 10
157.199995320913
 20
243.0738184581496
 30
0.0
 11
157.199995320913
 21
246.0738184581496
 31
0.0
  0
LINE
  5
9D4
330
1F
100
AcDbEntity
  8
0
100
AcDbLine
 10
157.199995320913
 20
246.0738184581496
 30
0.0
 11
157.9999953209128
 21
246.0738184581496
 31
0.0
  0
LINE
  5
9D5
330
1F
100
AcDbEntity
  8
0
100
AcDbLine
 10
157.9999953209128
 20
263.0738184581498
 30
0.0
 11
157.199995320913
 21
263.0738184581498
 31
0.0
  0
LINE
  5
9D6
330
1F
100
AcDbEntity
  8
0
100
AcDbLine
 10
157.199995320913
 20
263.0738184581498
 30
0.0
 11
157.199995320913
 21
266.0738184581496
 31
0.0
  0
LINE
  5
9D7
330
1F
100
AcDbEntity
  8
0
100
AcDbLine
 10
157.199995320913
 20
266.0738184581496
 30
0.0
 11
157.9999953209128
 21
266.0738184581496
 31
0.0
  0
LINE
  5
9D8
330
1F
100
AcDbEntity
  8
0
  6
Continuous
100
AcDbLine
 10
156.9956333800618
 20
322.4138177244593
 30
0.0
 11
156.9956333800618
 21
307.0138177244594
 31
0.0
  0
LINE
  5
9D9
330
1F
100
AcDbEntity
  8
0
  6
Continuous
100
AcDbLine
 10
156.9956333800618
 20
307.0138177244594
 30
0.0
 11
157.9999953209128
 21
307.0138177244594
 31
0.0
  0
LINE
  5
C44
330
1F
100
AcDbEntity
  8
0
100
AcDbLine
 10
26.70870747343513
 20
4.379169169096368
 30
0.0
 11
26.70870747343513
 21
21.97381772446043
 31
0.0
  0
LINE
  5
C45
330
1F
100
AcDbEntity
  8
0
100
AcDbLine
 10
31.29128316839016
 20
4.259170201363413
 30
0.0
 11
31.29128316839016
 21
21.97381772445941
 31
0.0
  0
LINE
  5
C46
330
1F
100
AcDbEntity
  8
0
100
AcDbLine
 10
5.999995320913172
 20
4.921445881321401
 30
0.0
 11
5.999995320913172
 21
20.97381772445942
 31
0.0
  0
LINE
  5
C47
330
1F
100
AcDbEntity
  8
0
100
AcDbLine
 10
4.99999532091317
 20
21.00000364602839
 30
0.0
 11
4.99999532091317
 21
4.973817724458396
 31
0.0
  0
LINE
  5
C48
330
1F
100
AcDbEntity
  8
0
100
AcDbLine
 10
-0.0000046790868282
 20
21.41967040523535
 30
0.0
 11
-0.0000046790868282
 21
0.0000036460284037
 31
0.0
  0
LINE
  5
C49
330
1F
100
AcDbEntity
  8
0
100
AcDbLine
 10
57.99999532091317
 20
3.585963881291376
 30
0.0
 11
57.99999532091317
 21
120.9738177244593
 31
0.0
  0
ARC
  5
C4D
330
1F
100
AcDbEntity
  8
0
100
AcDbCircle
 10
2.399995320913145
 20
89.31967040523536
 30
0.0
 40
0.6
100
AcDbArc
 50
0.0
 51
88.09084756699943
  0
LINE
  5
C4E
330
1F
100
AcDbEntity
  8
0
100
AcDbLine
 10
5.999995320913172
 20
82.97381772446039
 30
0.0
 11
5.999995320913172
 21
109.6057371511573
 31
0.0
  0
LINE
  5
C4F
330
1F
100
AcDbEntity
  8
0
100
AcDbLine
 10
4.99999532091317
 20
110.4710227039022
 30
0.0
 11
4.99999532091317
 21
83.00000364602842
 31
0.0
  0
LINE
  5
C50
330
1F
100
AcDbEntity
  8
0
100
AcDbLine
 10
56.99999532091315
 20
21.97381772445941
 30
0.0
 11
56.99999532091315
 21
103.9738177244592
 31
0.0
  0
LINE
  5
C51
330
1F
100
AcDbEntity
  8
0
100
AcDbLine
 10
15.99999532091316
 20
103.9738177244592
 30
0.0
 11
15.99999532091316
 21
21.97381772445941
 31
0.0
  0
LINE
  5
C52
330
1F
100
AcDbEntity
  8
0
100
AcDbLine
 10
28.19999532091314
 20
105.4738177244593
 30
0.0
 11
19.99999532091316
 21
105.4738177244593
 31
0.0
  0
LINE
  5
C53
330
1F
100
AcDbEntity
  8
0
100
AcDbLine
 10
19.99999532091316
 20
117.4738177244592
 30
0.0
 11
28.19999532091314
 21
117.4738177244592
 31
0.0
  0
LINE
  5
C54
330
1F
100
AcDbEntity
  8
0
100
AcDbLine
 10
19.99999532091316
 20
109.4738177244593
 30
0.0
 11
23.19999532091312
 21
109.4738177244593
 31
0.0
  0
LINE
  5
C55
330
1F
100
AcDbEntity
  8
0
100
AcDbLine
 10
19.99999532091316
 20
113.4738177244592
 30
0.0
 11
23.19999532091312
 21
113.4738177244592
 31
0.0
  0
LINE
  5
C5B
330
1F
100
AcDbEntity
  8
0
100
AcDbLine
 10
5.999995320913172
 20
120.9738177244593
 30
0.0
 11
57.99999532091317
 21
120.9738177244593
 31
0.0
  0
LINE
  5
C5C
330
1F
100
AcDbEntity
  8
0
100
AcDbLine
 10
19.99999532091316
 20
109.4738177244593
 30
0.0
 11
19.99999532091316
 21
105.4738177244593
 31
0.0
  0
LINE
  5
C5D
330
1F
100
AcDbEntity
  8
0
100
AcDbLine
 10
-0.0000046790868282
 20
90.58033688682042
 30
0.0
 11
-0.0000046790868282
 21
120.8952599597512
 31
0.0
  0
LINE
  5
C5E
330
1F
100
AcDbEntity
  8
0
100
AcDbLine
 10
7.999995320913172
 20
120.4738177244593
 30
0.0
 11
7.999995320913172
 21
110.97381772446
 31
0.0
  0
LINE
  5
C5F
330
1F
100
AcDbEntity
  8
0
100
AcDbLine
 10
8.999995320913171
 20
120.9738177244593
 30
0.0
 11
8.999995320913171
 21
110.1347180932822
 31
0.0
  0
LINE
  5
C60
330
1F
100
AcDbEntity
  8
0
100
AcDbLine
 10
7.999995320913172
 20
111.0000036460282
 30
0.0
 11
7.999995320913172
 21
120.8952599597512
 31
0.0
  0
LINE
  5
C61
330
1F
100
AcDbEntity
  8
0
100
AcDbLine
 10
5.999995320913172
 20
120.9738177244593
 30
0.0
 11
5.999995320913172
 21
120.9476318028898
 31
0.0
  0
LINE
  5
C62
330
1F
100
AcDbEntity
  8
0
100
AcDbLine
 10
5.999995320913172
 20
120.9738177244593
 30
0.0
 11
5.999995320913172
 21
120.9476318028902
 31
0.0
  0
LINE
  5
C63
330
1F
100
AcDbEntity
  8
0
100
AcDbLine
 10
7.999995320913172
 20
120.4738177244593
 30
0.0
 11
8.999995320913171
 21
120.4738177244593
 31
0.0
  0
LINE
  5
C64
330
1F
100
AcDbEntity
  8
0
100
AcDbLine
 10
3.999995320913171
 20
121.000003646028
 30
0.0
 11
7.999995320913172
 21
120.8952599597512
 31
0.0
  0
LINE
  5
C65
330
1F
100
AcDbEntity
  8
0
100
AcDbLine
 10
-0.0000046790868282
 20
120.8952599597512
 30
0.0
 11
3.999995320913171
 21
121.000003646028
 31
0.0
  0
LINE
  5
C66
330
1F
100
AcDbEntity
  8
0
100
AcDbLine
 10
4.99999532091317
 20
110.4448367823341
 30
0.0
 11
7.999995320913172
 21
110.97381772446
 31
0.0
  0
LINE
  5
C67
330
1F
100
AcDbEntity
  8
0
100
AcDbLine
 10
8.999995320913171
 20
110.1347180932822
 30
0.0
 11
5.999995320913172
 21
109.6057371511573
 31
0.0
  0
LINE
  5
C68
330
1F
100
AcDbEntity
  8
0
100
AcDbLine
 10
7.999995320913172
 20
111.0000036460282
 30
0.0
 11
4.99999532091317
 21
110.4710227039022
 31
0.0
  0
LINE
  5
C69
330
1F
100
AcDbEntity
  8
0
100
AcDbLine
 10
19.99999532091316
 20
113.4738177244592
 30
0.0
 11
19.99999532091316
 21
117.4738177244592
 31
0.0
  0
LINE
  5
C6A
330
1F
100
AcDbEntity
  8
0
100
AcDbLine
 10
-0.0000046790868282
 20
98.41967040523543
 30
0.0
 11
-0.0000046790868282
 21
97.58033688682044
 31
0.0
  0
POINT
  5
C6B
330
1F
100
AcDbEntity
  8
0
100
AcDbPoint
 10
-0.0000046790868282
 20
99.00000364602741
 30
0.0
  0
POINT
  5
C6C
330
1F
100
AcDbEntity
  8
0
100
AcDbPoint
 10
2.999995320913171
 20
99.10000364602742
 30
0.0
  0
ARC
  5
C6D
330
1F
100
AcDbEntity
  8
0
100
AcDbCircle
 10
2.399995320913145
 20
99.68033688681941
 30
0.0
 40
0.6
100
AcDbArc
 50
271.909152432994
 51
0.0
  0
ARC
  5
C6E
330
1F
100
AcDbEntity
  8
0
100
AcDbCircle
 10
0.5999953209131946
 20
98.41967040523543
 30
0.0
 40
0.6
100
AcDbArc
 50
91.90915243299405
 51
180.0
  0
LINE
  5
C6F
330
1F
100
AcDbEntity
  8
0
100
AcDbLine
 10
2.419984219052139
 20
99.08066994263243
 30
0.0
 11
0.5800064227731811
 21
99.01933734942335
 31
0.0
  0
LINE
  5
C70
330
1F
100
AcDbEntity
  8
0
100
AcDbLine
 10
2.999995320913171
 20
103.3196704052351
 30
0.0
 11
2.999995320913171
 21
99.68033688681941
 31
0.0
  0
POINT
  5
C71
330
1F
100
AcDbEntity
  8
0
100
AcDbPoint
 10
2.999995320913171
 20
103.9000036460269
 30
0.0
  0
ARC
  5
C72
330
1F
100
AcDbEntity
  8
0
100
AcDbCircle
 10
0.5999953209131946
 20
104.5803368868202
 30
0.0
 40
0.6
100
AcDbArc
 50
180.0
 51
268.0908475670059
  0
LINE
  5
C73
330
1F
100
AcDbEntity
  8
0
100
AcDbLine
 10
0.5800064227731811
 20
103.9806699426321
 30
0.0
 11
2.419984219052139
 21
103.9193373494232
 31
0.0
  0
ARC
  5
C74
330
1F
100
AcDbEntity
  8
0
100
AcDbCircle
 10
2.399995320913145
 20
103.3196704052351
 30
0.0
 40
0.6
100
AcDbArc
 50
0.0
 51
88.09084756699943
  0
POINT
  5
C75
330
1F
100
AcDbEntity
  8
0
100
AcDbPoint
 10
-0.0000046790868282
 20
90.0000036460284
 30
0.0
  0
ARC
  5
C76
330
1F
100
AcDbEntity
  8
0
100
AcDbCircle
 10
2.399995320913145
 20
92.6803368868194
 30
0.0
 40
0.6
100
AcDbArc
 50
271.909152432994
 51
0.0
  0
ARC
  5
C77
330
1F
100
AcDbEntity
  8
0
100
AcDbCircle
 10
0.5999953209131946
 20
91.41967040523542
 30
0.0
 40
0.6
100
AcDbArc
 50
91.90915243299405
 51
180.0
  0
ARC
  5
C78
330
1F
100
AcDbEntity
  8
0
100
AcDbCircle
 10
0.5999953209121715
 20
90.58033688682042
 30
0.0
 40
0.6
100
AcDbArc
 50
180.0
 51
268.0908475670059
  0
LINE
  5
C79
330
1F
100
AcDbEntity
  8
0
100
AcDbLine
 10
-0.0000046790868282
 20
91.41967040523542
 30
0.0
 11
-0.0000046790868282
 21
90.58033688682042
 31
0.0
  0
LINE
  5
C7A
330
1F
100
AcDbEntity
  8
0
100
AcDbLine
 10
0.5800064227731811
 20
89.9806699426324
 30
0.0
 11
2.419984219052139
 21
89.91933734942342
 31
0.0
  0
LINE
  5
C7B
330
1F
100
AcDbEntity
  8
0
100
AcDbLine
 10
2.419984219052139
 20
92.08066994263242
 30
0.0
 11
0.5800064227731811
 21
92.01933734942334
 31
0.0
  0
POINT
  5
C7C
330
1F
100
AcDbEntity
  8
0
100
AcDbPoint
 10
2.999995320913171
 20
96.90000364602736
 30
0.0
  0
POINT
  5
C7D
330
1F
100
AcDbEntity
  8
0
100
AcDbPoint
 10
-0.0000046790868282
 20
97.00000364602741
 30
0.0
  0
ARC
  5
C7E
330
1F
100
AcDbEntity
  8
0
100
AcDbCircle
 10
2.399995320913145
 20
96.31967040523541
 30
0.0
 40
0.6
100
AcDbArc
 50
0.0
 51
88.09084756699943
  0
ARC
  5
C7F
330
1F
100
AcDbEntity
  8
0
100
AcDbCircle
 10
0.5999953209131946
 20
97.58033688682044
 30
0.0
 40
0.6
100
AcDbArc
 50
180.0
 51
268.0908475670059
  0
LINE
  5
C80
330
1F
100
AcDbEntity
  8
0
100
AcDbLine
 10
0.5800064227731811
 20
96.98066994263241
 30
0.0
 11
2.419984219052139
 21
96.91933734942345
 31
0.0
  0
LINE
  5
C81
330
1F
100
AcDbEntity
  8
0
100
AcDbLine
 10
2.999995320913171
 20
96.31967040523541
 30
0.0
 11
2.999995320913171
 21
92.6803368868194
 31
0.0
  0
LINE
  5
C82
330
1F
100
AcDbEntity
  8
0
100
AcDbLine
 10
28.19999532091314
 20
105.4738177244593
 30
0.0
 11
28.19999532091314
 21
117.4738177244592
 31
0.0
  0
LINE
  5
C83
330
1F
100
AcDbEntity
  8
0
100
AcDbLine
 10
23.19999532091312
 20
107.4738177244593
 30
0.0
 11
25.19999532091313
 21
107.4738177244593
 31
0.0
  0
LINE
  5
C84
330
1F
100
AcDbEntity
  8
0
100
AcDbLine
 10
23.19999532091312
 20
109.4738177244593
 30
0.0
 11
23.19999532091312
 21
107.4738177244593
 31
0.0
  0
LINE
  5
C85
330
1F
100
AcDbEntity
  8
0
100
AcDbLine
 10
23.19999532091312
 20
115.4738177244592
 30
0.0
 11
25.19999532091313
 21
115.4738177244592
 31
0.0
  0
LINE
  5
C86
330
1F
100
AcDbEntity
  8
0
100
AcDbLine
 10
23.19999532091312
 20
113.4738177244592
 30
0.0
 11
23.19999532091312
 21
115.4738177244592
 31
0.0
  0
LINE
  5
C87
330
1F
100
AcDbEntity
  8
0
100
AcDbLine
 10
25.19999532091313
 20
107.4738177244593
 30
0.0
 11
25.19999532091313
 21
115.4738177244592
 31
0.0
  0
LINE
  5
C94
330
1F
100
AcDbEntity
  8
0
100
AcDbLine
 10
56.99999532091315
 20
26.97381772445941
 30
0.0
 11
15.99999532091316
 21
26.97381772445941
 31
0.0
  0
LINE
  5
C95
330
1F
100
AcDbEntity
  8
0
100
AcDbLine
 10
56.99999532091315
 20
28.97381772445942
 30
0.0
 11
15.99999532091316
 21
28.97381772445942
 31
0.0
  0
LINE
  5
C96
330
1F
100
AcDbEntity
  8
0
100
AcDbLine
 10
56.99999532091315
 20
33.97381772445941
 30
0.0
 11
15.99999532091316
 21
33.97381772445941
 31
0.0
  0
LINE
  5
C97
330
1F
100
AcDbEntity
  8
0
100
AcDbLine
 10
56.99999532091315
 20
35.97381772445942
 30
0.0
 11
15.99999532091316
 21
35.97381772445942
 31
0.0
  0
LINE
  5
C98
330
1F
100
AcDbEntity
  8
0
100
AcDbLine
 10
56.99999532091315
 20
40.97381772445942
 30
0.0
 11
15.99999532091316
 21
40.97381772445942
 31
0.0
  0
LINE
  5
C99
330
1F
100
AcDbEntity
  8
0
100
AcDbLine
 10
56.99999532091315
 20
42.97381772445943
 30
0.0
 11
15.99999532091316
 21
42.97381772445943
 31
0.0
  0
LINE
  5
C9D
330
1F
100
AcDbEntity
  8
0
100
AcDbLine
 10
15.99999532091316
 20
21.97381772445941
 30
0.0
 11
57.99999532091317
 21
21.97381772445941
 31
0.0
  0
LINE
  5
CA5
330
1F
100
AcDbEntity
  8
0
100
AcDbLine
 10
2.999995320913171
 20
54.31967040523541
 30
0.0
 11
2.999995320913171
 21
50.68033688681943
 31
0.0
  0
LINE
  5
CA6
330
1F
100
AcDbEntity
  8
0
100
AcDbLine
 10
5.999995320913172
 20
32.97381772446037
 30
0.0
 11
5.999995320913172
 21
70.97381772445942
 31
0.0
  0
LINE
  5
CA7
330
1F
100
AcDbEntity
  8
0
100
AcDbLine
 10
4.99999532091317
 20
71.0000036460284
 30
0.0
 11
4.99999532091317
 21
33.00000364602839
 31
0.0
  0
LINE
  5
CA8
330
1F
100
AcDbEntity
  8
0
100
AcDbLine
 10
2.999995320913171
 20
75.31967040523539
 30
0.0
 11
2.999995320913171
 21
71.68033688681943
 31
0.0
  0
LINE
  5
CA9
330
1F
100
AcDbEntity
  8
0
100
AcDbLine
 10
4.99999532091317
 20
71.00000364602738
 30
0.0
 11
4.99999532091317
 21
83.00000364602842
 31
0.0
  0
LINE
  5
CAA
330
1F
100
AcDbEntity
  8
0
100
AcDbLine
 10
4.49999532091317
 20
83.00000364602842
 30
0.0
 11
4.49999532091317
 21
71.0000036460284
 31
0.0
  0
LINE
  5
CAB
330
1F
100
AcDbEntity
  8
0
100
AcDbLine
 10
3.699995320913102
 20
83.00000364602842
 30
0.0
 11
3.699995320913102
 21
71.10000364602742
 31
0.0
  0
LINE
  5
CAC
330
1F
100
AcDbEntity
  8
0
100
AcDbLine
 10
9.699995320912192
 20
81.47381772445942
 30
0.0
 11
9.699995320912192
 21
72.47381772445942
 31
0.0
  0
LINE
  5
CAD
330
1F
100
AcDbEntity
  8
0
100
AcDbLine
 10
7.999995320912147
 20
81.47381772445942
 30
0.0
 11
7.999995320912147
 21
72.47381772445942
 31
0.0
  0
LINE
  5
CAE
330
1F
100
AcDbEntity
  8
0
100
AcDbLine
 10
9.499995320913171
 20
81.0000036460284
 30
0.0
 11
9.499995320913171
 21
73.00000364602841
 31
0.0
  0
LINE
  5
CAF
330
1F
100
AcDbEntity
  8
0
100
AcDbLine
 10
8.699995320913101
 20
81.0000036460284
 30
0.0
 11
8.699995320913101
 21
73.00000364602841
 31
0.0
  0
LINE
  5
CB0
330
1F
100
AcDbEntity
  8
0
100
AcDbLine
 10
8.099995320913192
 20
81.0000036460284
 30
0.0
 11
8.099995320913192
 21
73.00000364602841
 31
0.0
  0
LINE
  5
CB1
330
1F
100
AcDbEntity
  8
0
100
AcDbLine
 10
2.999995320913171
 20
82.31967040523541
 30
0.0
 11
2.999995320913171
 21
78.68033688681943
 31
0.0
  0
LINE
  5
CB2
330
1F
100
AcDbEntity
  8
0
100
AcDbLine
 10
5.999995320913172
 20
82.97381772446039
 30
0.0
 11
4.99999532091317
 21
82.97381772446039
 31
0.0
  0
LINE
  5
CB3
330
1F
100
AcDbEntity
  8
0
100
AcDbLine
 10
9.699995320912192
 20
81.47381772445942
 30
0.0
 11
7.999995320912147
 21
81.47381772445942
 31
0.0
  0
LINE
  5
CB4
330
1F
100
AcDbEntity
  8
0
100
AcDbLine
 10
4.99999532091317
 20
83.00000364602842
 30
0.0
 11
3.699995320913102
 21
83.00000364602842
 31
0.0
  0
POINT
  5
CB5
330
1F
100
AcDbEntity
  8
0
100
AcDbPoint
 10
-0.0000046790868282
 20
83.00000364602842
 30
0.0
  0
ARC
  5
CB6
330
1F
100
AcDbEntity
  8
0
100
AcDbCircle
 10
2.399995320913145
 20
82.31967040523541
 30
0.0
 40
0.6
100
AcDbArc
 50
0.0
 51
88.09084756699943
  0
ARC
  5
CB7
330
1F
100
AcDbEntity
  8
0
100
AcDbCircle
 10
2.399995320913145
 20
85.68033688681943
 30
0.0
 40
0.6
100
AcDbArc
 50
271.909152432994
 51
0.0
  0
LINE
  5
CB8
330
1F
100
AcDbEntity
  8
0
100
AcDbLine
 10
9.499995320913171
 20
81.0000036460284
 30
0.0
 11
7.999995320912147
 21
81.0000036460284
 31
0.0
  0
ARC
  5
CB9
330
1F
100
AcDbEntity
  8
0
100
AcDbCircle
 10
0.5999953209131946
 20
84.41967040523541
 30
0.0
 40
0.6
100
AcDbArc
 50
91.90915243299405
 51
180.0
  0
ARC
  5
CBA
330
1F
100
AcDbEntity
  8
0
100
AcDbCircle
 10
0.5999953209131946
 20
83.5803368868204
 30
0.0
 40
0.6
100
AcDbArc
 50
180.0
 51
268.0908475670059
  0
LINE
  5
CBB
330
1F
100
AcDbEntity
  8
0
100
AcDbLine
 10
-0.0000046790868282
 20
84.41967040523541
 30
0.0
 11
-0.0000046790868282
 21
83.5803368868204
 31
0.0
  0
LINE
  5
CBC
330
1F
100
AcDbEntity
  8
0
100
AcDbLine
 10
0.5800064227731811
 20
82.98066994263241
 30
0.0
 11
2.419984219052139
 21
82.91933734942341
 31
0.0
  0
LINE
  5
CBD
330
1F
100
AcDbEntity
  8
0
100
AcDbLine
 10
2.419984219052139
 20
85.08066994263243
 30
0.0
 11
0.5800064227731811
 21
85.01933734942339
 31
0.0
  0
LINE
  5
CBE
330
1F
100
AcDbEntity
  8
0
100
AcDbLine
 10
2.999995320913171
 20
89.31967040523536
 30
0.0
 11
2.999995320913171
 21
85.68033688681943
 31
0.0
  0
LINE
  5
CBF
330
1F
100
AcDbEntity
  8
0
100
AcDbLine
 10
9.699995320912192
 20
72.47381772445942
 30
0.0
 11
7.999995320912147
 21
72.47381772445942
 31
0.0
  0
POINT
  5
CC0
330
1F
100
AcDbEntity
  8
0
100
AcDbPoint
 10
-0.0000046790868282
 20
76.0000036460284
 30
0.0
  0
ARC
  5
CC1
330
1F
100
AcDbEntity
  8
0
100
AcDbCircle
 10
2.399995320913145
 20
75.31967040523539
 30
0.0
 40
0.6
100
AcDbArc
 50
0.0
 51
88.09084756699943
  0
ARC
  5
CC2
330
1F
100
AcDbEntity
  8
0
100
AcDbCircle
 10
2.399995320913145
 20
78.68033688681943
 30
0.0
 40
0.6
100
AcDbArc
 50
271.909152432994
 51
0.0
  0
LINE
  5
CC3
330
1F
100
AcDbEntity
  8
0
100
AcDbLine
 10
9.499995320913171
 20
73.00000364602841
 30
0.0
 11
7.999995320912147
 21
73.00000364602841
 31
0.0
  0
ARC
  5
CC4
330
1F
100
AcDbEntity
  8
0
100
AcDbCircle
 10
0.5999953209131946
 20
77.41967040523542
 30
0.0
 40
0.6
100
AcDbArc
 50
91.90915243299405
 51
180.0
  0
ARC
  5
CC5
330
1F
100
AcDbEntity
  8
0
100
AcDbCircle
 10
0.5999953209131946
 20
76.5803368868204
 30
0.0
 40
0.6
100
AcDbArc
 50
180.0
 51
268.0908475670059
  0
LINE
  5
CC6
330
1F
100
AcDbEntity
  8
0
100
AcDbLine
 10
-0.0000046790868282
 20
77.41967040523542
 30
0.0
 11
-0.0000046790868282
 21
76.5803368868204
 31
0.0
  0
LINE
  5
CC7
330
1F
100
AcDbEntity
  8
0
100
AcDbLine
 10
0.5800064227731811
 20
75.9806699426324
 30
0.0
 11
2.419984219052139
 21
75.91933734942341
 31
0.0
  0
LINE
  5
CC8
330
1F
100
AcDbEntity
  8
0
100
AcDbLine
 10
2.419984219052139
 20
78.08066994263241
 30
0.0
 11
0.5800064227731811
 21
78.01933734942337
 31
0.0
  0
LINE
  5
CC9
330
1F
100
AcDbEntity
  8
0
100
AcDbLine
 10
-0.0000046790868282
 20
64.61967040523642
 30
0.0
 11
-0.0000046790868282
 21
59.58033688681939
 31
0.0
  0
ARC
  5
CCA
330
1F
100
AcDbEntity
  8
0
100
AcDbCircle
 10
0.5999953209121715
 20
64.41967040523542
 30
0.0
 40
0.6
100
AcDbArc
 50
91.90915243299405
 51
180.0
  0
LINE
  5
CCB
330
1F
100
AcDbEntity
  8
0
100
AcDbLine
 10
0.5800064227731811
 20
65.0193373494234
 30
0.0
 11
2.999995320912147
 21
65.1000036460274
 31
0.0
  0
ARC
  5
CCC
330
1F
100
AcDbEntity
  8
0
100
AcDbCircle
 10
0.5999953209121715
 20
64.61967040523642
 30
0.0
 40
0.6
100
AcDbArc
 50
91.90915243299405
 51
180.0
  0
LINE
  5
CCD
330
1F
100
AcDbEntity
  8
0
100
AcDbLine
 10
0.5800064227731811
 20
65.21933734942344
 30
0.0
 11
2.999995320912147
 21
65.3000036460284
 31
0.0
  0
POINT
  5
CCE
330
1F
100
AcDbEntity
  8
0
100
AcDbPoint
 10
-0.0000046790868282
 20
69.00000364602838
 30
0.0
  0
ARC
  5
CCF
330
1F
100
AcDbEntity
  8
0
100
AcDbCircle
 10
2.399995320913145
 20
64.6803368868194
 30
0.0
 40
0.6
100
AcDbArc
 50
271.9091524329875
 51
0.0
  0
ARC
  5
CD0
330
1F
100
AcDbEntity
  8
0
100
AcDbCircle
 10
2.399995320913145
 20
68.3196704052354
 30
0.0
 40
0.6
100
AcDbArc
 50
0.0
 51
88.09084756699943
  0
ARC
  5
CD1
330
1F
100
AcDbEntity
  8
0
100
AcDbCircle
 10
0.5999953209131946
 20
69.58033688682042
 30
0.0
 40
0.6
100
AcDbArc
 50
180.0
 51
268.0908475670059
  0
ARC
  5
CD2
330
1F
100
AcDbEntity
  8
0
100
AcDbCircle
 10
0.5999953209131946
 20
63.41967040523542
 30
0.0
 40
0.6
100
AcDbArc
 50
91.90915243299405
 51
180.0
  0
LINE
  5
CD3
330
1F
100
AcDbEntity
  8
0
100
AcDbLine
 10
-0.0000046790868282
 20
70.41967040523542
 30
0.0
 11
-0.0000046790868282
 21
69.58033688682042
 31
0.0
  0
LINE
  5
CD4
330
1F
100
AcDbEntity
  8
0
100
AcDbLine
 10
2.419984219052139
 20
64.08066994263243
 30
0.0
 11
0.5800064227731811
 21
64.01933734942339
 31
0.0
  0
LINE
  5
CD5
330
1F
100
AcDbEntity
  8
0
100
AcDbLine
 10
2.999995320913171
 20
68.3196704052354
 30
0.0
 11
2.999995320913171
 21
64.6803368868194
 31
0.0
  0
LINE
  5
CD6
330
1F
100
AcDbEntity
  8
0
100
AcDbLine
 10
0.5800064227731811
 20
68.9806699426324
 30
0.0
 11
2.419984219052139
 21
68.91933734942341
 31
0.0
  0
LINE
  5
CD7
330
1F
100
AcDbEntity
  8
0
100
AcDbLine
 10
5.999995320913172
 20
70.97381772445942
 30
0.0
 11
4.99999532091317
 21
70.97381772445942
 31
0.0
  0
LINE
  5
CD8
330
1F
100
AcDbEntity
  8
0
100
AcDbLine
 10
4.99999532091317
 20
71.0000036460284
 30
0.0
 11
3.699995320913102
 21
71.0000036460284
 31
0.0
  0
ARC
  5
CD9
330
1F
100
AcDbEntity
  8
0
100
AcDbCircle
 10
2.399995320913145
 20
71.68033688681943
 30
0.0
 40
0.6
100
AcDbArc
 50
271.909152432994
 51
0.0
  0
LINE
  5
CDA
330
1F
100
AcDbEntity
  8
0
100
AcDbLine
 10
2.419984219052139
 20
71.08066994263244
 30
0.0
 11
0.5800064227731811
 21
71.01933734942337
 31
0.0
  0
ARC
  5
CDB
330
1F
100
AcDbEntity
  8
0
100
AcDbCircle
 10
0.5999953209121715
 20
70.41967040523542
 30
0.0
 40
0.6
100
AcDbArc
 50
91.90915243299405
 51
180.0
  0
ARC
  5
CDC
330
1F
100
AcDbEntity
  8
0
100
AcDbCircle
 10
0.5999953209121715
 20
59.58033688681939
 30
0.0
 40
0.6
100
AcDbArc
 50
180.0
 51
268.0908475670059
  0
LINE
  5
CDD
330
1F
100
AcDbEntity
  8
0
100
AcDbLine
 10
0.5800064227731811
 20
58.98066994263238
 30
0.0
 11
2.999995320912147
 21
58.9000036460274
 31
0.0
  0
POINT
  5
CDE
330
1F
100
AcDbEntity
  8
0
100
AcDbPoint
 10
-0.0000046790868282
 20
55.00000364602738
 30
0.0
  0
POINT
  5
CDF
330
1F
100
AcDbEntity
  8
0
100
AcDbPoint
 10
-0.0000046790868282
 20
62.00000364602738
 30
0.0
  0
ARC
  5
CE0
330
1F
100
AcDbEntity
  8
0
100
AcDbCircle
 10
2.399995320913145
 20
57.68033688681941
 30
0.0
 40
0.6
100
AcDbArc
 50
271.909152432994
 51
0.0
  0
ARC
  5
CE1
330
1F
100
AcDbEntity
  8
0
100
AcDbCircle
 10
2.399995320913145
 20
61.31967040523541
 30
0.0
 40
0.6
100
AcDbArc
 50
0.0
 51
88.09084756699943
  0
ARC
  5
CE2
330
1F
100
AcDbEntity
  8
0
100
AcDbCircle
 10
0.5999953209131946
 20
62.58033688682042
 30
0.0
 40
0.6
100
AcDbArc
 50
180.0
 51
268.0908475670059
  0
ARC
  5
CE3
330
1F
100
AcDbEntity
  8
0
100
AcDbCircle
 10
0.5999953209131946
 20
56.41967040523542
 30
0.0
 40
0.6
100
AcDbArc
 50
91.90915243299405
 51
180.0
  0
ARC
  5
CE4
330
1F
100
AcDbEntity
  8
0
100
AcDbCircle
 10
0.5999953209131946
 20
55.58033688682042
 30
0.0
 40
0.6
100
AcDbArc
 50
180.0
 51
268.0908475670059
  0
LINE
  5
CE5
330
1F
100
AcDbEntity
  8
0
100
AcDbLine
 10
-0.0000046790868282
 20
56.41967040523542
 30
0.0
 11
-0.0000046790868282
 21
55.58033688682042
 31
0.0
  0
LINE
  5
CE6
330
1F
100
AcDbEntity
  8
0
100
AcDbLine
 10
0.5800064227731811
 20
54.98066994263239
 30
0.0
 11
2.419984219052139
 21
54.91933734942342
 31
0.0
  0
LINE
  5
CE7
330
1F
100
AcDbEntity
  8
0
100
AcDbLine
 10
2.419984219052139
 20
57.08066994263242
 30
0.0
 11
0.5800064227731811
 21
57.01933734942339
 31
0.0
  0
LINE
  5
CE8
330
1F
100
AcDbEntity
  8
0
100
AcDbLine
 10
2.999995320913171
 20
61.31967040523541
 30
0.0
 11
2.999995320913171
 21
57.68033688681941
 31
0.0
  0
LINE
  5
CE9
330
1F
100
AcDbEntity
  8
0
100
AcDbLine
 10
0.5800064227731811
 20
61.98066994263239
 30
0.0
 11
2.419984219052139
 21
61.91933734942341
 31
0.0
  0
ARC
  5
CEA
330
1F
100
AcDbEntity
  8
0
100
AcDbCircle
 10
2.399995320913145
 20
54.31967040523541
 30
0.0
 40
0.6
100
AcDbArc
 50
0.0
 51
88.09084756699943
  0
ARC
  5
CEB
330
1F
100
AcDbEntity
  8
0
100
AcDbCircle
 10
2.399995320913145
 20
36.68033688681942
 30
0.0
 40
0.6
100
AcDbArc
 50
271.909152432994
 51
0.0
  0
LINE
  5
CEC
330
1F
100
AcDbEntity
  8
0
100
AcDbLine
 10
2.999995320913171
 20
47.31967040523541
 30
0.0
 11
2.999995320913171
 21
43.68033688681943
 31
0.0
  0
POINT
  5
CED
330
1F
100
AcDbEntity
  8
0
100
AcDbPoint
 10
-0.0000046790868282
 20
48.00000364602841
 30
0.0
  0
ARC
  5
CEE
330
1F
100
AcDbEntity
  8
0
100
AcDbCircle
 10
2.399995320913145
 20
47.31967040523541
 30
0.0
 40
0.6
100
AcDbArc
 50
0.0
 51
88.09084756699943
  0
ARC
  5
CEF
330
1F
100
AcDbEntity
  8
0
100
AcDbCircle
 10
2.399995320913145
 20
50.68033688681943
 30
0.0
 40
0.6
100
AcDbArc
 50
271.909152432994
 51
0.0
  0
ARC
  5
CF0
330
1F
100
AcDbEntity
  8
0
100
AcDbCircle
 10
0.5999953209121715
 20
49.41967040523542
 30
0.0
 40
0.6
100
AcDbArc
 50
91.90915243299405
 51
180.0
  0
ARC
  5
CF1
330
1F
100
AcDbEntity
  8
0
100
AcDbCircle
 10
0.5999953209131946
 20
48.5803368868204
 30
0.0
 40
0.6
100
AcDbArc
 50
180.0
 51
268.0908475670059
  0
LINE
  5
CF2
330
1F
100
AcDbEntity
  8
0
100
AcDbLine
 10
-0.0000046790868282
 20
49.41967040523542
 30
0.0
 11
-0.0000046790868282
 21
48.5803368868204
 31
0.0
  0
LINE
  5
CF3
330
1F
100
AcDbEntity
  8
0
100
AcDbLine
 10
0.5800064227731811
 20
47.98066994263239
 30
0.0
 11
2.419984219052139
 21
47.9193373494234
 31
0.0
  0
LINE
  5
CF4
330
1F
100
AcDbEntity
  8
0
100
AcDbLine
 10
2.419984219052139
 20
50.08066994263241
 30
0.0
 11
0.5800064227731811
 21
50.01933734942339
 31
0.0
  0
POINT
  5
CF5
330
1F
100
AcDbEntity
  8
0
100
AcDbPoint
 10
-0.0000046790868282
 20
41.00000364602736
 30
0.0
  0
ARC
  5
CF6
330
1F
100
AcDbEntity
  8
0
100
AcDbCircle
 10
2.399995320913145
 20
40.31967040523539
 30
0.0
 40
0.6
100
AcDbArc
 50
0.0
 51
88.09084756699943
  0
ARC
  5
CF7
330
1F
100
AcDbEntity
  8
0
100
AcDbCircle
 10
2.399995320913145
 20
43.68033688681943
 30
0.0
 40
0.6
100
AcDbArc
 50
271.909152432994
 51
0.0
  0
ARC
  5
CF8
330
1F
100
AcDbEntity
  8
0
100
AcDbCircle
 10
0.5999953209121715
 20
42.41967040523542
 30
0.0
 40
0.6
100
AcDbArc
 50
91.90915243299405
 51
180.0
  0
ARC
  5
CF9
330
1F
100
AcDbEntity
  8
0
100
AcDbCircle
 10
0.5999953209121715
 20
41.58033688682039
 30
0.0
 40
0.6
100
AcDbArc
 50
180.0
 51
268.0908475670059
  0
LINE
  5
CFA
330
1F
100
AcDbEntity
  8
0
100
AcDbLine
 10
-0.0000046790868282
 20
42.41967040523542
 30
0.0
 11
-0.0000046790868282
 21
41.58033688682039
 31
0.0
  0
LINE
  5
CFB
330
1F
100
AcDbEntity
  8
0
100
AcDbLine
 10
0.5800064227731811
 20
40.98066994263239
 30
0.0
 11
2.419984219052139
 21
40.91933734942339
 31
0.0
  0
LINE
  5
CFC
330
1F
100
AcDbEntity
  8
0
100
AcDbLine
 10
2.419984219052139
 20
43.08066994263241
 30
0.0
 11
0.5800064227731811
 21
43.01933734942338
 31
0.0
  0
LINE
  5
CFD
330
1F
100
AcDbEntity
  8
0
100
AcDbLine
 10
2.999995320913171
 20
40.31967040523539
 30
0.0
 11
2.999995320913171
 21
36.68033688681942
 31
0.0
  0
ARC
  5
CFE
330
1F
100
AcDbEntity
  8
0
100
AcDbCircle
 10
0.5999953209121715
 20
27.58033688682041
 30
0.0
 40
0.6
100
AcDbArc
 50
180.0
 51
268.0908475670059
  0
LINE
  5
CFF
330
1F
100
AcDbEntity
  8
0
100
AcDbLine
 10
9.699995320912192
 20
31.47381772445942
 30
0.0
 11
9.699995320912192
 21
22.4738177244594
 31
0.0
  0
LINE
  5
D00
330
1F
100
AcDbEntity
  8
0
100
AcDbLine
 10
7.999995320912147
 20
31.47381772445942
 30
0.0
 11
7.999995320912147
 21
22.4738177244594
 31
0.0
  0
LINE
  5
D01
330
1F
100
AcDbEntity
  8
0
100
AcDbLine
 10
4.99999532091317
 20
33.00000364602839
 30
0.0
 11
4.99999532091317
 21
21.00000364602737
 31
0.0
  0
LINE
  5
D02
330
1F
100
AcDbEntity
  8
0
100
AcDbLine
 10
4.49999532091317
 20
33.00000364602839
 30
0.0
 11
4.49999532091317
 21
21.00000364602839
 31
0.0
  0
LINE
  5
D03
330
1F
100
AcDbEntity
  8
0
100
AcDbLine
 10
3.699995320913102
 20
33.00000364602839
 30
0.0
 11
3.699995320913102
 21
21.10000364602739
 31
0.0
  0
LINE
  5
D04
330
1F
100
AcDbEntity
  8
0
100
AcDbLine
 10
9.499995320913171
 20
31.00000364602839
 30
0.0
 11
9.499995320913171
 21
23.00000364602837
 31
0.0
  0
LINE
  5
D05
330
1F
100
AcDbEntity
  8
0
100
AcDbLine
 10
8.699995320913101
 20
31.00000364602839
 30
0.0
 11
8.699995320913101
 21
23.00000364602837
 31
0.0
  0
LINE
  5
D06
330
1F
100
AcDbEntity
  8
0
100
AcDbLine
 10
8.099995320913192
 20
31.00000364602839
 30
0.0
 11
8.099995320913192
 21
23.00000364602837
 31
0.0
  0
ARC
  5
D07
330
1F
100
AcDbEntity
  8
0
100
AcDbCircle
 10
2.399995320913145
 20
29.68033688681941
 30
0.0
 40
0.6
100
AcDbArc
 50
271.909152432994
 51
0.0
  0
ARC
  5
D08
330
1F
100
AcDbEntity
  8
0
100
AcDbCircle
 10
0.5999953209131946
 20
28.41967040523535
 30
0.0
 40
0.6
100
AcDbArc
 50
91.90915243299405
 51
180.0
  0
LINE
  5
D09
330
1F
100
AcDbEntity
  8
0
100
AcDbLine
 10
-0.0000046790868282
 20
28.41967040523535
 30
0.0
 11
-0.0000046790868282
 21
27.58033688682041
 31
0.0
  0
LINE
  5
D0A
330
1F
100
AcDbEntity
  8
0
100
AcDbLine
 10
2.419984219052139
 20
29.08066994263242
 30
0.0
 11
0.5800064227731811
 21
29.01933734942338
 31
0.0
  0
LINE
  5
D0B
330
1F
100
AcDbEntity
  8
0
100
AcDbLine
 10
5.999995320913172
 20
32.97381772446037
 30
0.0
 11
4.99999532091317
 21
32.97381772446037
 31
0.0
  0
LINE
  5
D0C
330
1F
100
AcDbEntity
  8
0
100
AcDbLine
 10
9.699995320912192
 20
31.47381772445942
 30
0.0
 11
7.999995320912147
 21
31.47381772445942
 31
0.0
  0
LINE
  5
D0D
330
1F
100
AcDbEntity
  8
0
100
AcDbLine
 10
4.99999532091317
 20
33.00000364602839
 30
0.0
 11
3.699995320913102
 21
33.00000364602839
 31
0.0
  0
POINT
  5
D0E
330
1F
100
AcDbEntity
  8
0
100
AcDbPoint
 10
-0.0000046790868282
 20
34.00000364602838
 30
0.0
  0
ARC
  5
D0F
330
1F
100
AcDbEntity
  8
0
100
AcDbCircle
 10
2.399995320913145
 20
33.31967040523539
 30
0.0
 40
0.6
100
AcDbArc
 50
0.0
 51
88.09084756699943
  0
LINE
  5
D10
330
1F
100
AcDbEntity
  8
0
100
AcDbLine
 10
9.499995320913171
 20
31.00000364602839
 30
0.0
 11
7.999995320912147
 21
31.00000364602839
 31
0.0
  0
ARC
  5
D11
330
1F
100
AcDbEntity
  8
0
100
AcDbCircle
 10
0.5999953209121715
 20
35.41967040523542
 30
0.0
 40
0.6
100
AcDbArc
 50
91.90915243299405
 51
180.0
  0
ARC
  5
D12
330
1F
100
AcDbEntity
  8
0
100
AcDbCircle
 10
0.5999953209131946
 20
34.58033688682041
 30
0.0
 40
0.6
100
AcDbArc
 50
180.0
 51
268.0908475670059
  0
LINE
  5
D13
330
1F
100
AcDbEntity
  8
0
100
AcDbLine
 10
-0.0000046790868282
 20
35.41967040523542
 30
0.0
 11
-0.0000046790868282
 21
34.58033688682041
 31
0.0
  0
LINE
  5
D14
330
1F
100
AcDbEntity
  8
0
100
AcDbLine
 10
0.5800064227731811
 20
33.98066994263238
 30
0.0
 11
2.419984219052139
 21
33.91933734942341
 31
0.0
  0
LINE
  5
D15
330
1F
100
AcDbEntity
  8
0
100
AcDbLine
 10
2.419984219052139
 20
36.08066994263243
 30
0.0
 11
0.5800064227731811
 21
36.01933734942336
 31
0.0
  0
LINE
  5
D16
330
1F
100
AcDbEntity
  8
0
100
AcDbLine
 10
2.999995320913171
 20
33.31967040523539
 30
0.0
 11
2.999995320913171
 21
29.68033688681941
 31
0.0
  0
LINE
  5
D17
330
1F
100
AcDbEntity
  8
0
100
AcDbLine
 10
5.999995320913172
 20
20.97381772445942
 30
0.0
 11
4.99999532091317
 21
20.97381772445942
 31
0.0
  0
LINE
  5
D18
330
1F
100
AcDbEntity
  8
0
100
AcDbLine
 10
4.99999532091317
 20
21.00000364602839
 30
0.0
 11
3.699995320913102
 21
21.00000364602839
 31
0.0
  0
LINE
  5
D19
330
1F
100
AcDbEntity
  8
0
100
AcDbLine
 10
9.699995320912192
 20
22.4738177244594
 30
0.0
 11
7.999995320912147
 21
22.4738177244594
 31
0.0
  0
POINT
  5
D1A
330
1F
100
AcDbEntity
  8
0
100
AcDbPoint
 10
-0.0000046790868282
 20
22.00000364602737
 30
0.0
  0
POINT
  5
D1B
330
1F
100
AcDbEntity
  8
0
100
AcDbPoint
 10
-0.0000046790868282
 20
27.00000364602737
 30
0.0
  0
ARC
  5
D1C
330
1F
100
AcDbEntity
  8
0
100
AcDbCircle
 10
2.49999532091317
 20
22.5836146800214
 30
0.0
 40
0.5
100
AcDbArc
 50
271.909152432994
 51
0.0
  0
ARC
  5
D1D
330
1F
100
AcDbEntity
  8
0
100
AcDbCircle
 10
2.399995320913145
 20
26.3196704052354
 30
0.0
 40
0.6
100
AcDbArc
 50
0.0
 51
88.09084756699943
  0
LINE
  5
D1E
330
1F
100
AcDbEntity
  8
0
100
AcDbLine
 10
9.499995320913171
 20
23.00000364602837
 30
0.0
 11
7.999995320912147
 21
23.00000364602837
 31
0.0
  0
LINE
  5
D1F
330
1F
100
AcDbEntity
  8
0
100
AcDbLine
 10
2.516652736029186
 20
22.08389222653141
 30
0.0
 11
0.5800064227731811
 21
22.01933734942338
 31
0.0
  0
LINE
  5
D20
330
1F
100
AcDbEntity
  8
0
100
AcDbLine
 10
2.999995320913171
 20
26.3196704052354
 30
0.0
 11
2.999995320913171
 21
22.5836146800214
 31
0.0
  0
LINE
  5
D21
330
1F
100
AcDbEntity
  8
0
100
AcDbLine
 10
0.5800064227731811
 20
26.9806699426324
 30
0.0
 11
2.419984219052139
 21
26.9193373494234
 31
0.0
  0
ARC
  5
D22
330
1F
100
AcDbEntity
  8
0
100
AcDbCircle
 10
0.5999953209131946
 20
21.41967040523535
 30
0.0
 40
0.6
100
AcDbArc
 50
91.90915243299405
 51
180.0
  0
LINE
  5
D42
330
1F
100
AcDbEntity
  8
0
100
AcDbLine
 10
55.99999532091317
 20
40.97381772445942
 30
0.0
 11
55.99999532091317
 21
42.97381772445943
 31
0.0
  0
LINE
  5
D43
330
1F
100
AcDbEntity
  8
0
100
AcDbLine
 10
54.99999532091315
 20
40.97381772445942
 30
0.0
 11
54.99999532091315
 21
42.97381772445943
 31
0.0
  0
LINE
  5
D44
330
1F
100
AcDbEntity
  8
0
100
AcDbLine
 10
55.99999532091317
 20
26.97381772445941
 30
0.0
 11
55.99999532091317
 21
28.97381772445942
 31
0.0
  0
LINE
  5
D45
330
1F
100
AcDbEntity
  8
0
100
AcDbLine
 10
54.99999532091315
 20
26.97381772445941
 30
0.0
 11
54.99999532091315
 21
28.97381772445942
 31
0.0
  0
LINE
  5
D46
330
1F
100
AcDbEntity
  8
0
100
AcDbLine
 10
55.99999532091317
 20
33.97381772445941
 30
0.0
 11
55.99999532091317
 21
35.97381772445942
 31
0.0
  0
LINE
  5
D47
330
1F
100
AcDbEntity
  8
0
100
AcDbLine
 10
54.99999532091315
 20
33.97381772445941
 30
0.0
 11
54.99999532091315
 21
35.97381772445942
 31
0.0
  0
LINE
  5
D48
330
1F
100
AcDbEntity
  8
0
100
AcDbLine
 10
57.99999532091317
 20
3.585963881291376
 30
0.0
 11
4.99999532091317
 21
4.973817724459419
 31
0.0
  0
LINE
  5
D49
330
1F
100
AcDbEntity
  8
0
100
AcDbLine
 10
3.999995320913171
 20
5.0000036460284
 30
0.0
 11
57.99999532091317
 21
3.585963881291376
 31
0.0
  0
LINE
  5
D4A
330
1F
100
AcDbEntity
  8
0
100
AcDbLine
 10
-0.0000046790868282
 20
0.0000036460284037
 30
0.0
 11
57.99999532091317
 21
0.0000036460284037
 31
0.0
  0
LINE
  5
D4B
330
1F
100
AcDbEntity
  8
0
100
AcDbLine
 10
3.999995320913171
 20
5.0000036460284
 30
0.0
 11
-0.0000046790868282
 21
4.895259959751396
 31
0.0
  0
LINE
  5
D4C
330
1F
100
AcDbEntity
  8
0
100
AcDbLine
 10
31.09999532091313
 20
3.80000364602739
 30
0.0
 11
31.09999532091313
 21
0.0000036460284037
 31
0.0
  0
LINE
  5
D4D
330
1F
100
AcDbEntity
  8
0
100
AcDbLine
 10
26.89999532091218
 20
3.80000364602739
 30
0.0
 11
26.89999532091218
 21
0.0000036460284037
 31
0.0
  0
LINE
  5
D4E
330
1F
100
AcDbEntity
  8
0
100
AcDbLine
 10
23.49999532091314
 20
3.80000364602739
 30
0.0
 11
34.49999532091317
 21
3.80000364602739
 31
0.0
  0
LINE
  5
D4F
330
1F
100
AcDbEntity
  8
0
100
AcDbLine
 10
23.49999532091314
 20
4.48937817542844
 30
0.0
 11
23.49999532091314
 21
3.80000364602739
 31
0.0
  0
LINE
  5
D50
330
1F
100
AcDbEntity
  8
0
100
AcDbLine
 10
34.49999532091317
 20
4.201333038168399
 30
0.0
 11
34.49999532091317
 21
3.80000364602739
 31
0.0
  0
LINE
  5
D51
330
1F
100
AcDbEntity
  8
0
100
AcDbLine
 10
57.99999532091317
 20
0.0000036460284037
 30
0.0
 11
57.99999532091317
 21
3.585963881291376
 31
0.0
  0
LINE
  5
D52
330
1F
100
AcDbEntity
  8
0
100
AcDbLine
 10
41.1499953209132
 20
120.9738177244593
 30
0.0
 11
41.1499953209132
 21
124.3738177244592
 31
0.0
  0
LINE
  5
D53
330
1F
100
AcDbEntity
  8
0
100
AcDbLine
 10
41.1499953209132
 20
124.3738177244592
 30
0.0
 11
47.4499953209132
 21
124.3738177244592
 31
0.0
  0
LINE
  5
D54
330
1F
100
AcDbEntity
  8
0
100
AcDbLine
 10
47.4499953209132
 20
124.3738177244592
 30
0.0
 11
47.4499953209132
 21
120.9738177244593
 31
0.0
  0
LINE
  5
D55
330
1F
100
AcDbEntity
  8
0
100
AcDbLine
 10
15.59999532091215
 20
126.2738177244593
 30
0.0
 11
15.59999532091215
 21
127.5738177244592
 31
0.0
  0
LINE
  5
D56
330
1F
100
AcDbEntity
  8
0
100
AcDbLine
 10
15.59999532091215
 20
127.5738177244592
 30
0.0
 11
24.94499532091224
 21
127.5738177244592
 31
0.0
  0
LINE
  5
D57
330
1F
100
AcDbEntity
  8
0
100
AcDbLine
 10
24.94499532091224
 20
127.5738177244592
 30
0.0
 11
24.94499532091224
 21
120.9738177244593
 31
0.0
  0
LINE
  5
D58
330
1F
100
AcDbEntity
  8
0
100
AcDbLine
 10
15.19999532091218
 20
121.9738177244593
 30
0.0
 11
15.19999532091218
 21
126.2738177244593
 31
0.0
  0
LINE
  5
D59
330
1F
100
AcDbEntity
  8
0
100
AcDbLine
 10
15.19999532091218
 20
126.2738177244593
 30
0.0
 11
21.09999532091221
 21
126.2738177244593
 31
0.0
  0
LINE
  5
D5A
330
1F
100
AcDbEntity
  8
0
100
AcDbLine
 10
21.09999532091221
 20
126.2738177244593
 30
0.0
 11
21.09999532091221
 21
121.9738177244593
 31
0.0
  0
LINE
  5
D5B
330
1F
100
AcDbEntity
  8
0
100
AcDbLine
 10
14.09999532091319
 20
120.9738177244593
 30
0.0
 11
14.09999532091319
 21
121.9738177244593
 31
0.0
  0
LINE
  5
D5C
330
1F
100
AcDbEntity
  8
0
100
AcDbLine
 10
14.09999532091319
 20
121.9738177244593
 30
0.0
 11
22.69999532091223
 21
121.9738177244593
 31
0.0
  0
LINE
  5
D5D
330
1F
100
AcDbEntity
  8
0
100
AcDbLine
 10
22.69999532091223
 20
121.9738177244593
 30
0.0
 11
22.69999532091223
 21
120.9738177244593
 31
0.0
  0
LINE
  5
DC7
330
1F
100
AcDbEntity
  8
2_カバ_
  6
Continuous
100
AcDbLine
 10
54.99999532091317
 20
75.97381772445936
 30
0.0
 11
54.99999532091317
 21
77.97381772446034
 31
0.0
  0
LINE
  5
DC8
330
1F
100
AcDbEntity
  8
2_カバ_
  6
Continuous
100
AcDbLine
 10
55.99999532091317
 20
75.97381772445936
 30
0.0
 11
55.99999532091317
 21
77.97381772446034
 31
0.0
  0
LINE
  5
DC9
330
1F
100
AcDbEntity
  8
2_カバ_
  6
Continuous
100
AcDbLine
 10
54.49999532091317
 20
96.9738177244594
 30
0.0
 11
54.49999532091317
 21
70.97381772446034
 31
0.0
  0
LINE
  5
DCA
330
1F
100
AcDbEntity
  8
2_カバ_
  6
Continuous
100
AcDbLine
 10
32.99999532091317
 20
75.97381772445936
 30
0.0
 11
32.99999532091317
 21
77.97381772445939
 31
0.0
  0
LINE
  5
DCB
330
1F
100
AcDbEntity
  8
2_カバ_
  6
Continuous
100
AcDbLine
 10
33.49999532091317
 20
70.97381772445936
 30
0.0
 11
33.49999532091317
 21
96.9738177244594
 31
0.0
  0
LINE
  5
DCC
330
1F
100
AcDbEntity
  8
2_カバ_
  6
Continuous
100
AcDbLine
 10
32.99999532091317
 20
75.97381772445936
 30
0.0
 11
15.9999953209132
 21
75.97381772445936
 31
0.0
  0
LINE
  5
DCD
330
1F
100
AcDbEntity
  8
2_カバ_
  6
Continuous
100
AcDbLine
 10
56.99999532091317
 20
68.97381772445938
 30
0.0
 11
15.99999532091317
 21
68.97381772445938
 31
0.0
  0
LINE
  5
DCE
330
1F
100
AcDbEntity
  8
2_カバ_
  6
Continuous
100
AcDbLine
 10
56.99999532091317
 20
70.97381772445936
 30
0.0
 11
15.99999532091317
 21
70.97381772445936
 31
0.0
  0
LINE
  5
DCF
330
1F
100
AcDbEntity
  8
2_カバ_
  6
Continuous
100
AcDbLine
 10
32.99999532091317
 20
47.97381772445937
 30
0.0
 11
15.99999532091317
 21
47.97381772445937
 31
0.0
  0
LINE
  5
DD0
330
1F
100
AcDbEntity
  8
2_カバ_
  6
Continuous
100
AcDbLine
 10
32.99999532091317
 20
49.97381772445938
 30
0.0
 11
15.99999532091317
 21
49.97381772445938
 31
0.0
  0
LINE
  5
DD1
330
1F
100
AcDbEntity
  8
2_カバ_
  6
Continuous
100
AcDbLine
 10
56.99999532091317
 20
54.97381772445938
 30
0.0
 11
15.99999532091317
 21
54.97381772445938
 31
0.0
  0
LINE
  5
DD2
330
1F
100
AcDbEntity
  8
2_カバ_
  6
Continuous
100
AcDbLine
 10
56.99999532091317
 20
56.97381772445938
 30
0.0
 11
15.99999532091317
 21
56.97381772445938
 31
0.0
  0
LINE
  5
DD3
330
1F
100
AcDbEntity
  8
2_カバ_
  6
Continuous
100
AcDbLine
 10
56.99999532091317
 20
61.97381772445938
 30
0.0
 11
15.99999532091317
 21
61.97381772445938
 31
0.0
  0
LINE
  5
DD4
330
1F
100
AcDbEntity
  8
2_カバ_
  6
Continuous
100
AcDbLine
 10
56.99999532091317
 20
63.97381772445938
 30
0.0
 11
15.99999532091317
 21
63.97381772446035
 31
0.0
  0
LINE
  5
DD5
330
1F
100
AcDbEntity
  8
2_カバ_
  6
Continuous
100
AcDbLine
 10
38.99999532091317
 20
49.97381772445938
 30
0.0
 11
48.99999532091317
 21
49.97381772445938
 31
0.0
  0
LINE
  5
DD6
330
1F
100
AcDbEntity
  8
2_カバ_
  6
Continuous
100
AcDbLine
 10
48.99999532091317
 20
53.47381772445936
 30
0.0
 11
38.99999532091317
 21
53.47381772445936
 31
0.0
  0
LINE
  5
DD7
330
1F
100
AcDbEntity
  8
2_カバ_
  6
Continuous
100
AcDbLine
 10
54.49999532091317
 20
48.97381772445938
 30
0.0
 11
33.49999532091317
 21
48.97381772445938
 31
0.0
  0
LINE
  5
DD8
330
1F
100
AcDbEntity
  8
2_カバ_
  6
Continuous
100
AcDbLine
 10
33.49999532091317
 20
56.97381772445938
 30
0.0
 11
33.49999532091317
 21
61.97381772445938
 31
0.0
  0
LINE
  5
DD9
330
1F
100
AcDbEntity
  8
2_カバ_
  6
Continuous
100
AcDbLine
 10
33.49999532091317
 20
48.97381772445938
 30
0.0
 11
33.49999532091317
 21
54.97381772445938
 31
0.0
  0
LINE
  5
DDA
330
1F
100
AcDbEntity
  8
2_カバ_
  6
Continuous
100
AcDbLine
 10
32.99999532091317
 20
47.97381772445937
 30
0.0
 11
32.99999532091317
 21
49.97381772445938
 31
0.0
  0
LINE
  5
DDB
330
1F
100
AcDbEntity
  8
2_カバ_
  6
Continuous
100
AcDbLine
 10
38.49999532091317
 20
52.97381772446034
 30
0.0
 11
38.49999532091317
 21
50.47381772445937
 31
0.0
  0
ARC
  5
DDC
330
1F
100
AcDbEntity
  8
2_カバ_
  6
Continuous
100
AcDbCircle
 10
38.99999532091317
 20
50.47381772445937
 30
0.0
 40
0.5
100
AcDbArc
 50
180.0
 51
270.0
  0
ARC
  5
DDD
330
1F
100
AcDbEntity
  8
2_カバ_
  6
Continuous
100
AcDbCircle
 10
38.99999532091317
 20
52.97381772446034
 30
0.0
 40
0.5
100
AcDbArc
 50
90.0
 51
180.0
  0
LINE
  5
DDE
330
1F
100
AcDbEntity
  8
2_カバ_
  6
Continuous
100
AcDbLine
 10
33.49999532091317
 20
63.97381772445938
 30
0.0
 11
33.49999532091317
 21
68.97381772445938
 31
0.0
  0
LINE
  5
DDF
330
1F
100
AcDbEntity
  8
2_カバ_
  6
Continuous
100
AcDbLine
 10
54.49999532091317
 20
61.97381772445938
 30
0.0
 11
54.49999532091317
 21
56.97381772446036
 31
0.0
  0
LINE
  5
DE0
330
1F
100
AcDbEntity
  8
2_カバ_
  6
Continuous
100
AcDbLine
 10
49.49999532091317
 20
50.47381772445937
 30
0.0
 11
49.49999532091317
 21
52.97381772445937
 31
0.0
  0
ARC
  5
DE1
330
1F
100
AcDbEntity
  8
2_カバ_
  6
Continuous
100
AcDbCircle
 10
48.99999532091317
 20
50.47381772445937
 30
0.0
 40
0.5
100
AcDbArc
 50
270.0
 51
0.0
  0
ARC
  5
DE2
330
1F
100
AcDbEntity
  8
2_カバ_
  6
Continuous
100
AcDbCircle
 10
48.99999532091317
 20
52.97381772445937
 30
0.0
 40
0.5
100
AcDbArc
 50
0.0
 51
90.0
  0
LINE
  5
DE3
330
1F
100
AcDbEntity
  8
2_カバ_
  6
Continuous
100
AcDbLine
 10
54.49999532091317
 20
54.97381772445938
 30
0.0
 11
54.49999532091317
 21
48.97381772445938
 31
0.0
  0
LINE
  5
DE4
330
1F
100
AcDbEntity
  8
2_カバ_
  6
Continuous
100
AcDbLine
 10
56.99999532091317
 20
47.97381772445937
 30
0.0
 11
54.99999532091317
 21
47.97381772445937
 31
0.0
  0
LINE
  5
DE5
330
1F
100
AcDbEntity
  8
2_カバ_
  6
Continuous
100
AcDbLine
 10
56.99999532091317
 20
49.97381772445938
 30
0.0
 11
54.99999532091317
 21
49.97381772445938
 31
0.0
  0
LINE
  5
DE6
330
1F
100
AcDbEntity
  8
2_カバ_
  6
Continuous
100
AcDbLine
 10
54.99999532091317
 20
47.97381772445937
 30
0.0
 11
54.99999532091317
 21
49.97381772445938
 31
0.0
  0
LINE
  5
DE7
330
1F
100
AcDbEntity
  8
2_カバ_
  6
Continuous
100
AcDbLine
 10
55.99999532091317
 20
47.97381772445937
 30
0.0
 11
55.99999532091317
 21
49.97381772445938
 31
0.0
  0
LINE
  5
DE8
330
1F
100
AcDbEntity
  8
2_カバ_
  6
Continuous
100
AcDbLine
 10
54.99999532091317
 20
54.97381772445938
 30
0.0
 11
54.99999532091317
 21
56.97381772445938
 31
0.0
  0
LINE
  5
DE9
330
1F
100
AcDbEntity
  8
2_カバ_
  6
Continuous
100
AcDbLine
 10
55.99999532091317
 20
54.97381772445938
 30
0.0
 11
55.99999532091317
 21
56.97381772445938
 31
0.0
  0
LINE
  5
DEA
330
1F
100
AcDbEntity
  8
2_カバ_
  6
Continuous
100
AcDbLine
 10
54.49999532091317
 20
68.97381772445938
 30
0.0
 11
54.49999532091317
 21
63.97381772445938
 31
0.0
  0
LINE
  5
DEB
330
1F
100
AcDbEntity
  8
2_カバ_
  6
Continuous
100
AcDbLine
 10
54.99999532091317
 20
61.97381772445938
 30
0.0
 11
54.99999532091317
 21
63.97381772445938
 31
0.0
  0
LINE
  5
DEC
330
1F
100
AcDbEntity
  8
2_カバ_
  6
Continuous
100
AcDbLine
 10
55.99999532091317
 20
61.97381772445938
 30
0.0
 11
55.99999532091317
 21
63.97381772445938
 31
0.0
  0
LINE
  5
DED
330
1F
100
AcDbEntity
  8
2_カバ_
  6
Continuous
100
AcDbLine
 10
54.99999532091317
 20
68.97381772445938
 30
0.0
 11
54.99999532091317
 21
70.97381772445936
 31
0.0
  0
LINE
  5
DEE
330
1F
100
AcDbEntity
  8
2_カバ_
  6
Continuous
100
AcDbLine
 10
55.99999532091317
 20
68.97381772445938
 30
0.0
 11
55.99999532091317
 21
70.97381772445936
 31
0.0
  0
LINE
  5
DEF
330
1F
100
AcDbEntity
  8
2_カバ_
  6
Continuous
100
AcDbLine
 10
56.99999532091317
 20
75.97381772445936
 30
0.0
 11
54.99999532091317
 21
75.97381772445936
 31
0.0
  0
LINE
  5
DF0
330
1F
100
AcDbEntity
  8
2_カバ_
  6
Continuous
100
AcDbLine
 10
32.99999532091317
 20
77.97381772445939
 30
0.0
 11
15.9999953209132
 21
77.97381772445939
 31
0.0
  0
LINE
  5
DF1
330
1F
100
AcDbEntity
  8
2_カバ_
  6
DASHDOT
100
AcDbLine
 10
38.16146831285918
 20
81.97381772446034
 30
0.0
 11
27.60032233982821
 21
81.97381772446034
 31
0.0
  0
LINE
  5
DF2
330
1F
100
AcDbEntity
  8
2_カバ_
  6
Continuous
100
AcDbLine
 10
32.99999532091317
 20
82.97381772445939
 30
0.0
 11
15.9999953209132
 21
82.97381772445939
 31
0.0
  0
LINE
  5
DF3
330
1F
100
AcDbEntity
  8
2_カバ_
  6
Continuous
100
AcDbLine
 10
32.99999532091317
 20
84.97381772445939
 30
0.0
 11
15.9999953209132
 21
84.97381772445939
 31
0.0
  0
LINE
  5
DF4
330
1F
100
AcDbEntity
  8
2_カバ_
  6
Continuous
100
AcDbLine
 10
32.99999532091317
 20
89.97381772445939
 30
0.0
 11
15.9999953209132
 21
89.97381772445939
 31
0.0
  0
LINE
  5
DF5
330
1F
100
AcDbEntity
  8
2_カバ_
  6
Continuous
100
AcDbLine
 10
32.99999532091317
 20
91.97381772445936
 30
0.0
 11
15.9999953209132
 21
91.97381772445936
 31
0.0
  0
LINE
  5
DF6
330
1F
100
AcDbEntity
  8
2_カバ_
  6
Continuous
100
AcDbLine
 10
56.99999532091317
 20
96.9738177244594
 30
0.0
 11
15.9999953209132
 21
96.9738177244594
 31
0.0
  0
LINE
  5
DF7
330
1F
100
AcDbEntity
  8
2_カバ_
  6
Continuous
100
AcDbLine
 10
56.99999532091317
 20
98.97381772445937
 30
0.0
 11
15.9999953209132
 21
98.97381772445937
 31
0.0
  0
LINE
  5
DF8
330
1F
100
AcDbEntity
  8
2_カバ_
  6
Continuous
100
AcDbLine
 10
15.9999953209132
 20
103.9738177244593
 30
0.0
 11
57.99999532091317
 21
103.9738177244593
 31
0.0
  0
CIRCLE
  5
DF9
330
1F
100
AcDbEntity
  8
2_カバ_
  6
Continuous
100
AcDbCircle
 10
35.49999532091317
 20
81.97381772446034
 30
0.0
 40
1.25
  0
LINE
  5
DFA
330
1F
100
AcDbEntity
  8
2_カバ_
  6
DASHDOT
100
AcDbLine
 10
35.49999532091317
 20
85.10321830084839
 30
0.0
 11
35.49999532091317
 21
79.01837696712835
 31
0.0
  0
LINE
  5
DFB
330
1F
100
AcDbEntity
  8
2_カバ_
  6
Continuous
100
AcDbLine
 10
32.99999532091317
 20
82.97381772445939
 30
0.0
 11
32.99999532091317
 21
84.97381772445939
 31
0.0
  0
LINE
  5
DFC
330
1F
100
AcDbEntity
  8
2_カバ_
  6
Continuous
100
AcDbLine
 10
32.99999532091317
 20
89.97381772445939
 30
0.0
 11
32.99999532091317
 21
91.97381772445936
 31
0.0
  0
LINE
  5
DFD
330
1F
100
AcDbEntity
  8
2_カバ_
  6
Continuous
100
AcDbLine
 10
33.49999532091317
 20
98.97381772445937
 30
0.0
 11
33.49999532091317
 21
103.9738177244593
 31
0.0
  0
ARC
  5
DFE
330
1F
100
AcDbEntity
  8
2_カバ_
  6
Continuous
100
AcDbCircle
 10
52.99999532091317
 20
91.97381772445936
 30
0.0
 40
0.5
100
AcDbArc
 50
0.0
 51
90.0
  0
ARC
  5
DFF
330
1F
100
AcDbEntity
  8
2_カバ_
  6
Continuous
100
AcDbCircle
 10
52.99999532091317
 20
86.97381772445936
 30
0.0
 40
0.5
100
AcDbArc
 50
270.0
 51
0.0
  0
LINE
  5
E00
330
1F
100
AcDbEntity
  8
2_カバ_
  6
DASHDOT
100
AcDbLine
 10
48.92110543886218
 20
89.47381772445936
 30
0.0
 11
55.66961344491722
 21
89.47381772445936
 31
0.0
  0
LINE
  5
E01
330
1F
100
AcDbEntity
  8
2_カバ_
  6
Continuous
100
AcDbLine
 10
52.99999532091317
 20
92.47381772445937
 30
0.0
 11
50.49999532091317
 21
92.47381772446031
 31
0.0
  0
ARC
  5
E02
330
1F
100
AcDbEntity
  8
2_カバ_
  6
Continuous
100
AcDbCircle
 10
50.49999532091317
 20
91.97381772446034
 30
0.0
 40
0.5
100
AcDbArc
 50
89.99999999999673
 51
180.0
  0
ARC
  5
E03
330
1F
100
AcDbEntity
  8
2_カバ_
  6
Continuous
100
AcDbCircle
 10
50.49999532091317
 20
86.97381772445936
 30
0.0
 40
0.5
100
AcDbArc
 50
180.0
 51
270.0
  0
LINE
  5
E04
330
1F
100
AcDbEntity
  8
2_カバ_
  6
Continuous
100
AcDbLine
 10
52.99999532091317
 20
86.47381772445937
 30
0.0
 11
50.49999532091317
 21
86.47381772445937
 31
0.0
  0
LINE
  5
E05
330
1F
100
AcDbEntity
  8
2_カバ_
  6
Continuous
100
AcDbLine
 10
49.99999532091317
 20
91.97381772446034
 30
0.0
 11
49.99999532091317
 21
86.97381772445936
 31
0.0
  0
LINE
  5
E06
330
1F
100
AcDbEntity
  8
2_カバ_
  6
Continuous
100
AcDbLine
 10
54.99999532091317
 20
82.97381772445939
 30
0.0
 11
54.99999532091317
 21
84.97381772445939
 31
0.0
  0
LINE
  5
E07
330
1F
100
AcDbEntity
  8
2_カバ_
  6
Continuous
100
AcDbLine
 10
55.99999532091317
 20
82.97381772445939
 30
0.0
 11
55.99999532091317
 21
84.97381772445939
 31
0.0
  0
LINE
  5
E08
330
1F
100
AcDbEntity
  8
2_カバ_
  6
Continuous
100
AcDbLine
 10
56.99999532091317
 20
77.97381772445939
 30
0.0
 11
54.99999532091317
 21
77.97381772445939
 31
0.0
  0
LINE
  5
E09
330
1F
100
AcDbEntity
  8
2_カバ_
  6
Continuous
100
AcDbLine
 10
56.99999532091317
 20
82.97381772445939
 30
0.0
 11
54.99999532091317
 21
82.97381772445939
 31
0.0
  0
LINE
  5
E0A
330
1F
100
AcDbEntity
  8
2_カバ_
  6
Continuous
100
AcDbLine
 10
56.99999532091317
 20
91.97381772445936
 30
0.0
 11
54.99999532091317
 21
91.97381772445936
 31
0.0
  0
LINE
  5
E0B
330
1F
100
AcDbEntity
  8
2_カバ_
  6
Continuous
100
AcDbLine
 10
56.99999532091317
 20
89.97381772445939
 30
0.0
 11
54.99999532091317
 21
89.97381772445939
 31
0.0
  0
LINE
  5
E0C
330
1F
100
AcDbEntity
  8
2_カバ_
  6
Continuous
100
AcDbLine
 10
56.99999532091317
 20
84.97381772445939
 30
0.0
 11
54.99999532091317
 21
84.97381772445939
 31
0.0
  0
LINE
  5
E0D
330
1F
100
AcDbEntity
  8
2_カバ_
  6
Continuous
100
AcDbLine
 10
54.99999532091317
 20
89.97381772445939
 30
0.0
 11
54.99999532091317
 21
91.97381772445936
 31
0.0
  0
LINE
  5
E0E
330
1F
100
AcDbEntity
  8
2_カバ_
  6
Continuous
100
AcDbLine
 10
55.99999532091317
 20
89.97381772445939
 30
0.0
 11
55.99999532091317
 21
91.97381772445936
 31
0.0
  0
LINE
  5
E0F
330
1F
100
AcDbEntity
  8
2_カバ_
  6
Continuous
100
AcDbLine
 10
53.49999532091317
 20
86.97381772445936
 30
0.0
 11
53.49999532091317
 21
91.97381772445936
 31
0.0
  0
LINE
  5
E10
330
1F
100
AcDbEntity
  8
2_カバ_
  6
Continuous
100
AcDbLine
 10
54.49999532091317
 20
103.9738177244593
 30
0.0
 11
54.49999532091317
 21
98.97381772445937
 31
0.0
  0
LINE
  5
E11
330
1F
100
AcDbEntity
  8
2_カバ_
  6
Continuous
100
AcDbLine
 10
54.99999532091317
 20
96.9738177244594
 30
0.0
 11
54.99999532091317
 21
98.97381772445937
 31
0.0
  0
LINE
  5
E12
330
1F
100
AcDbEntity
  8
2_カバ_
  6
Continuous
100
AcDbLine
 10
55.99999532091317
 20
96.9738177244594
 30
0.0
 11
55.99999532091317
 21
98.97381772445937
 31
0.0
  0
ENDSEC
  0
SECTION
  2
OBJECTS
  0
DICTIONARY
  5
C
330
0
100
AcDbDictionary
281
     1
  3
ACAD_COLOR
350
E8C
  3
ACAD_GROUP
350
D
  3
ACAD_LAYOUT
350
1A
  3
ACAD_MATERIAL
350
E8B
  3
ACAD_MLINESTYLE
350
17
  3
ACAD_PLOTSETTINGS
350
19
  3
ACAD_PLOTSTYLENAME
350
E
  3
ACDBHEADERROUNDTRIPXREC
350
E92
  3
ACDBVARIABLEDICTIONARY
350
8DA
  0
DICTIONARY
  5
2B2
330
2
100
AcDbDictionary
280
     1
281
     1
  3
ACAD_LAYERSTATES
360
2B3
  0
DICTIONARY
  5
900
330
1F
100
AcDbDictionary
280
     1
281
     1
  3
ACAD_LAYOUTSELFREF
360
E87
  0
DICTIONARY
  5
8FE
330
1B
100
AcDbDictionary
280
     1
281
     1
  3
ACAD_LAYOUTSELFREF
360
E86
  0
DICTIONARY
  5
E8C
102
{ACAD_REACTORS
330
C
102
}
330
C
100
AcDbDictionary
281
     1
  0
DICTIONARY
  5
D
102
{ACAD_REACTORS
330
C
102
}
330
C
100
AcDbDictionary
281
     1
  0
DICTIONARY
  5
1A
102
{ACAD_REACTORS
330
C
102
}
330
C
100
AcDbDictionary
281
     1
  3
Model
350
E8D
  3
レイアウト1
350
E8E
  0
DICTIONARY
  5
E8B
102
{ACAD_REACTORS
330
C
102
}
330
C
100
AcDbDictionary
281
     1
  0
DICTIONARY
  5
17
102
{ACAD_REACTORS
330
C
102
}
330
C
100
AcDbDictionary
281
     1
  3
STANDARD
350
18
  0
DICTIONARY
  5
19
102
{ACAD_REACTORS
330
C
102
}
330
C
100
AcDbDictionary
281
     1
  0
ACDBDICTIONARYWDFLT
  5
E
102
{ACAD_REACTORS
330
C
102
}
330
C
100
AcDbDictionary
281
     1
  3
Normal
350
F
100
AcDbDictionaryWithDefault
340
F
  0
DICTIONARY
  5
E92
102
{ACAD_REACTORS
330
C
102
}
330
C
100
AcDbDictionary
281
     1
  3
COLORDICT
350
E94
  3
MATERIALDICT
350
E93
  0
DICTIONARY
  5
8DA
102
{ACAD_REACTORS
330
C
102
}
330
C
100
AcDbDictionary
281
     1
  3
DIMASSOC
350
8DC
  3
HIDETEXT
350
8DB
  3
PROJECTNAME
350
E90
  0
DICTIONARY
  5
2B3
102
{ACAD_REACTORS
330
2B2
102
}
330
2B2
100
AcDbDictionary
281
     1
  0
XRECORD
  5
E87
102
{ACAD_REACTORS
330
900
102
}
330
900
100
AcDbXrecord
280
     1
340
1F
  0
XRECORD
  5
E86
102
{ACAD_REACTORS
330
8FE
102
}
330
8FE
100
AcDbXrecord
280
     1
340
1B
  0
LAYOUT
  5
E8D
102
{ACAD_XDICTIONARY
360
E95
102
}
102
{ACAD_REACTORS
330
1A
102
}
330
1A
100
AcDbPlotSettings
  1

  2
8F大型複合機B_C7780
  4

  6

 40
0.0
 41
0.0
 42
0.0
 43
0.0
 44
0.0
 45
0.0
 46
0.0
 47
0.0
 48
0.0
 49
0.0
140
0.0
141
0.0
142
1.0
143
1.0
 70
  1712
 72
     0
 73
     0
 74
     0
  7

 75
     0
147
1.0
148
0.0
149
0.0
100
AcDbLayout
  1
Model
 70
     1
 71
     0
 10
0.0
 20
0.0
 11
12.0
 21
9.0
 12
0.0
 22
0.0
 32
0.0
 14
0.0
 24
0.0
 34
0.0
 15
0.0
 25
0.0
 35
0.0
146
0.0
 13
0.0
 23
0.0
 33
0.0
 16
1.0
 26
0.0
 36
0.0
 17
0.0
 27
1.0
 37
0.0
 76
     0
330
1F
  0
LAYOUT
  5
E8E
102
{ACAD_XDICTIONARY
360
E97
102
}
102
{ACAD_REACTORS
330
1A
102
}
330
1A
100
AcDbPlotSettings
  1

  2
8F大型複合機B_C7780
  4

  6

 40
0.0
 41
0.0
 42
0.0
 43
0.0
 44
0.0
 45
0.0
 46
0.0
 47
0.0
 48
0.0
 49
0.0
140
0.0
141
0.0
142
1.0
143
1.0
 70
   688
 72
     0
 73
     0
 74
     5
  7

 75
    16
147
1.0
148
0.0
149
0.0
100
AcDbLayout
  1
レイアウト1
 70
     1
 71
     1
 10
0.0
 20
0.0
 11
420.0
 21
297.0
 12
0.0
 22
0.0
 32
0.0
 14
1.000000000000000E+20
 24
1.000000000000000E+20
 34
1.000000000000000E+20
 15
-1.000000000000000E+20
 25
-1.000000000000000E+20
 35
-1.000000000000000E+20
146
0.0
 13
0.0
 23
0.0
 33
0.0
 16
1.0
 26
0.0
 36
0.0
 17
0.0
 27
1.0
 37
0.0
 76
     0
330
1B
  0
MLINESTYLE
  5
18
102
{ACAD_REACTORS
330
17
102
}
330
17
100
AcDbMlineStyle
  2
STANDARD
 70
     0
  3

 62
   256
 51
90.0
 52
90.0
 71
     2
 49
0.5
 62
   256
  6
BYLAYER
 49
-0.5
 62
   256
  6
BYLAYER
  0
ACDBPLACEHOLDER
  5
F
102
{ACAD_REACTORS
330
E
102
}
330
E
  0
XRECORD
  5
E94
102
{ACAD_REACTORS
330
E92
102
}
330
E92
100
AcDbXrecord
280
     1
340
E8C
  0
XRECORD
  5
E93
102
{ACAD_REACTORS
330
E92
102
}
330
E92
100
AcDbXrecord
280
     1
340
E8B
  0
DICTIONARYVAR
  5
8DC
102
{ACAD_REACTORS
330
8DA
102
}
330
8DA
100
DictionaryVariables
280
     0
  1
2
  0
DICTIONARYVAR
  5
8DB
102
{ACAD_REACTORS
330
8DA
102
}
330
8DA
100
DictionaryVariables
280
     0
  1
1
  0
DICTIONARYVAR
  5
E90
102
{ACAD_REACTORS
330
8DA
102
}
330
8DA
100
DictionaryVariables
280
     0
  1

  0
DICTIONARY
  5
E95
330
E8D
100
AcDbDictionary
280
     1
281
     1
  3
ACAD_XREC_ROUNDTRIP
360
E96
  0
DICTIONARY
  5
E97
330
E8E
100
AcDbDictionary
280
     1
281
     1
  3
ACAD_XREC_ROUNDTRIP
360
E98
  0
XRECORD
  5
E96
102
{ACAD_REACTORS
330
E95
102
}
330
E95
100
AcDbXrecord
280
     1
102
SHADEPLOT
 70
     0
102
SHADEPLOTRESLEVEL
 70
     2
102
SHADEPLOTCUSTOMDPI
 70
   300
  0
XRECORD
  5
E98
102
{ACAD_REACTORS
330
E97
102
}
330
E97
100
AcDbXrecord
280
     1
102
SHADEPLOT
 70
     0
102
SHADEPLOTRESLEVEL
 70
     2
102
SHADEPLOTCUSTOMDPI
 70
   300
  0
ENDSEC
  0
EOF
