  0
SECTION
  2
HEADER
  9
$ACADVER
  1
AC1014
  9
$ACADMAINTVER
 70
     9
  9
$DWGCODEPAGE
  3
ANSI_932
  9
$INSBASE
 10
0.0
 20
0.0
 30
0.0
  9
$EXTMIN
 10
-6.158105895806682
 20
0.0000038144637529
 30
0.0
  9
$EXTMAX
 10
278.9999953209118
 20
416.9720302240116
 30
6.483974233579615E+99
  9
$LIMMIN
 10
0.0
 20
0.0
  9
$LIMMAX
 10
420.0
 20
297.0
  9
$ORTHOMODE
 70
     0
  9
$REGENMODE
 70
     1
  9
$FILLMODE
 70
     1
  9
$QTEXTMODE
 70
     0
  9
$MIRRTEXT
 70
     1
  9
$DRAGMODE
 70
     2
  9
$LTSCALE
 40
1.0
  9
$OSMODE
 70
    55
  9
$ATTMODE
 70
     1
  9
$TEXTSIZE
 40
2.5
  9
$TRACEWID
 40
1.0
  9
$TEXTSTYLE
  7
STANDARD
  9
$CLAYER
  8
0
  9
$CELTYPE
  6
BYLAYER
  9
$CECOLOR
 62
   256
  9
$CELTSCALE
 40
1.0
  9
$DELOBJ
 70
     1
  9
$DISPSILH
 70
     0
  9
$DIMSCALE
 40
1.0
  9
$DIMASZ
 40
2.5
  9
$DIMEXO
 40
0.625
  9
$DIMDLI
 40
3.75
  9
$DIMRND
 40
0.0
  9
$DIMDLE
 40
0.0
  9
$DIMEXE
 40
1.25
  9
$DIMTP
 40
0.0
  9
$DIMTM
 40
0.0
  9
$DIMTXT
 40
2.5
  9
$DIMCEN
 40
2.5
  9
$DIMTSZ
 40
0.0
  9
$DIMTOL
 70
     0
  9
$DIMLIM
 70
     0
  9
$DIMTIH
 70
     0
  9
$DIMTOH
 70
     0
  9
$DIMSE1
 70
     0
  9
$DIMSE2
 70
     0
  9
$DIMTAD
 70
     1
  9
$DIMZIN
 70
     8
  9
$DIMBLK
  1

  9
$DIMASO
 70
     1
  9
$DIMSHO
 70
     1
  9
$DIMPOST
  1

  9
$DIMAPOST
  1

  9
$DIMALT
 70
     0
  9
$DIMALTD
 70
     3
  9
$DIMALTF
 40
0.03937007874016
  9
$DIMLFAC
 40
1.0
  9
$DIMTOFL
 70
     1
  9
$DIMTVP
 40
0.0
  9
$DIMTIX
 70
     0
  9
$DIMSOXD
 70
     0
  9
$DIMSAH
 70
     0
  9
$DIMBLK1
  1

  9
$DIMBLK2
  1

  9
$DIMSTYLE
  2
ISO-25
  9
$DIMCLRD
 70
     0
  9
$DIMCLRE
 70
     0
  9
$DIMCLRT
 70
     0
  9
$DIMTFAC
 40
1.0
  9
$DIMGAP
 40
0.625
  9
$DIMJUST
 70
     0
  9
$DIMSD1
 70
     0
  9
$DIMSD2
 70
     0
  9
$DIMTOLJ
 70
     0
  9
$DIMTZIN
 70
     8
  9
$DIMALTZ
 70
     0
  9
$DIMALTTZ
 70
     0
  9
$DIMFIT
 70
     3
  9
$DIMUPT
 70
     0
  9
$DIMUNIT
 70
     2
  9
$DIMDEC
 70
     2
  9
$DIMTDEC
 70
     2
  9
$DIMALTU
 70
     2
  9
$DIMALTTD
 70
     3
  9
$DIMTXSTY
  7
STANDARD
  9
$DIMAUNIT
 70
     0
  9
$LUNITS
 70
     2
  9
$LUPREC
 70
     4
  9
$SKETCHINC
 40
1.0
  9
$FILLETRAD
 40
10.0
  9
$AUNITS
 70
     0
  9
$AUPREC
 70
     0
  9
$MENU
  1
.
  9
$ELEVATION
 40
0.0
  9
$PELEVATION
 40
0.0
  9
$THICKNESS
 40
0.0
  9
$LIMCHECK
 70
     0
  9
$BLIPMODE
 70
     0
  9
$CHAMFERA
 40
10.0
  9
$CHAMFERB
 40
10.0
  9
$CHAMFERC
 40
20.0
  9
$CHAMFERD
 40
0.0
  9
$SKPOLY
 70
     0
  9
$TDCREATE
 40
2455874.709461955
  9
$TDUPDATE
 40
2456013.785764687
  9
$TDINDWG
 40
0.0057843287
  9
$TDUSRTIMER
 40
0.0057832407
  9
$USRTIMER
 70
     1
  9
$ANGBASE
 50
0.0
  9
$ANGDIR
 70
     0
  9
$PDMODE
 70
     0
  9
$PDSIZE
 40
0.0
  9
$PLINEWID
 40
0.0
  9
$COORDS
 70
     1
  9
$SPLFRAME
 70
     0
  9
$SPLINETYPE
 70
     6
  9
$SPLINESEGS
 70
     8
  9
$ATTDIA
 70
     0
  9
$ATTREQ
 70
     1
  9
$HANDLING
 70
 22529
  9
$HANDSEED
  5
B41
  9
$SURFTAB1
 70
     6
  9
$SURFTAB2
 70
     6
  9
$SURFTYPE
 70
     6
  9
$SURFU
 70
     6
  9
$SURFV
 70
     6
  9
$UCSNAME
  2

  9
$UCSORG
 10
0.0
 20
0.0
 30
0.0
  9
$UCSXDIR
 10
1.0
 20
0.0
 30
0.0
  9
$UCSYDIR
 10
0.0
 20
1.0
 30
0.0
  9
$PUCSNAME
  2

  9
$PUCSORG
 10
0.0
 20
0.0
 30
0.0
  9
$PUCSXDIR
 10
1.0
 20
0.0
 30
0.0
  9
$PUCSYDIR
 10
0.0
 20
1.0
 30
0.0
  9
$USERI1
 70
     0
  9
$USERI2
 70
     0
  9
$USERI3
 70
     0
  9
$USERI4
 70
     0
  9
$USERI5
 70
     0
  9
$USERR1
 40
0.0
  9
$USERR2
 40
0.0
  9
$USERR3
 40
0.0
  9
$USERR4
 40
0.0
  9
$USERR5
 40
0.0
  9
$WORLDVIEW
 70
     1
  9
$SHADEDGE
 70
     3
  9
$SHADEDIF
 70
    70
  9
$TILEMODE
 70
     1
  9
$MAXACTVP
 70
    64
  9
$PINSBASE
 10
0.0
 20
0.0
 30
0.0
  9
$PLIMCHECK
 70
     0
  9
$PEXTMIN
 10
1.000000000000000E+20
 20
1.000000000000000E+20
 30
1.000000000000000E+20
  9
$PEXTMAX
 10
-1.000000000000000E+20
 20
-1.000000000000000E+20
 30
-1.000000000000000E+20
  9
$PLIMMIN
 10
0.0
 20
0.0
  9
$PLIMMAX
 10
420.0
 20
297.0
  9
$UNITMODE
 70
     0
  9
$VISRETAIN
 70
     1
  9
$PLINEGEN
 70
     0
  9
$PSLTSCALE
 70
     1
  9
$TREEDEPTH
 70
  3020
  9
$PICKSTYLE
 70
     1
  9
$CMLSTYLE
  2
STANDARD
  9
$CMLJUST
 70
     0
  9
$CMLSCALE
 40
20.0
  9
$PROXYGRAPHICS
 70
     1
  9
$MEASUREMENT
 70
     1
  0
ENDSEC
  0
SECTION
  2
CLASSES
  0
CLASS
  1
ACDBDICTIONARYWDFLT
  2
AcDbDictionaryWithDefault
  3
AutoCAD 2000
 90
        0
280
     0
281
     0
  0
CLASS
  1
ACDBPLACEHOLDER
  2
AcDbPlaceHolder
  3
AutoCAD 2000
 90
        0
280
     0
281
     0
  0
CLASS
  1
LAYOUT
  2
AcDbLayout
  3
AutoCAD 2000
 90
        0
280
     0
281
     0
  0
CLASS
  1
DICTIONARYVAR
  2
AcDbDictionaryVar
  3
AutoCAD 2000
 90
        0
280
     0
281
     0
  0
CLASS
  1
LONG_TRANSACTION
  2
AcDbLongTransaction
  3
AutoCAD 2000
 90
        0
280
     0
281
     0
  0
CLASS
  1
LWPOLYLINE
  2
AcDbPolyline
  3
AutoCAD 2000
 90
        0
280
     0
281
     1
  0
CLASS
  1
HATCH
  2
AcDbHatch
  3
AutoCAD 2000
 90
        0
280
     0
281
     1
  0
CLASS
  1
XRECORD
  2
AcDbXrecord
  3
AutoCAD 2000
 90
        0
280
     0
281
     0
  0
CLASS
  1
LONG_TRANSACTION
  2
AcDbLongTransaction
  3
AutoCAD 2000
 90
        0
280
     0
281
     0
  0
CLASS
  1
LWPOLYLINE
  2
AcDbPolyline
  3
AutoCAD 2000
 90
        0
280
     0
281
     1
  0
CLASS
  1
HATCH
  2
AcDbHatch
  3
AutoCAD 2000
 90
        0
280
     0
281
     1
  0
CLASS
  1
XRECORD
  2
AcDbXrecord
  3
AutoCAD 2000
 90
        0
280
     0
281
     0
  0
CLASS
  1
LONG_TRANSACTION
  2
AcDbLongTransaction
  3
AutoCAD 2000
 90
        0
280
     0
281
     0
  0
CLASS
  1
LWPOLYLINE
  2
AcDbPolyline
  3
AutoCAD 2000
 90
        0
280
     0
281
     1
  0
CLASS
  1
HATCH
  2
AcDbHatch
  3
AutoCAD 2000
 90
        0
280
     0
281
     1
  0
CLASS
  1
XRECORD
  2
AcDbXrecord
  3
AutoCAD 2000
 90
        0
280
     0
281
     0
  0
CLASS
  1
LONG_TRANSACTION
  2
AcDbLongTransaction
  3
AutoCAD 2000
 90
        0
280
     0
281
     0
  0
CLASS
  1
LWPOLYLINE
  2
AcDbPolyline
  3
AutoCAD 2000
 90
        0
280
     0
281
     1
  0
CLASS
  1
HATCH
  2
AcDbHatch
  3
AutoCAD 2000
 90
        0
280
     0
281
     1
  0
CLASS
  1
XRECORD
  2
AcDbXrecord
  3
AutoCAD 2000
 90
        0
280
     0
281
     0
  0
CLASS
  1
LONG_TRANSACTION
  2
AcDbLongTransaction
  3
AutoCAD 2000
 90
        0
280
     0
281
     0
  0
CLASS
  1
LWPOLYLINE
  2
AcDbPolyline
  3
AutoCAD 2000
 90
        0
280
     0
281
     1
  0
CLASS
  1
HATCH
  2
AcDbHatch
  3
AutoCAD 2000
 90
        0
280
     0
281
     1
  0
CLASS
  1
XRECORD
  2
AcDbXrecord
  3
AutoCAD 2000
 90
        0
280
     0
281
     0
  0
ENDSEC
  0
SECTION
  2
TABLES
  0
TABLE
  2
VPORT
  5
8
330
0
100
AcDbSymbolTable
 70
     2
  0
VPORT
  5
B1E
330
8
100
AcDbSymbolTableRecord
100
AcDbViewportTableRecord
  2
*ACTIVE
 70
     0
 10
0.0
 20
0.0
 11
1.0
 21
1.0
 12
136.4209447125527
 22
208.4860170192376
 13
0.0
 23
0.0
 14
10.0
 24
10.0
 15
10.0
 25
10.0
 16
0.0
 26
0.0
 36
1.0
 17
0.0
 27
0.0
 37
0.0
 40
420.0082304853455
 41
1.46415552855407
 42
50.0
 43
0.0
 44
0.0
 50
0.0
 51
0.0
 71
     0
 72
   100
 73
     1
 74
     3
 75
     0
 76
     0
 77
     0
 78
     0
  0
ENDTAB
  0
TABLE
  2
LTYPE
  5
5
330
0
100
AcDbSymbolTable
 70
     3
  0
LTYPE
  5
14
330
5
100
AcDbSymbolTableRecord
100
AcDbLinetypeTableRecord
  2
BYBLOCK
 70
     0
  3

 72
    65
 73
     0
 40
0.0
  0
LTYPE
  5
15
330
5
100
AcDbSymbolTableRecord
100
AcDbLinetypeTableRecord
  2
BYLAYER
 70
     0
  3

 72
    65
 73
     0
 40
0.0
  0
LTYPE
  5
16
330
5
100
AcDbSymbolTableRecord
100
AcDbLinetypeTableRecord
  2
CONTINUOUS
 70
     0
  3
Solid line
 72
    65
 73
     0
 40
0.0
  0
LTYPE
  5
3BF
330
5
100
AcDbSymbolTableRecord
100
AcDbLinetypeTableRecord
  2
CENTER
 70
     0
  3
__ . __ . __ . __ . __ . __ . __ . __ . __ . __
 72
    65
 73
     4
 40
1.0
 49
0.5
 74
     0
 49
-0.25
 74
     0
 49
0.0
 74
     0
 49
-0.25
 74
     0
  0
LTYPE
  5
935
330
5
100
AcDbSymbolTableRecord
100
AcDbLinetypeTableRecord
  2
DASHDOT
 70
     0
  3
__ . __ . __ . __ . __ . __ . __ . __ . __ . __
 72
    65
 73
     4
 40
7.5
 49
6.0
 74
     0
 49
-0.5
 74
     0
 49
0.5
 74
     0
 49
-0.5
 74
     0
  0
ENDTAB
  0
TABLE
  2
LAYER
  5
2
102
{ACAD_XDICTIONARY
360
3C5
102
}
330
0
100
AcDbSymbolTable
 70
     4
  0
LAYER
  5
10
330
2
100
AcDbSymbolTableRecord
100
AcDbLayerTableRecord
  2
0
 70
     0
 62
     7
  6
CONTINUOUS
  0
LAYER
  5
3C1
330
2
100
AcDbSymbolTableRecord
100
AcDbLayerTableRecord
  2
DEFPOINTS
 70
     0
 62
    -7
  6
CONTINUOUS
  0
LAYER
  5
3C2
330
2
100
AcDbSymbolTableRecord
100
AcDbLayerTableRecord
  2
1
 70
     0
 62
     3
  6
CONTINUOUS
  0
LAYER
  5
936
330
2
100
AcDbSymbolTableRecord
100
AcDbLayerTableRecord
  2
2_カバ_
 70
     0
 62
     7
  6
CONTINUOUS
  0
ENDTAB
  0
TABLE
  2
STYLE
  5
3
330
0
100
AcDbSymbolTable
 70
     1
  0
STYLE
  5
11
330
3
100
AcDbSymbolTableRecord
100
AcDbTextStyleTableRecord
  2
STANDARD
 70
     0
 40
0.0
 41
1.0
 50
0.0
 71
     0
 42
2.5
  3
txt
  4

  0
ENDTAB
  0
TABLE
  2
VIEW
  5
6
330
0
100
AcDbSymbolTable
 70
     0
  0
ENDTAB
  0
TABLE
  2
UCS
  5
7
330
0
100
AcDbSymbolTable
 70
     0
  0
ENDTAB
  0
TABLE
  2
APPID
  5
9
330
0
100
AcDbSymbolTable
 70
     1
  0
APPID
  5
12
330
9
100
AcDbSymbolTableRecord
100
AcDbRegAppTableRecord
  2
ACAD
 70
     0
  0
ENDTAB
  0
TABLE
  2
DIMSTYLE
  5
A
330
0
100
AcDbSymbolTable
 70
     2
  0
DIMSTYLE
105
27
330
A
100
AcDbSymbolTableRecord
100
AcDbDimStyleTableRecord
  2
ISO-25
 70
     0
  3

  4

  5

  6

  7

 40
1.0
 41
2.5
 42
0.625
 43
3.75
 44
1.25
 45
0.0
 46
0.0
 47
0.0
 48
0.0
140
2.5
141
2.5
142
0.0
143
0.03937007874016
144
1.0
145
0.0
146
1.0
147
0.625
 71
     0
 72
     0
 73
     0
 74
     0
 75
     0
 76
     0
 77
     1
 78
     8
170
     0
171
     3
172
     1
173
     0
174
     0
175
     0
176
     0
177
     0
178
     0
270
     2
271
     2
272
     2
273
     2
274
     3
340
11
275
     0
280
     0
281
     0
282
     0
283
     0
284
     8
285
     0
286
     0
287
     3
288
     0
  0
DIMSTYLE
105
3C4
330
A
100
AcDbSymbolTableRecord
100
AcDbDimStyleTableRecord
  2
STANDARD
 70
     0
  3

  4

  5

  6

  7

 40
1.0
 41
2.5
 42
0.625
 43
3.75
 44
1.25
 45
0.0
 46
0.0
 47
0.0
 48
0.0
140
2.5
141
2.5
142
0.0
143
0.0394
144
1.0
145
0.0
146
1.0
147
0.625
 71
     0
 72
     0
 73
     0
 74
     0
 75
     0
 76
     0
 77
     1
 78
     8
170
     0
171
     4
172
     1
173
     0
174
     0
175
     0
176
     0
177
     0
178
     0
270
     2
271
     4
272
     4
273
     8
274
     4
340
11
275
     0
280
     0
281
     0
282
     0
283
     1
284
     0
285
     0
286
     0
287
     3
288
     0
  0
ENDTAB
  0
TABLE
  2
BLOCK_RECORD
  5
1
330
0
100
AcDbSymbolTable
 70
     2
  0
BLOCK_RECORD
  5
1F
102
{ACAD_XDICTIONARY
360
7F9
102
}
330
1
100
AcDbSymbolTableRecord
100
AcDbBlockTableRecord
  2
*MODEL_SPACE
  0
BLOCK_RECORD
  5
1B
102
{ACAD_XDICTIONARY
360
7F7
102
}
330
1
100
AcDbSymbolTableRecord
100
AcDbBlockTableRecord
  2
*PAPER_SPACE
  0
BLOCK_RECORD
  5
236
330
1
100
AcDbSymbolTableRecord
100
AcDbBlockTableRecord
  2
A$C5CFD6E8C
  0
BLOCK_RECORD
  5
23D
330
1
100
AcDbSymbolTableRecord
100
AcDbBlockTableRecord
  2
A$C3E87127B
  0
ENDTAB
  0
ENDSEC
  0
SECTION
  2
BLOCKS
  0
BLOCK
  5
20
330
1F
100
AcDbEntity
  8
0
100
AcDbBlockBegin
  2
*MODEL_SPACE
 70
     0
 10
0.0
 20
0.0
 30
0.0
  3
*MODEL_SPACE
  1

  0
ENDBLK
  5
21
330
1F
100
AcDbEntity
  8
0
100
AcDbBlockEnd
  0
BLOCK
  5
1C
330
1B
100
AcDbEntity
 67
     1
  8
0
100
AcDbBlockBegin
  2
*PAPER_SPACE
 70
     0
 10
0.0
 20
0.0
 30
0.0
  3
*PAPER_SPACE
  1

  0
ENDBLK
  5
1D
330
1B
100
AcDbEntity
 67
     1
  8
0
100
AcDbBlockEnd
  0
BLOCK
  5
23B
330
236
100
AcDbEntity
  8
0
 48
5.0
100
AcDbBlockBegin
  2
A$C5CFD6E8C
 70
     0
 10
0.0
 20
0.0
 30
0.0
  3
A$C5CFD6E8C
  1

  0
LINE
  5
237
330
236
100
AcDbEntity
  8
0
 62
     0
100
AcDbLine
 10
1.599997211020308
 20
2.70000247964549
 30
0.0
 11
1.599997211020308
 21
0.0000024796447633
 31
0.0
  0
LINE
  5
238
330
236
100
AcDbEntity
  8
0
 62
     0
100
AcDbLine
 10
-0.0000027889800549
 20
0.0000024796447633
 30
0.0
 11
-0.0000027889800549
 21
2.70000247964549
 31
0.0
  0
LINE
  5
239
330
236
100
AcDbEntity
  8
0
  6
CENTER
 62
     0
100
AcDbLine
 10
1.599997211020308
 20
2.70000247964549
 30
0.0
 11
-0.0000027889800549
 21
2.70000247964549
 31
0.0
  0
LINE
  5
23A
330
236
100
AcDbEntity
  8
0
  6
CENTER
 62
     0
100
AcDbLine
 10
1.599997211020308
 20
0.0000024796447633
 30
0.0
 11
-0.0000027889800549
 21
0.0000024796447633
 31
0.0
  0
ENDBLK
  5
23C
330
236
100
AcDbEntity
  8
0
 48
5.0
100
AcDbBlockEnd
  0
BLOCK
  5
34E
330
23D
100
AcDbEntity
  8
0
100
AcDbBlockBegin
  2
A$C3E87127B
 70
     0
 10
0.0
 20
0.0
 30
0.0
  3
A$C3E87127B
  1

  0
LINE
  5
23E
330
23D
100
AcDbEntity
  8
0
  6
BYBLOCK
 62
     0
100
AcDbLine
 10
2.100148625096608
 20
-51.67486469529968
 30
0.0
 11
17.0000743125488
 21
-51.67486469529785
 31
0.0
  0
LINE
  5
23F
330
23D
100
AcDbEntity
  8
0
  6
BYBLOCK
 62
     0
100
AcDbLine
 10
17.00007431255062
 20
-84.47486829529728
 30
0.0
 11
17.0000743125488
 21
-51.67486469529785
 31
0.0
  0
LINE
  5
240
330
23D
100
AcDbEntity
  8
0
  6
BYBLOCK
 62
     0
100
AcDbLine
 10
2.100148625096608
 20
-84.47486829529728
 30
0.0
 11
17.00007431255062
 21
-84.47486829529728
 31
0.0
  0
INSERT
  5
241
330
23D
100
AcDbEntity
  8
0
  6
BYBLOCK
 62
    40
 48
5.0
100
AcDbBlockReference
  2
A$C5CFD6E8C
 10
18.5000027889796
 20
-44.22500174595461
 30
0.0
  0
INSERT
  5
242
330
23D
100
AcDbEntity
  8
0
  6
BYBLOCK
 62
    40
 48
5.0
100
AcDbBlockReference
  2
A$C5CFD6E8C
 10
18.5000027889796
 20
-49.7250017459546
 30
0.0
  0
LINE
  5
243
330
23D
100
AcDbEntity
  8
0
 62
     0
 48
5.0
100
AcDbLine
 10
2.100148625096608
 20
-51.67486469529968
 30
0.0
 11
2.100148625096608
 21
-84.47486829529728
 31
0.0
  0
LINE
  5
244
330
23D
100
AcDbEntity
  8
0
 62
     0
100
AcDbLine
 10
7.426838695454534
 20
-78.83999999999947
 30
0.0
 11
9.036607142857519
 21
-78.83999999999947
 31
0.0
  0
LINE
  5
245
330
23D
100
AcDbEntity
  8
0
 62
     0
100
AcDbLine
 10
9.036607142857519
 20
-72.54999999999904
 30
0.0
 11
7.426838695454534
 21
-72.54999999999904
 31
0.0
  0
LINE
  5
246
330
23D
100
AcDbEntity
  8
0
 62
     0
100
AcDbLine
 10
7.426838695454534
 20
-63.59999999999923
 30
0.0
 11
9.036607142857519
 21
-63.59999999999923
 31
0.0
  0
LINE
  5
247
330
23D
100
AcDbEntity
  8
0
 62
     0
100
AcDbLine
 10
7.426838695454534
 20
-63.59999999999923
 30
0.0
 11
7.900000000000542
 21
-63.96999999999911
 31
0.0
  0
LINE
  5
248
330
23D
100
AcDbEntity
  8
0
 62
     0
100
AcDbLine
 10
9.036607142857519
 20
-62.38999999999919
 30
0.0
 11
7.426838695454534
 21
-62.38999999999919
 31
0.0
  0
LINE
  5
249
330
23D
100
AcDbEntity
  8
0
 62
     0
100
AcDbLine
 10
7.426838695454534
 20
-58.51999999999929
 30
0.0
 11
7.900000000000542
 21
-58.88999999999919
 31
0.0
  0
LINE
  5
24A
330
23D
100
AcDbEntity
  8
0
 62
     0
100
AcDbLine
 10
8.33000000000038
 20
-54.37499999999932
 30
0.0
 11
7.900000000000542
 21
-54.37499999999932
 31
0.0
  0
LINE
  5
24B
330
23D
100
AcDbEntity
  8
0
 62
     0
100
AcDbLine
 10
7.900000000000542
 20
-56.93999999999937
 30
0.0
 11
7.900000000000542
 21
-54.37499999999932
 31
0.0
  0
LINE
  5
24C
330
23D
100
AcDbEntity
  8
0
 62
     0
100
AcDbLine
 10
16.00000000000043
 20
-66.57499999999959
 30
0.0
 11
16.00000000000043
 21
-67.37499999999932
 31
0.0
  0
LINE
  5
24D
330
23D
100
AcDbEntity
  8
0
 62
     0
100
AcDbLine
 10
16.00000000000043
 20
-67.37499999999932
 30
0.0
 11
16.00000000000043
 21
-68.77499999999939
 31
0.0
  0
LINE
  5
24E
330
23D
100
AcDbEntity
  8
0
 62
     0
100
AcDbLine
 10
16.00000000000043
 20
-76.73499999999943
 30
0.0
 11
16.00000000000043
 21
-77.53499999999963
 31
0.0
  0
LINE
  5
24F
330
23D
100
AcDbEntity
  8
0
 62
     0
100
AcDbLine
 10
16.00000000000043
 20
-77.53499999999963
 30
0.0
 11
16.00000000000043
 21
-78.93499999999926
 31
0.0
  0
LINE
  5
250
330
23D
100
AcDbEntity
  8
0
 62
     0
100
AcDbLine
 10
16.00000000000043
 20
-79.73499999999943
 30
0.0
 11
16.00000000000043
 21
-81.77499999999941
 31
0.0
  0
LINE
  5
251
330
23D
100
AcDbEntity
  8
0
 62
     0
100
AcDbLine
 10
16.00000000000043
 20
-78.93499999999926
 30
0.0
 11
16.00000000000043
 21
-79.73499999999943
 31
0.0
  0
LINE
  5
252
330
23D
100
AcDbEntity
  8
0
 62
     0
100
AcDbLine
 10
16.00000000000043
 20
-72.4549999999997
 30
0.0
 11
16.00000000000043
 21
-73.85499999999933
 31
0.0
  0
LINE
  5
253
330
23D
100
AcDbEntity
  8
0
 62
     0
100
AcDbLine
 10
16.00000000000043
 20
-71.65499999999951
 30
0.0
 11
16.00000000000043
 21
-72.4549999999997
 31
0.0
  0
LINE
  5
254
330
23D
100
AcDbEntity
  8
0
 62
     0
100
AcDbLine
 10
16.00000000000043
 20
-69.57499999999959
 30
0.0
 11
16.00000000000043
 21
-71.65499999999951
 31
0.0
  0
LINE
  5
255
330
23D
100
AcDbEntity
  8
0
 62
     0
100
AcDbLine
 10
16.00000000000043
 20
-68.77499999999939
 30
0.0
 11
16.00000000000043
 21
-69.57499999999959
 31
0.0
  0
LINE
  5
256
330
23D
100
AcDbEntity
  8
0
 62
     0
100
AcDbLine
 10
16.00000000000043
 20
-74.65499999999952
 30
0.0
 11
16.00000000000043
 21
-76.73499999999943
 31
0.0
  0
LINE
  5
257
330
23D
100
AcDbEntity
  8
0
 62
     0
100
AcDbLine
 10
16.00000000000043
 20
-73.85499999999933
 30
0.0
 11
16.00000000000043
 21
-74.65499999999952
 31
0.0
  0
LINE
  5
258
330
23D
100
AcDbEntity
  8
0
 62
     0
100
AcDbLine
 10
16.00000000000043
 20
-56.41499999999928
 30
0.0
 11
16.00000000000043
 21
-57.21499999999945
 31
0.0
  0
LINE
  5
259
330
23D
100
AcDbEntity
  8
0
 62
     0
100
AcDbLine
 10
16.00000000000043
 20
-54.37499999999932
 30
0.0
 11
16.00000000000043
 21
-56.41499999999928
 31
0.0
  0
LINE
  5
25A
330
23D
100
AcDbEntity
  8
0
 62
     0
100
AcDbLine
 10
16.00000000000043
 20
-61.49499999999965
 30
0.0
 11
16.00000000000043
 21
-62.29499999999939
 31
0.0
  0
LINE
  5
25B
330
23D
100
AcDbEntity
  8
0
 62
     0
100
AcDbLine
 10
16.00000000000043
 20
-57.21499999999945
 30
0.0
 11
16.00000000000043
 21
-58.61499999999954
 31
0.0
  0
LINE
  5
25C
330
23D
100
AcDbEntity
  8
0
 62
     0
100
AcDbLine
 10
16.00000000000043
 20
-59.41499999999928
 30
0.0
 11
16.00000000000043
 21
-61.49499999999965
 31
0.0
  0
LINE
  5
25D
330
23D
100
AcDbEntity
  8
0
 62
     0
100
AcDbLine
 10
16.00000000000043
 20
-58.61499999999954
 30
0.0
 11
16.00000000000043
 21
-59.41499999999928
 31
0.0
  0
LINE
  5
25E
330
23D
100
AcDbEntity
  8
0
 62
     0
100
AcDbLine
 10
16.00000000000043
 20
-62.29499999999939
 30
0.0
 11
16.00000000000043
 21
-63.69499999999947
 31
0.0
  0
LINE
  5
25F
330
23D
100
AcDbEntity
  8
0
 62
     0
100
AcDbLine
 10
16.00000000000043
 20
-64.49499999999966
 30
0.0
 11
16.00000000000043
 21
-66.57499999999959
 31
0.0
  0
LINE
  5
260
330
23D
100
AcDbEntity
  8
0
 62
     0
100
AcDbLine
 10
16.00000000000043
 20
-63.69499999999947
 30
0.0
 11
16.00000000000043
 21
-64.49499999999966
 31
0.0
  0
LINE
  5
261
330
23D
100
AcDbEntity
  8
0
 62
     0
100
AcDbLine
 10
14.33000000000038
 20
-60.95539219456235
 30
0.0
 11
14.33000000000038
 21
-59.95460780543613
 31
0.0
  0
LINE
  5
262
330
23D
100
AcDbEntity
  8
0
 62
     0
100
AcDbLine
 10
14.63000000000056
 20
-60.84093407714568
 30
0.0
 11
14.63000000000056
 21
-60.06906592285282
 31
0.0
  0
LINE
  5
263
330
23D
100
AcDbEntity
  8
0
 62
     0
100
AcDbLine
 10
8.725000000000362
 20
-79.20999999999934
 30
0.0
 11
7.900000000000542
 21
-79.20999999999934
 31
0.0
  0
LINE
  5
264
330
23D
100
AcDbEntity
  8
0
 62
     0
100
AcDbLine
 10
7.900000000000542
 20
-72.17999999999915
 30
0.0
 11
8.725000000000362
 21
-72.17999999999915
 31
0.0
  0
LINE
  5
265
330
23D
100
AcDbEntity
  8
0
 62
     0
100
AcDbLine
 10
7.900000000000542
 20
-63.96999999999911
 30
0.0
 11
8.725000000000362
 21
-63.96999999999911
 31
0.0
  0
LINE
  5
266
330
23D
100
AcDbEntity
  8
0
 62
     0
100
AcDbLine
 10
7.900000000000542
 20
-62.01999999999928
 30
0.0
 11
8.725000000000362
 21
-62.01999999999928
 31
0.0
  0
LINE
  5
267
330
23D
100
AcDbEntity
  8
0
 62
     0
100
AcDbLine
 10
7.900000000000542
 20
-72.17999999999915
 30
0.0
 11
7.900000000000542
 21
-69.04999999999905
 31
0.0
  0
LINE
  5
268
330
23D
100
AcDbEntity
  8
0
 62
     0
100
AcDbLine
 10
9.036607142857519
 20
-68.71901118078108
 30
0.0
 11
8.725000000000362
 21
-69.04999999999905
 31
0.0
  0
LINE
  5
269
330
23D
100
AcDbEntity
  8
0
 62
     0
100
AcDbLine
 10
7.900000000000542
 20
-69.04999999999905
 30
0.0
 11
8.725000000000362
 21
-69.04999999999905
 31
0.0
  0
LINE
  5
26A
330
23D
100
AcDbEntity
  8
0
 62
     0
100
AcDbLine
 10
7.900000000000542
 20
-77.25999999999908
 30
0.0
 11
7.900000000000542
 21
-74.12999999999944
 31
0.0
  0
LINE
  5
26B
330
23D
100
AcDbEntity
  8
0
 62
     0
100
AcDbLine
 10
7.900000000000542
 20
-74.12999999999944
 30
0.0
 11
8.725000000000362
 21
-74.12999999999944
 31
0.0
  0
LINE
  5
26C
330
23D
100
AcDbEntity
  8
0
 62
     0
100
AcDbLine
 10
7.900000000000542
 20
-77.25999999999908
 30
0.0
 11
8.725000000000362
 21
-77.25999999999908
 31
0.0
  0
LINE
  5
26D
330
23D
100
AcDbEntity
  8
0
 62
     0
100
AcDbLine
 10
9.036607142857519
 20
-63.63901118078114
 30
0.0
 11
8.725000000000362
 21
-63.96999999999911
 31
0.0
  0
LINE
  5
26E
330
23D
100
AcDbEntity
  8
0
 62
     0
100
AcDbLine
 10
9.036607142857519
 20
-78.87901118078139
 30
0.0
 11
8.725000000000362
 21
-79.20999999999934
 31
0.0
  0
LINE
  5
26F
330
23D
100
AcDbEntity
  8
0
 62
     0
100
AcDbLine
 10
8.725000000000362
 20
-72.17999999999915
 30
0.0
 11
9.036607142857519
 21
-72.51098881921713
 31
0.0
  0
LINE
  5
270
330
23D
100
AcDbEntity
  8
0
 62
     0
100
AcDbLine
 10
8.725000000000362
 20
-79.20999999999934
 30
0.0
 11
8.725000000000362
 21
-80.77499999999941
 31
0.0
  0
LINE
  5
271
330
23D
100
AcDbEntity
  8
0
 62
     0
100
AcDbLine
 10
14.33000000000038
 20
-80.77499999999941
 30
0.0
 11
14.63000000000056
 21
-80.77499999999941
 31
0.0
  0
LINE
  5
272
330
23D
100
AcDbEntity
  8
0
 62
     0
100
AcDbLine
 10
11.8979491924324
 20
-63.22705080756827
 30
0.0
 11
12.36205080757008
 21
-63.22705080756827
 31
0.0
  0
LINE
  5
273
330
23D
100
AcDbEntity
  8
0
 62
     0
100
AcDbLine
 10
11.63000000000101
 20
-63.49499999999967
 30
0.0
 11
11.8979491924324
 21
-63.22705080756827
 31
0.0
  0
LINE
  5
274
330
23D
100
AcDbEntity
  8
0
 62
     0
100
AcDbLine
 10
12.63000000000056
 20
-63.49499999999967
 30
0.0
 11
11.63000000000101
 21
-63.49499999999967
 31
0.0
  0
LINE
  5
275
330
23D
100
AcDbEntity
  8
0
 62
     0
100
AcDbLine
 10
12.36205080757008
 20
-63.22705080756827
 30
0.0
 11
12.63000000000056
 21
-63.49499999999967
 31
0.0
  0
LINE
  5
276
330
23D
100
AcDbEntity
  8
0
 62
     0
100
AcDbLine
 10
12.63000000000102
 20
-62.49499999999965
 30
0.0
 11
12.63000000000056
 21
-63.49499999999967
 31
0.0
  0
LINE
  5
277
330
23D
100
AcDbEntity
  8
0
 62
     0
100
AcDbLine
 10
11.63000000000101
 20
-63.49499999999967
 30
0.0
 11
11.63000000000101
 21
-62.49499999999965
 31
0.0
  0
LINE
  5
278
330
23D
100
AcDbEntity
  8
0
 62
     0
100
AcDbLine
 10
11.63000000000101
 20
-62.49499999999965
 30
0.0
 11
12.63000000000102
 21
-62.49499999999965
 31
0.0
  0
LINE
  5
279
330
23D
100
AcDbEntity
  8
0
 62
     0
100
AcDbLine
 10
11.8979491924324
 20
-62.7629491924306
 30
0.0
 11
11.63000000000101
 21
-62.49499999999965
 31
0.0
  0
LINE
  5
27A
330
23D
100
AcDbEntity
  8
0
 62
     0
100
AcDbLine
 10
11.8979491924324
 20
-62.7629491924306
 30
0.0
 11
11.8979491924324
 21
-63.22705080756827
 31
0.0
  0
LINE
  5
27B
330
23D
100
AcDbEntity
  8
0
 62
     0
100
AcDbLine
 10
12.36205080757008
 20
-63.22705080756827
 30
0.0
 11
12.36205080757008
 21
-62.7629491924306
 31
0.0
  0
LINE
  5
27C
330
23D
100
AcDbEntity
  8
0
 62
     0
100
AcDbLine
 10
11.8979491924324
 20
-62.7629491924306
 30
0.0
 11
12.36205080757008
 21
-62.7629491924306
 31
0.0
  0
LINE
  5
27D
330
23D
100
AcDbEntity
  8
0
 62
     0
100
AcDbLine
 10
12.36205080757008
 20
-62.7629491924306
 30
0.0
 11
12.63000000000102
 21
-62.49499999999965
 31
0.0
  0
LINE
  5
27E
330
23D
100
AcDbEntity
  8
0
 62
     0
100
AcDbLine
 10
12.88000000000056
 20
-70.41403810567612
 30
0.0
 11
12.88000000000056
 21
-70.81596189432253
 31
0.0
  0
LINE
  5
27F
330
23D
100
AcDbEntity
  8
0
 62
     0
100
AcDbLine
 10
12.88000000000056
 20
-70.81596189432253
 30
0.0
 11
12.13000000000056
 21
-70.61499999999956
 31
0.0
  0
LINE
  5
280
330
23D
100
AcDbEntity
  8
0
 62
     0
100
AcDbLine
 10
12.13000000000056
 20
-70.61499999999956
 30
0.0
 11
12.88000000000056
 21
-70.41403810567612
 31
0.0
  0
LINE
  5
281
330
23D
100
AcDbEntity
  8
0
 62
     0
100
AcDbLine
 10
12.88000000000056
 20
-65.33403810567574
 30
0.0
 11
12.88000000000056
 21
-65.7359618943226
 31
0.0
  0
LINE
  5
282
330
23D
100
AcDbEntity
  8
0
 62
     0
100
AcDbLine
 10
12.88000000000056
 20
-65.7359618943226
 30
0.0
 11
12.13000000000056
 21
-65.53499999999963
 31
0.0
  0
LINE
  5
283
330
23D
100
AcDbEntity
  8
0
 62
     0
100
AcDbLine
 10
12.13000000000056
 20
-65.53499999999963
 30
0.0
 11
12.88000000000056
 21
-65.33403810567574
 31
0.0
  0
LINE
  5
284
330
23D
100
AcDbEntity
  8
0
 62
     0
100
AcDbLine
 10
9.036607142857519
 20
-80.77499999999941
 30
0.0
 11
9.036607142857519
 21
-78.87901118078139
 31
0.0
  0
LINE
  5
285
330
23D
100
AcDbEntity
  8
0
 62
     0
100
AcDbLine
 10
9.036607142857519
 20
-80.77499999999941
 30
0.0
 11
14.33000000000038
 21
-80.77499999999941
 31
0.0
  0
LINE
  5
286
330
23D
100
AcDbEntity
  8
0
 62
     0
100
AcDbLine
 10
8.725000000000362
 20
-80.77499999999941
 30
0.0
 11
9.036607142857519
 21
-80.77499999999941
 31
0.0
  0
LINE
  5
287
330
23D
100
AcDbEntity
  8
0
 62
     0
100
AcDbLine
 10
9.036607142857519
 20
-72.51098881921713
 30
0.0
 11
9.036607142857519
 21
-72.54999999999904
 31
0.0
  0
LINE
  5
288
330
23D
100
AcDbEntity
  8
0
 62
     0
100
AcDbLine
 10
9.036607142857519
 20
-72.54999999999904
 30
0.0
 11
9.036607142857519
 21
-73.75999999999908
 31
0.0
  0
LINE
  5
289
330
23D
100
AcDbEntity
  8
0
 62
     0
100
AcDbLine
 10
9.036607142857519
 20
-77.59098881921705
 30
0.0
 11
9.036607142857519
 21
-73.79901118078143
 31
0.0
  0
LINE
  5
28A
330
23D
100
AcDbEntity
  8
0
 62
     0
100
AcDbLine
 10
9.036607142857519
 20
-73.75999999999908
 30
0.0
 11
9.036607142857519
 21
-73.79901118078143
 31
0.0
  0
LINE
  5
28B
330
23D
100
AcDbEntity
  8
0
 62
     0
100
AcDbLine
 10
9.036607142857519
 20
-77.59098881921705
 30
0.0
 11
9.036607142857519
 21
-77.62999999999944
 31
0.0
  0
LINE
  5
28C
330
23D
100
AcDbEntity
  8
0
 62
     0
100
AcDbLine
 10
9.036607142857519
 20
-77.62999999999944
 30
0.0
 11
9.036607142857519
 21
-78.83999999999947
 31
0.0
  0
LINE
  5
28D
330
23D
100
AcDbEntity
  8
0
 62
     0
100
AcDbLine
 10
9.036607142857519
 20
-78.83999999999947
 30
0.0
 11
9.036607142857519
 21
-78.87901118078139
 31
0.0
  0
LINE
  5
28E
330
23D
100
AcDbEntity
  8
0
 62
     0
100
AcDbLine
 10
12.88000000000056
 20
-75.49403810567605
 30
0.0
 11
12.88000000000056
 21
-75.89596189432246
 31
0.0
  0
LINE
  5
28F
330
23D
100
AcDbEntity
  8
0
 62
     0
100
AcDbLine
 10
12.88000000000056
 20
-75.89596189432246
 30
0.0
 11
12.13000000000056
 21
-75.69499999999948
 31
0.0
  0
LINE
  5
290
330
23D
100
AcDbEntity
  8
0
 62
     0
100
AcDbLine
 10
12.13000000000056
 20
-75.69499999999948
 30
0.0
 11
12.88000000000056
 21
-75.49403810567605
 31
0.0
  0
LINE
  5
291
330
23D
100
AcDbEntity
  8
0
 62
     0
100
AcDbLine
 10
12.63000000000102
 20
-78.73499999999943
 30
0.0
 11
12.63000000000102
 21
-77.73499999999946
 31
0.0
  0
LINE
  5
292
330
23D
100
AcDbEntity
  8
0
 62
     0
100
AcDbLine
 10
12.36205080757008
 20
-78.46705080756851
 30
0.0
 11
12.63000000000102
 21
-78.73499999999943
 31
0.0
  0
LINE
  5
293
330
23D
100
AcDbEntity
  8
0
 62
     0
100
AcDbLine
 10
12.36205080757008
 20
-78.00294919243038
 30
0.0
 11
12.63000000000102
 21
-77.73499999999946
 31
0.0
  0
LINE
  5
294
330
23D
100
AcDbEntity
  8
0
 62
     0
100
AcDbLine
 10
12.36205080757008
 20
-78.00294919243038
 30
0.0
 11
12.36205080757008
 21
-78.46705080756851
 31
0.0
  0
LINE
  5
295
330
23D
100
AcDbEntity
  8
0
 62
     0
100
AcDbLine
 10
11.63000000000101
 20
-77.73499999999946
 30
0.0
 11
12.63000000000102
 21
-77.73499999999946
 31
0.0
  0
LINE
  5
296
330
23D
100
AcDbEntity
  8
0
 62
     0
100
AcDbLine
 10
12.36205080757008
 20
-78.46705080756851
 30
0.0
 11
11.8979491924324
 21
-78.46705080756851
 31
0.0
  0
LINE
  5
297
330
23D
100
AcDbEntity
  8
0
 62
     0
100
AcDbLine
 10
11.63000000000101
 20
-78.73499999999943
 30
0.0
 11
11.63000000000101
 21
-77.73499999999946
 31
0.0
  0
LINE
  5
298
330
23D
100
AcDbEntity
  8
0
 62
     0
100
AcDbLine
 10
11.63000000000101
 20
-78.73499999999943
 30
0.0
 11
11.8979491924324
 21
-78.46705080756851
 31
0.0
  0
LINE
  5
299
330
23D
100
AcDbEntity
  8
0
 62
     0
100
AcDbLine
 10
11.8979491924324
 20
-78.00294919243038
 30
0.0
 11
11.8979491924324
 21
-78.46705080756851
 31
0.0
  0
LINE
  5
29A
330
23D
100
AcDbEntity
  8
0
 62
     0
100
AcDbLine
 10
11.8979491924324
 20
-78.00294919243038
 30
0.0
 11
11.63000000000101
 21
-77.73499999999946
 31
0.0
  0
LINE
  5
29B
330
23D
100
AcDbEntity
  8
0
 62
     0
100
AcDbLine
 10
11.8979491924324
 20
-78.00294919243038
 30
0.0
 11
12.36205080757008
 21
-78.00294919243038
 31
0.0
  0
LINE
  5
29C
330
23D
100
AcDbEntity
  8
0
 62
     0
100
AcDbLine
 10
12.63000000000102
 20
-78.73499999999943
 30
0.0
 11
11.63000000000101
 21
-78.73499999999943
 31
0.0
  0
LINE
  5
29D
330
23D
100
AcDbEntity
  8
0
 62
     0
100
AcDbLine
 10
10.9175644347024
 20
-78.93499999999926
 30
0.0
 11
13.34243556529872
 21
-78.93499999999926
 31
0.0
  0
LINE
  5
29E
330
23D
100
AcDbEntity
  8
0
 62
     0
100
AcDbLine
 10
11.63000000000101
 20
-68.57499999999959
 30
0.0
 11
12.63000000000102
 21
-68.57499999999959
 31
0.0
  0
LINE
  5
29F
330
23D
100
AcDbEntity
  8
0
 62
     0
100
AcDbLine
 10
11.63000000000101
 20
-67.57499999999959
 30
0.0
 11
12.63000000000102
 21
-67.57499999999959
 31
0.0
  0
LINE
  5
2A0
330
23D
100
AcDbEntity
  8
0
 62
     0
100
AcDbLine
 10
11.63000000000101
 20
-68.57499999999959
 30
0.0
 11
11.63000000000101
 21
-67.57499999999959
 31
0.0
  0
LINE
  5
2A1
330
23D
100
AcDbEntity
  8
0
 62
     0
100
AcDbLine
 10
12.63000000000102
 20
-67.57499999999959
 30
0.0
 11
12.63000000000102
 21
-68.57499999999959
 31
0.0
  0
LINE
  5
2A2
330
23D
100
AcDbEntity
  8
0
 62
     0
100
AcDbLine
 10
11.8979491924324
 20
-68.3070508075682
 30
0.0
 11
12.36205080757008
 21
-68.3070508075682
 31
0.0
  0
LINE
  5
2A3
330
23D
100
AcDbEntity
  8
0
 62
     0
100
AcDbLine
 10
11.8979491924324
 20
-67.84294919243052
 30
0.0
 11
11.8979491924324
 21
-68.3070508075682
 31
0.0
  0
LINE
  5
2A4
330
23D
100
AcDbEntity
  8
0
 62
     0
100
AcDbLine
 10
11.8979491924324
 20
-67.84294919243052
 30
0.0
 11
11.63000000000101
 21
-67.57499999999959
 31
0.0
  0
LINE
  5
2A5
330
23D
100
AcDbEntity
  8
0
 62
     0
100
AcDbLine
 10
12.36205080757008
 20
-68.3070508075682
 30
0.0
 11
12.36205080757008
 21
-67.84294919243052
 31
0.0
  0
LINE
  5
2A6
330
23D
100
AcDbEntity
  8
0
 62
     0
100
AcDbLine
 10
11.8979491924324
 20
-67.84294919243052
 30
0.0
 11
12.36205080757008
 21
-67.84294919243052
 31
0.0
  0
LINE
  5
2A7
330
23D
100
AcDbEntity
  8
0
 62
     0
100
AcDbLine
 10
12.36205080757008
 20
-68.3070508075682
 30
0.0
 11
12.63000000000102
 21
-68.57499999999959
 31
0.0
  0
LINE
  5
2A8
330
23D
100
AcDbEntity
  8
0
 62
     0
100
AcDbLine
 10
11.63000000000101
 20
-68.57499999999959
 30
0.0
 11
11.8979491924324
 21
-68.3070508075682
 31
0.0
  0
LINE
  5
2A9
330
23D
100
AcDbEntity
  8
0
 62
     0
100
AcDbLine
 10
12.36205080757008
 20
-67.84294919243052
 30
0.0
 11
12.63000000000102
 21
-67.57499999999959
 31
0.0
  0
LINE
  5
2AA
330
23D
100
AcDbEntity
  8
0
 62
     0
100
AcDbLine
 10
14.63000000000056
 20
-80.38906592285345
 30
0.0
 11
14.63000000000056
 21
-80.77499999999941
 31
0.0
  0
LINE
  5
2AB
330
23D
100
AcDbEntity
  8
0
 62
     0
100
AcDbLine
 10
14.63000000000056
 20
-76.08093407714545
 30
0.0
 11
14.63000000000056
 21
-75.30906592285259
 31
0.0
  0
LINE
  5
2AC
330
23D
100
AcDbEntity
  8
0
 62
     0
100
AcDbLine
 10
14.63000000000056
 20
-71.00093407714552
 30
0.0
 11
14.63000000000056
 21
-70.22906592285266
 31
0.0
  0
LINE
  5
2AD
330
23D
100
AcDbEntity
  8
0
 62
     0
100
AcDbLine
 10
14.33000000000038
 20
-66.03539219456229
 30
0.0
 11
14.33000000000038
 21
-65.03460780543605
 31
0.0
  0
LINE
  5
2AE
330
23D
100
AcDbEntity
  8
0
 62
     0
100
AcDbLine
 10
14.63000000000056
 20
-65.9209340771456
 30
0.0
 11
14.63000000000056
 21
-65.14906592285274
 31
0.0
  0
LINE
  5
2AF
330
23D
100
AcDbEntity
  8
0
 62
     0
100
AcDbLine
 10
14.33000000000038
 20
-71.11539219456222
 30
0.0
 11
14.33000000000038
 21
-70.11460780543597
 31
0.0
  0
LINE
  5
2B0
330
23D
100
AcDbEntity
  8
0
 62
     0
100
AcDbLine
 10
14.33000000000038
 20
-76.19539219456214
 30
0.0
 11
14.33000000000038
 21
-75.19460780543591
 31
0.0
  0
LINE
  5
2B1
330
23D
100
AcDbEntity
  8
0
 62
     0
100
AcDbLine
 10
14.33000000000038
 20
-80.77499999999941
 30
0.0
 11
14.33000000000038
 21
-80.27460780543675
 31
0.0
  0
LINE
  5
2B2
330
23D
100
AcDbEntity
  8
0
 62
     0
100
AcDbLine
 10
11.63000000000101
 20
-73.65499999999951
 30
0.0
 11
11.63000000000101
 21
-72.65499999999952
 31
0.0
  0
LINE
  5
2B3
330
23D
100
AcDbEntity
  8
0
 62
     0
100
AcDbLine
 10
12.63000000000102
 20
-72.65499999999952
 30
0.0
 11
12.63000000000056
 21
-73.65499999999951
 31
0.0
  0
LINE
  5
2B4
330
23D
100
AcDbEntity
  8
0
 62
     0
100
AcDbLine
 10
12.36205080757008
 20
-73.38705080756859
 30
0.0
 11
12.63000000000056
 21
-73.65499999999951
 31
0.0
  0
LINE
  5
2B5
330
23D
100
AcDbEntity
  8
0
 62
     0
100
AcDbLine
 10
12.63000000000056
 20
-73.65499999999951
 30
0.0
 11
11.63000000000101
 21
-73.65499999999951
 31
0.0
  0
LINE
  5
2B6
330
23D
100
AcDbEntity
  8
0
 62
     0
100
AcDbLine
 10
11.63000000000101
 20
-73.65499999999951
 30
0.0
 11
11.8979491924324
 21
-73.38705080756811
 31
0.0
  0
LINE
  5
2B7
330
23D
100
AcDbEntity
  8
0
 62
     0
100
AcDbLine
 10
12.36205080757008
 20
-72.92294919243045
 30
0.0
 11
12.36205080757008
 21
-73.38705080756859
 31
0.0
  0
LINE
  5
2B8
330
23D
100
AcDbEntity
  8
0
 62
     0
100
AcDbLine
 10
11.8979491924324
 20
-73.38705080756811
 30
0.0
 11
12.36205080757008
 21
-73.38705080756859
 31
0.0
  0
LINE
  5
2B9
330
23D
100
AcDbEntity
  8
0
 62
     0
100
AcDbLine
 10
11.8979491924324
 20
-72.92294919243045
 30
0.0
 11
11.8979491924324
 21
-73.38705080756811
 31
0.0
  0
LINE
  5
2BA
330
23D
100
AcDbEntity
  8
0
 62
     0
100
AcDbLine
 10
11.8979491924324
 20
-72.92294919243045
 30
0.0
 11
12.36205080757008
 21
-72.92294919243045
 31
0.0
  0
LINE
  5
2BB
330
23D
100
AcDbEntity
  8
0
 62
     0
100
AcDbLine
 10
11.8979491924324
 20
-72.92294919243045
 30
0.0
 11
11.63000000000101
 21
-72.65499999999952
 31
0.0
  0
LINE
  5
2BC
330
23D
100
AcDbEntity
  8
0
 62
     0
100
AcDbLine
 10
11.63000000000101
 20
-72.65499999999952
 30
0.0
 11
12.63000000000102
 21
-72.65499999999952
 31
0.0
  0
LINE
  5
2BD
330
23D
100
AcDbEntity
  8
0
 62
     0
100
AcDbLine
 10
12.36205080757008
 20
-72.92294919243045
 30
0.0
 11
12.63000000000102
 21
-72.65499999999952
 31
0.0
  0
LINE
  5
2BE
330
23D
100
AcDbEntity
  8
0
 62
     0
100
AcDbLine
 10
9.036607142857519
 20
-62.38999999999919
 30
0.0
 11
9.036607142857519
 21
-62.35098881921726
 31
0.0
  0
LINE
  5
2BF
330
23D
100
AcDbEntity
  8
0
 62
     0
100
AcDbLine
 10
9.036607142857519
 20
-63.59999999999923
 30
0.0
 11
9.036607142857519
 21
-62.38999999999919
 31
0.0
  0
LINE
  5
2C0
330
23D
100
AcDbEntity
  8
0
 62
     0
100
AcDbLine
 10
9.036607142857519
 20
-63.63901118078114
 30
0.0
 11
9.036607142857519
 21
-63.59999999999923
 31
0.0
  0
LINE
  5
2C1
330
23D
100
AcDbEntity
  8
0
 62
     0
100
AcDbLine
 10
9.036607142857519
 20
-72.51098881921713
 30
0.0
 11
9.036607142857519
 21
-68.71901118078108
 31
0.0
  0
LINE
  5
2C2
330
23D
100
AcDbEntity
  8
0
 62
     0
100
AcDbLine
 10
9.036607142857519
 20
-68.67999999999915
 30
0.0
 11
9.036607142857519
 21
-68.71901118078108
 31
0.0
  0
LINE
  5
2C3
330
23D
100
AcDbEntity
  8
0
 62
     0
100
AcDbLine
 10
9.036607142857519
 20
-67.46999999999911
 30
0.0
 11
9.036607142857519
 21
-68.67999999999915
 31
0.0
  0
LINE
  5
2C4
330
23D
100
AcDbEntity
  8
0
 62
     0
100
AcDbLine
 10
9.036607142857519
 20
-67.43098881921719
 30
0.0
 11
9.036607142857519
 21
-63.63901118078114
 31
0.0
  0
LINE
  5
2C5
330
23D
100
AcDbEntity
  8
0
 62
     0
100
AcDbLine
 10
9.036607142857519
 20
-67.46999999999911
 30
0.0
 11
9.036607142857519
 21
-67.43098881921719
 31
0.0
  0
LINE
  5
2C6
330
23D
100
AcDbEntity
  8
0
 62
     0
100
AcDbLine
 10
8.725000000000362
 20
-77.25999999999908
 30
0.0
 11
8.725000000000362
 21
-74.12999999999944
 31
0.0
  0
LINE
  5
2C7
330
23D
100
AcDbEntity
  8
0
 62
     0
100
AcDbLine
 10
8.725000000000362
 20
-72.17999999999915
 30
0.0
 11
8.725000000000362
 21
-69.04999999999905
 31
0.0
  0
LINE
  5
2C8
330
23D
100
AcDbEntity
  8
0
 62
     0
100
AcDbLine
 10
8.725000000000362
 20
-67.09999999999921
 30
0.0
 11
8.725000000000362
 21
-63.96999999999911
 31
0.0
  0
LINE
  5
2C9
330
23D
100
AcDbEntity
  8
0
 62
     0
100
AcDbLine
 10
8.725000000000362
 20
-62.01999999999928
 30
0.0
 11
9.036607142857519
 21
-62.35098881921726
 31
0.0
  0
LINE
  5
2CA
330
23D
100
AcDbEntity
  8
0
 62
     0
100
AcDbLine
 10
9.036607142857519
 20
-73.79901118078143
 30
0.0
 11
8.725000000000362
 21
-74.12999999999944
 31
0.0
  0
LINE
  5
2CB
330
23D
100
AcDbEntity
  8
0
 62
     0
100
AcDbLine
 10
8.725000000000362
 20
-77.25999999999908
 30
0.0
 11
9.036607142857519
 21
-77.59098881921705
 31
0.0
  0
LINE
  5
2CC
330
23D
100
AcDbEntity
  8
0
 62
     0
100
AcDbLine
 10
8.725000000000362
 20
-67.09999999999921
 30
0.0
 11
9.036607142857519
 21
-67.43098881921719
 31
0.0
  0
LINE
  5
2CD
330
23D
100
AcDbEntity
  8
0
 62
     0
100
AcDbLine
 10
7.900000000000542
 20
-67.09999999999921
 30
0.0
 11
8.725000000000362
 21
-67.09999999999921
 31
0.0
  0
LINE
  5
2CE
330
23D
100
AcDbEntity
  8
0
 62
     0
100
AcDbLine
 10
7.900000000000542
 20
-67.09999999999921
 30
0.0
 11
7.900000000000542
 21
-63.96999999999911
 31
0.0
  0
LINE
  5
2CF
330
23D
100
AcDbEntity
  8
0
 62
     0
100
AcDbLine
 10
9.036607142857519
 20
-57.27098881921733
 30
0.0
 11
9.036607142857519
 21
-55.37499999999933
 31
0.0
  0
LINE
  5
2D0
330
23D
100
AcDbEntity
  8
0
 62
     0
100
AcDbLine
 10
12.88000000000056
 20
-60.25403810567581
 30
0.0
 11
12.88000000000056
 21
-60.65596189432267
 31
0.0
  0
LINE
  5
2D1
330
23D
100
AcDbEntity
  8
0
 62
     0
100
AcDbLine
 10
12.88000000000056
 20
-60.65596189432267
 30
0.0
 11
12.13000000000056
 21
-60.45499999999925
 31
0.0
  0
LINE
  5
2D2
330
23D
100
AcDbEntity
  8
0
 62
     0
100
AcDbLine
 10
12.13000000000056
 20
-60.45499999999925
 30
0.0
 11
12.88000000000056
 21
-60.25403810567581
 31
0.0
  0
LINE
  5
2D3
330
23D
100
AcDbEntity
  8
0
 62
     0
100
AcDbLine
 10
7.900000000000542
 20
-62.01999999999928
 30
0.0
 11
7.900000000000542
 21
-58.88999999999919
 31
0.0
  0
LINE
  5
2D4
330
23D
100
AcDbEntity
  8
0
 62
     0
100
AcDbLine
 10
9.036607142857519
 20
-58.55901118078122
 30
0.0
 11
9.036607142857519
 21
-58.51999999999929
 31
0.0
  0
LINE
  5
2D5
330
23D
100
AcDbEntity
  8
0
 62
     0
100
AcDbLine
 10
9.036607142857519
 20
-62.35098881921726
 30
0.0
 11
9.036607142857519
 21
-58.55901118078122
 31
0.0
  0
LINE
  5
2D6
330
23D
100
AcDbEntity
  8
0
 62
     0
100
AcDbLine
 10
8.725000000000362
 20
-62.01999999999928
 30
0.0
 11
8.725000000000362
 21
-58.88999999999919
 31
0.0
  0
LINE
  5
2D7
330
23D
100
AcDbEntity
  8
0
 62
     0
100
AcDbLine
 10
9.036607142857519
 20
-55.37499999999933
 30
0.0
 11
8.725000000000362
 21
-55.37499999999933
 31
0.0
  0
LINE
  5
2D8
330
23D
100
AcDbEntity
  8
0
 62
     0
100
AcDbLine
 10
8.725000000000362
 20
-55.37499999999933
 30
0.0
 11
8.725000000000362
 21
-56.93999999999937
 31
0.0
  0
LINE
  5
2D9
330
23D
100
AcDbEntity
  8
0
 62
     0
100
AcDbLine
 10
7.900000000000542
 20
-56.93999999999937
 30
0.0
 11
8.725000000000362
 21
-56.93999999999937
 31
0.0
  0
LINE
  5
2DA
330
23D
100
AcDbEntity
  8
0
 62
     0
100
AcDbLine
 10
14.63000000000056
 20
-55.37499999999933
 30
0.0
 11
14.63000000000056
 21
-55.76093407714575
 31
0.0
  0
LINE
  5
2DB
330
23D
100
AcDbEntity
  8
0
 62
     0
100
AcDbLine
 10
14.33000000000038
 20
-55.87539219456242
 30
0.0
 11
14.33000000000038
 21
-55.37499999999933
 31
0.0
  0
LINE
  5
2DC
330
23D
100
AcDbEntity
  8
0
 62
     0
100
AcDbLine
 10
14.33000000000038
 20
-55.37499999999933
 30
0.0
 11
9.036607142857519
 21
-55.37499999999933
 31
0.0
  0
LINE
  5
2DD
330
23D
100
AcDbEntity
  8
0
 62
     0
100
AcDbLine
 10
14.63000000000056
 20
-55.37499999999933
 30
0.0
 11
14.33000000000038
 21
-55.37499999999933
 31
0.0
  0
LINE
  5
2DE
330
23D
100
AcDbEntity
  8
0
 62
     0
100
AcDbLine
 10
12.63000000000147
 20
-57.41499999999928
 30
0.0
 11
12.36205080757008
 21
-57.68294919243022
 31
0.0
  0
LINE
  5
2DF
330
23D
100
AcDbEntity
  8
0
 62
     0
100
AcDbLine
 10
12.63000000000102
 20
-58.41499999999928
 30
0.0
 11
12.63000000000147
 21
-57.41499999999928
 31
0.0
  0
LINE
  5
2E0
330
23D
100
AcDbEntity
  8
0
 62
     0
100
AcDbLine
 10
12.36205080757008
 20
-58.14705080756835
 30
0.0
 11
12.63000000000102
 21
-58.41499999999928
 31
0.0
  0
LINE
  5
2E1
330
23D
100
AcDbEntity
  8
0
 62
     0
100
AcDbLine
 10
12.36205080757008
 20
-58.14705080756835
 30
0.0
 11
12.36205080757008
 21
-57.68294919243022
 31
0.0
  0
LINE
  5
2E2
330
23D
100
AcDbEntity
  8
0
 62
     0
100
AcDbLine
 10
11.63000000000147
 20
-57.41499999999928
 30
0.0
 11
12.63000000000147
 21
-57.41499999999928
 31
0.0
  0
LINE
  5
2E3
330
23D
100
AcDbEntity
  8
0
 62
     0
100
AcDbLine
 10
11.63000000000101
 20
-58.41499999999928
 30
0.0
 11
11.8979491924324
 21
-58.14705080756835
 31
0.0
  0
LINE
  5
2E4
330
23D
100
AcDbEntity
  8
0
 62
     0
100
AcDbLine
 10
11.63000000000147
 20
-57.41499999999928
 30
0.0
 11
11.63000000000101
 21
-58.41499999999928
 31
0.0
  0
LINE
  5
2E5
330
23D
100
AcDbEntity
  8
0
 62
     0
100
AcDbLine
 10
11.63000000000147
 20
-57.41499999999928
 30
0.0
 11
11.8979491924324
 21
-57.68294919243022
 31
0.0
  0
LINE
  5
2E6
330
23D
100
AcDbEntity
  8
0
 62
     0
100
AcDbLine
 10
11.8979491924324
 20
-58.14705080756835
 30
0.0
 11
12.36205080757008
 21
-58.14705080756835
 31
0.0
  0
LINE
  5
2E7
330
23D
100
AcDbEntity
  8
0
 62
     0
100
AcDbLine
 10
11.8979491924324
 20
-57.68294919243022
 30
0.0
 11
11.8979491924324
 21
-58.14705080756835
 31
0.0
  0
LINE
  5
2E8
330
23D
100
AcDbEntity
  8
0
 62
     0
100
AcDbLine
 10
11.8979491924324
 20
-57.68294919243022
 30
0.0
 11
12.36205080757008
 21
-57.68294919243022
 31
0.0
  0
LINE
  5
2E9
330
23D
100
AcDbEntity
  8
0
 62
     0
100
AcDbLine
 10
11.63000000000101
 20
-58.41499999999928
 30
0.0
 11
12.63000000000102
 21
-58.41499999999928
 31
0.0
  0
LINE
  5
2EA
330
23D
100
AcDbEntity
  8
0
 62
     0
100
AcDbLine
 10
7.900000000000542
 20
-58.88999999999919
 30
0.0
 11
8.725000000000362
 21
-58.88999999999919
 31
0.0
  0
LINE
  5
2EB
330
23D
100
AcDbEntity
  8
0
 62
     0
100
AcDbLine
 10
9.036607142857519
 20
-58.55901118078122
 30
0.0
 11
8.725000000000362
 21
-58.88999999999919
 31
0.0
  0
LINE
  5
2EC
330
23D
100
AcDbEntity
  8
0
 62
     0
100
AcDbLine
 10
8.725000000000362
 20
-56.93999999999937
 30
0.0
 11
9.036607142857519
 21
-57.27098881921733
 31
0.0
  0
LINE
  5
2ED
330
23D
100
AcDbEntity
  8
0
 62
     0
100
AcDbLine
 10
9.036607142857519
 20
-57.30999999999927
 30
0.0
 11
9.036607142857519
 21
-57.27098881921733
 31
0.0
  0
LINE
  5
2EE
330
23D
100
AcDbEntity
  8
0
 62
     0
100
AcDbLine
 10
9.036607142857519
 20
-58.51999999999929
 30
0.0
 11
9.036607142857519
 21
-57.30999999999927
 31
0.0
  0
LINE
  5
2EF
330
23D
100
AcDbEntity
  8
0
 62
     0
100
AcDbLine
 10
11.92903810567709
 20
-81.77499999999941
 30
0.0
 11
12.13000000000056
 21
-81.77499999999941
 31
0.0
  0
LINE
  5
2F0
330
23D
100
AcDbEntity
  8
0
 62
     0
100
AcDbLine
 10
12.33096189432399
 20
-81.77499999999941
 30
0.0
 11
16.00000000000043
 21
-81.77499999999941
 31
0.0
  0
LINE
  5
2F1
330
23D
100
AcDbEntity
  8
0
 62
     0
100
AcDbLine
 10
12.13000000000056
 20
-81.77499999999941
 30
0.0
 11
12.33096189432399
 21
-81.77499999999941
 31
0.0
  0
LINE
  5
2F2
330
23D
100
AcDbEntity
  8
0
 62
     0
100
AcDbLine
 10
8.33000000000038
 20
-81.77499999999941
 30
0.0
 11
11.92903810567709
 21
-81.77499999999941
 31
0.0
  0
LINE
  5
2F3
330
23D
100
AcDbEntity
  8
0
 62
     0
100
AcDbLine
 10
7.900000000000542
 20
-81.77499999999941
 30
0.0
 11
8.33000000000038
 21
-81.77499999999941
 31
0.0
  0
LINE
  5
2F4
330
23D
100
AcDbEntity
  8
0
 62
     0
100
AcDbLine
 10
7.900000000000542
 20
-79.20999999999934
 30
0.0
 11
7.900000000000542
 21
-81.77499999999941
 31
0.0
  0
LINE
  5
2F5
330
23D
100
AcDbEntity
  8
0
 62
     0
100
AcDbLine
 10
12.65000113999986
 20
-54.37499999999932
 30
0.0
 11
8.33000000000038
 21
-54.37499999999932
 31
0.0
  0
LINE
  5
2F6
330
23D
100
AcDbEntity
  8
0
 62
     0
100
AcDbLine
 10
12.85025708184684
 20
-54.37499999999932
 30
0.0
 11
12.65000113999986
 21
-54.37499999999932
 31
0.0
  0
LINE
  5
2F7
330
23D
100
AcDbEntity
  8
0
 62
     0
100
AcDbLine
 10
12.95875911636858
 20
-54.37499999999932
 30
0.0
 11
12.85025708184684
 21
-54.37499999999932
 31
0.0
  0
LINE
  5
2F8
330
23D
100
AcDbEntity
  8
0
 62
     0
100
AcDbLine
 10
13.10895107275337
 20
-54.37499999999932
 30
0.0
 11
12.95875911636858
 21
-54.37499999999932
 31
0.0
  0
LINE
  5
2F9
330
23D
100
AcDbEntity
  8
0
 62
     0
100
AcDbLine
 10
13.33690248499715
 20
-54.37499999999932
 30
0.0
 11
13.10895107275337
 21
-54.37499999999932
 31
0.0
  0
LINE
  5
2FA
330
23D
100
AcDbEntity
  8
0
 62
     0
100
AcDbLine
 10
15.50000000000044
 20
-54.37499999999932
 30
0.0
 11
15.29974405815392
 21
-54.37499999999932
 31
0.0
  0
LINE
  5
2FB
330
23D
100
AcDbEntity
  8
0
 62
     0
100
AcDbLine
 10
16.00000000000043
 20
-54.37499999999932
 30
0.0
 11
15.50000000000044
 21
-54.37499999999932
 31
0.0
  0
LINE
  5
2FC
330
23D
100
AcDbEntity
  8
0
 62
     0
100
AcDbLine
 10
13.47202608463658
 20
-54.37499999999932
 30
0.0
 11
13.33690248499715
 21
-54.37499999999932
 31
0.0
  0
LINE
  5
2FD
330
23D
100
AcDbEntity
  8
0
 62
     0
100
AcDbLine
 10
14.38786381552608
 20
-54.37499999999932
 30
0.0
 11
14.25274021588711
 21
-54.37499999999932
 31
0.0
  0
LINE
  5
2FE
330
23D
100
AcDbEntity
  8
0
 62
     0
100
AcDbLine
 10
14.61581522776985
 20
-54.37499999999932
 30
0.0
 11
14.38786381552608
 21
-54.37499999999932
 31
0.0
  0
LINE
  5
2FF
330
23D
100
AcDbEntity
  8
0
 62
     0
100
AcDbLine
 10
15.19124202362444
 20
-54.37499999999932
 30
0.0
 11
15.04105006723966
 21
-54.37499999999932
 31
0.0
  0
LINE
  5
300
330
23D
100
AcDbEntity
  8
0
 62
     0
100
AcDbLine
 10
15.29974405815392
 20
-54.37499999999932
 30
0.0
 11
15.19124202362444
 21
-54.37499999999932
 31
0.0
  0
LINE
  5
301
330
23D
100
AcDbEntity
  8
0
 62
     0
100
AcDbLine
 10
14.7660071841551
 20
-54.37499999999932
 30
0.0
 11
14.61581522776985
 21
-54.37499999999932
 31
0.0
  0
LINE
  5
302
330
23D
100
AcDbEntity
  8
0
 62
     0
100
AcDbLine
 10
15.04105006723966
 20
-54.37499999999932
 30
0.0
 11
14.7660071841551
 21
-54.37499999999932
 31
0.0
  0
LINE
  5
303
330
23D
100
AcDbEntity
  8
0
 62
     0
100
AcDbLine
 10
13.64543921326093
 20
-54.37499999999932
 30
0.0
 11
13.47202608463658
 21
-54.37499999999932
 31
0.0
  0
LINE
  5
304
330
23D
100
AcDbEntity
  8
0
 62
     0
100
AcDbLine
 10
14.0793270872623
 20
-54.37499999999932
 30
0.0
 11
13.64543921326093
 21
-54.37499999999932
 31
0.0
  0
LINE
  5
305
330
23D
100
AcDbEntity
  8
0
 62
     0
100
AcDbLine
 10
14.25274021588711
 20
-54.37499999999932
 30
0.0
 11
14.0793270872623
 21
-54.37499999999932
 31
0.0
  0
LINE
  5
306
330
23D
100
AcDbEntity
  8
0
 62
     0
100
AcDbLine
 10
7.426838695454534
 20
-62.38999999999919
 30
0.0
 11
7.900000000000542
 21
-62.01999999999928
 31
0.0
  0
LINE
  5
307
330
23D
100
AcDbEntity
  8
0
 62
     0
100
AcDbLine
 10
7.426838695454534
 20
-62.38999999999919
 30
0.0
 11
7.426838695454534
 21
-63.59999999999923
 31
0.0
  0
LINE
  5
308
330
23D
100
AcDbEntity
  8
0
 62
     0
100
AcDbLine
 10
7.426838695454534
 20
-68.67999999999915
 30
0.0
 11
7.900000000000542
 21
-69.04999999999905
 31
0.0
  0
LINE
  5
309
330
23D
100
AcDbEntity
  8
0
 62
     0
100
AcDbLine
 10
7.426838695454534
 20
-68.67999999999915
 30
0.0
 11
9.036607142857519
 21
-68.67999999999915
 31
0.0
  0
LINE
  5
30A
330
23D
100
AcDbEntity
  8
0
 62
     0
100
AcDbLine
 10
7.426838695454534
 20
-72.54999999999904
 30
0.0
 11
7.900000000000542
 21
-72.17999999999915
 31
0.0
  0
LINE
  5
30B
330
23D
100
AcDbEntity
  8
0
 62
     0
100
AcDbLine
 10
7.426838695454534
 20
-73.75999999999908
 30
0.0
 11
7.426838695454534
 21
-72.54999999999904
 31
0.0
  0
LINE
  5
30C
330
23D
100
AcDbEntity
  8
0
 62
     0
100
AcDbLine
 10
7.426838695454534
 20
-73.75999999999908
 30
0.0
 11
7.900000000000542
 21
-74.12999999999944
 31
0.0
  0
LINE
  5
30D
330
23D
100
AcDbEntity
  8
0
 62
     0
100
AcDbLine
 10
7.426838695454534
 20
-68.67999999999915
 30
0.0
 11
7.426838695454534
 21
-67.46999999999911
 31
0.0
  0
LINE
  5
30E
330
23D
100
AcDbEntity
  8
0
 62
     0
100
AcDbLine
 10
7.426838695454534
 20
-77.62999999999944
 30
0.0
 11
7.900000000000542
 21
-77.25999999999908
 31
0.0
  0
LINE
  5
30F
330
23D
100
AcDbEntity
  8
0
 62
     0
100
AcDbLine
 10
7.426838695454534
 20
-78.83999999999947
 30
0.0
 11
7.426838695454534
 21
-77.62999999999944
 31
0.0
  0
LINE
  5
310
330
23D
100
AcDbEntity
  8
0
 62
     0
100
AcDbLine
 10
9.036607142857519
 20
-77.62999999999944
 30
0.0
 11
7.426838695454534
 21
-77.62999999999944
 31
0.0
  0
LINE
  5
311
330
23D
100
AcDbEntity
  8
0
 62
     0
100
AcDbLine
 10
7.900000000000542
 20
-79.20999999999934
 30
0.0
 11
7.426838695454534
 21
-78.83999999999947
 31
0.0
  0
LINE
  5
312
330
23D
100
AcDbEntity
  8
0
 62
     0
100
AcDbLine
 10
7.426838695454534
 20
-73.75999999999908
 30
0.0
 11
9.036607142857519
 21
-73.75999999999908
 31
0.0
  0
LINE
  5
313
330
23D
100
AcDbEntity
  8
0
 62
     0
100
AcDbLine
 10
7.426838695454534
 20
-67.46999999999911
 30
0.0
 11
7.900000000000542
 21
-67.09999999999921
 31
0.0
  0
LINE
  5
314
330
23D
100
AcDbEntity
  8
0
 62
     0
100
AcDbLine
 10
9.036607142857519
 20
-67.46999999999911
 30
0.0
 11
7.426838695454534
 21
-67.46999999999911
 31
0.0
  0
LINE
  5
315
330
23D
100
AcDbEntity
  8
0
 62
     0
100
AcDbLine
 10
7.426838695454534
 20
-58.51999999999929
 30
0.0
 11
9.036607142857519
 21
-58.51999999999929
 31
0.0
  0
LINE
  5
316
330
23D
100
AcDbEntity
  8
0
 62
     0
100
AcDbLine
 10
7.426838695454534
 20
-58.51999999999929
 30
0.0
 11
7.426838695454534
 21
-57.30999999999927
 31
0.0
  0
LINE
  5
317
330
23D
100
AcDbEntity
  8
0
 62
     0
100
AcDbLine
 10
9.036607142857519
 20
-57.30999999999927
 30
0.0
 11
7.426838695454534
 21
-57.30999999999927
 31
0.0
  0
LINE
  5
318
330
23D
100
AcDbEntity
  8
0
 62
     0
100
AcDbLine
 10
7.426838695454534
 20
-57.30999999999927
 30
0.0
 11
7.900000000000542
 21
-56.93999999999937
 31
0.0
  0
LINE
  5
319
330
23D
100
AcDbEntity
  8
0
 62
     0
100
AcDbLine
 10
7.400000000000542
 20
-81.77499999999941
 30
0.0
 11
7.900000000000542
 21
-81.77499999999941
 31
0.0
  0
LINE
  5
31A
330
23D
100
AcDbEntity
  8
0
 62
     0
100
AcDbLine
 10
7.400000000000542
 20
-81.77499999999941
 30
0.0
 11
7.400000000000542
 21
-54.37499999999932
 31
0.0
  0
LINE
  5
31B
330
23D
100
AcDbEntity
  8
0
 62
     0
100
AcDbLine
 10
7.900000000000542
 20
-54.37499999999932
 30
0.0
 11
7.400000000000542
 21
-54.37499999999932
 31
0.0
  0
ARC
  5
31C
330
23D
100
AcDbEntity
  8
0
 62
     0
100
AcDbCircle
 10
12.13000000000101
 20
-57.91499999999928
 30
0.0
 40
3.299999999999346
100
AcDbArc
 50
319.2509456225096
 51
40.74905437749029
  0
ARC
  5
31D
330
23D
100
AcDbEntity
  8
0
 62
     0
100
AcDbCircle
 10
12.13000000000101
 20
-57.91499999999928
 30
0.0
 40
2.999999999999346
100
AcDbArc
 50
317.1665719339526
 51
42.83342806604736
  0
ARC
  5
31E
330
23D
100
AcDbEntity
  8
0
 62
     0
100
AcDbCircle
 10
12.13000000000056
 20
-78.23499999999945
 30
0.0
 40
1.400000000000003
100
AcDbArc
 50
330.0000000000038
 51
209.9999999999961
  0
ARC
  5
31F
330
23D
100
AcDbEntity
  8
0
 62
     0
100
AcDbCircle
 10
12.13000000000056
 20
-73.15499999999952
 30
0.0
 40
2.999999999999798
100
AcDbArc
 50
317.1665719339526
 51
42.83342806604736
  0
ARC
  5
320
330
23D
100
AcDbEntity
  8
0
 62
     0
100
AcDbCircle
 10
12.13000000000056
 20
-78.23499999999945
 30
0.0
 40
3.299999999999986
100
AcDbArc
 50
319.2509456225466
 51
40.74905437745336
  0
ARC
  5
321
330
23D
100
AcDbEntity
  8
0
 62
     0
100
AcDbCircle
 10
12.13000000000056
 20
-73.15499999999952
 30
0.0
 40
3.299999999999825
100
AcDbArc
 50
319.2509456225466
 51
40.74905437745336
  0
ARC
  5
322
330
23D
100
AcDbEntity
  8
0
 62
     0
100
AcDbCircle
 10
12.13000000000056
 20
-68.07499999999959
 30
0.0
 40
3.299999999999825
100
AcDbArc
 50
319.2509456225466
 51
40.74905437745336
  0
ARC
  5
323
330
23D
100
AcDbEntity
  8
0
 62
     0
100
AcDbCircle
 10
12.13000000000056
 20
-62.99499999999966
 30
0.0
 40
3.299999999999816
100
AcDbArc
 50
319.2509456225466
 51
40.74905437745336
  0
ARC
  5
324
330
23D
100
AcDbEntity
  8
0
 62
     0
100
AcDbCircle
 10
12.13000000000056
 20
-68.07499999999959
 30
0.0
 40
2.999999999999798
100
AcDbArc
 50
317.1665719339526
 51
42.83342806604736
  0
ARC
  5
325
330
23D
100
AcDbEntity
  8
0
 62
     0
100
AcDbCircle
 10
12.13000000000056
 20
-62.99499999999966
 30
0.0
 40
2.999999999999796
100
AcDbArc
 50
317.1665719339526
 51
42.83342806604736
  0
ARC
  5
326
330
23D
100
AcDbEntity
  8
0
 62
     0
100
AcDbCircle
 10
12.13000000000056
 20
-78.23499999999945
 30
0.0
 40
2.99999999999996
100
AcDbArc
 50
317.1665719339526
 51
42.83342806604736
  0
CIRCLE
  5
327
330
23D
100
AcDbEntity
  8
0
 62
     0
100
AcDbCircle
 10
12.13000000000056
 20
-62.99499999999966
 30
0.0
 40
1.399999999998762
  0
CIRCLE
  5
328
330
23D
100
AcDbEntity
  8
0
 62
     0
100
AcDbCircle
 10
12.13000000000056
 20
-68.07499999999959
 30
0.0
 40
1.399999999998762
  0
CIRCLE
  5
329
330
23D
100
AcDbEntity
  8
0
 62
     0
100
AcDbCircle
 10
12.13000000000056
 20
-73.15499999999952
 30
0.0
 40
1.399999999999999
  0
CIRCLE
  5
32A
330
23D
100
AcDbEntity
  8
0
 62
     0
100
AcDbCircle
 10
12.13000000000101
 20
-57.91499999999928
 30
0.0
 40
1.399999999999379
  0
ARC
  5
32B
330
23D
100
AcDbEntity
  8
0
 62
     0
100
AcDbCircle
 10
21.04147722073548
 20
-93.34568831880257
 30
6.483974233579615E+99
 40
18.41680697560812
100
AcDbArc
 50
110.3730936678164
 51
110.8717620092503
  0
LINE
  5
32C
330
23D
100
AcDbEntity
  8
0
 62
     0
100
AcDbLine
 10
14.4799825891846
 20
-76.13738894388075
 30
6.483974233579615E+99
 11
14.40446560960572
 21
-76.16639056957295
 31
6.483974233579615E+99
  0
LINE
  5
32D
330
23D
100
AcDbEntity
  8
0
 62
     0
100
AcDbLine
 10
14.40446560960572
 20
-76.16639056957295
 30
6.483974233579615E+99
 11
14.33000000000038
 21
-76.19539219456214
 31
6.483974233579615E+99
  0
ARC
  5
32E
330
23D
100
AcDbEntity
  8
0
 62
     0
100
AcDbCircle
 10
20.51641922486167
 20
-64.50091261943157
 30
6.483974233579615E+99
 40
16.94347197733493
100
AcDbArc
 50
248.5849640485465
 51
249.1287512867559
  0
LINE
  5
32F
330
23D
100
AcDbEntity
  8
0
 62
     0
100
AcDbLine
 10
14.4799825891846
 20
-80.33261105611812
 30
6.483974233579615E+99
 11
14.55478560110896
 21
-80.360948485212
 31
6.483974233579615E+99
  0
LINE
  5
330
330
23D
100
AcDbEntity
  8
0
 62
     0
100
AcDbLine
 10
14.55478560110896
 20
-80.360948485212
 30
6.483974233579615E+99
 11
14.63000000000056
 21
-80.38906592285345
 31
6.483974233579615E+99
  0
ARC
  5
331
330
23D
100
AcDbEntity
  8
0
 62
     0
100
AcDbCircle
 10
20.49616678119173
 20
-59.47328061446455
 30
6.483974233579615E+99
 40
16.88732487456338
100
AcDbArc
 50
248.5840600477166
 51
249.1296552877335
  0
LINE
  5
332
330
23D
100
AcDbEntity
  8
0
 62
     0
100
AcDbLine
 10
14.47998258927325
 20
-75.25261105615186
 30
6.483974233579615E+99
 11
14.55449330351028
 21
-75.280838490012
 31
6.483974233579615E+99
  0
LINE
  5
333
330
23D
100
AcDbEntity
  8
0
 62
     0
100
AcDbLine
 10
14.55449330351028
 20
-75.280838490012
 30
6.483974233579615E+99
 11
14.63000000000056
 21
-75.30906592285259
 31
6.483974233579615E+99
  0
ARC
  5
334
330
23D
100
AcDbEntity
  8
0
 62
     0
100
AcDbCircle
 10
21.04147722065544
 20
-88.26568831851977
 30
6.483974233579615E+99
 40
18.41680697531573
100
AcDbArc
 50
110.3730936678999
 51
110.8717620093339
  0
LINE
  5
335
330
23D
100
AcDbEntity
  8
0
 62
     0
100
AcDbLine
 10
14.4799825891846
 20
-71.05738894388081
 30
6.483974233579615E+99
 11
14.40421771715773
 21
-71.08648644004073
 31
6.483974233579615E+99
  0
LINE
  5
336
330
23D
100
AcDbEntity
  8
0
 62
     0
100
AcDbLine
 10
14.40421771715773
 20
-71.08648644004073
 30
6.483974233579615E+99
 11
14.33000000000038
 21
-71.11539219456222
 31
6.483974233579615E+99
  0
ARC
  5
337
330
23D
100
AcDbEntity
  8
0
 62
     0
100
AcDbCircle
 10
20.51641922551652
 20
-54.34091261775598
 30
6.483974233579615E+99
 40
16.94347197913375
100
AcDbArc
 50
248.5849640485708
 51
249.1287512870346
  0
LINE
  5
338
330
23D
100
AcDbEntity
  8
0
 62
     0
100
AcDbLine
 10
14.47998258927325
 20
-70.17261105615194
 30
6.483974233579615E+99
 11
14.55449330350939
 21
-70.20083849001162
 31
6.483974233579615E+99
  0
LINE
  5
339
330
23D
100
AcDbEntity
  8
0
 62
     0
100
AcDbLine
 10
14.55449330350939
 20
-70.20083849001162
 30
6.483974233579615E+99
 11
14.63000000000056
 21
-70.22906592285266
 31
6.483974233579615E+99
  0
ARC
  5
33A
330
23D
100
AcDbEntity
  8
0
 62
     0
100
AcDbCircle
 10
20.49616556162664
 20
-49.31328376790748
 30
6.483974233579615E+99
 40
16.8873214935453
100
AcDbArc
 50
248.5840599931657
 51
249.1296553424187
  0
LINE
  5
33B
330
23D
100
AcDbEntity
  8
0
 62
     0
100
AcDbLine
 10
14.47998258927325
 20
-65.09261105615201
 30
6.483974233579615E+99
 11
14.55449330350847
 21
-65.12083849001124
 31
6.483974233579615E+99
  0
LINE
  5
33C
330
23D
100
AcDbEntity
  8
0
 62
     0
100
AcDbLine
 10
14.55449330350847
 20
-65.12083849001124
 30
6.483974233579615E+99
 11
14.63000000000056
 21
-65.14906592285274
 31
6.483974233579615E+99
  0
ARC
  5
33D
330
23D
100
AcDbEntity
  8
0
 62
     0
100
AcDbCircle
 10
21.01643747155776
 20
-83.1191502405734
 30
6.483974233579615E+99
 40
18.34571401668807
100
AcDbArc
 50
110.372127446696
 51
110.8727282303854
  0
LINE
  5
33E
330
23D
100
AcDbEntity
  8
0
 62
     0
100
AcDbLine
 10
14.4799825891846
 20
-65.97738894388043
 30
6.483974233579615E+99
 11
14.40421771044293
 21
-66.00648644263833
 31
6.483974233579615E+99
  0
LINE
  5
33F
330
23D
100
AcDbEntity
  8
0
 62
     0
100
AcDbLine
 10
14.40421771044293
 20
-66.00648644263833
 30
6.483974233579615E+99
 11
14.33000000000038
 21
-66.03539219456229
 31
6.483974233579615E+99
  0
ARC
  5
340
330
23D
100
AcDbEntity
  8
0
 62
     0
100
AcDbCircle
 10
21.04147722068228
 20
-73.02568831859185
 30
6.483974233579615E+99
 40
18.41680697539202
100
AcDbArc
 50
110.3730936678999
 51
110.8717620093339
  0
LINE
  5
341
330
23D
100
AcDbEntity
  8
0
 62
     0
100
AcDbLine
 10
14.4799825891846
 20
-55.81738894388061
 30
6.483974233579615E+99
 11
14.40421777271103
 21
-55.84648641855596
 31
6.483974233579615E+99
  0
LINE
  5
342
330
23D
100
AcDbEntity
  8
0
 62
     0
100
AcDbLine
 10
14.40421777271103
 20
-55.84648641855596
 30
6.483974233579615E+99
 11
14.33000000000038
 21
-55.87539219456242
 31
6.483974233579615E+99
  0
ARC
  5
343
330
23D
100
AcDbEntity
  8
0
 62
     0
100
AcDbCircle
 10
20.4961667514458
 20
-44.23328069137983
 30
6.483974233579615E+99
 40
16.8873247920978
100
AcDbArc
 50
248.5840600463733
 51
249.1296552890684
  0
LINE
  5
344
330
23D
100
AcDbEntity
  8
0
 62
     0
100
AcDbLine
 10
14.47998258927325
 20
-60.01261105615206
 30
6.483974233579615E+99
 11
14.55449330350984
 21
-60.04083849001176
 31
6.483974233579615E+99
  0
LINE
  5
345
330
23D
100
AcDbEntity
  8
0
 62
     0
100
AcDbLine
 10
14.55449330350984
 20
-60.04083849001176
 30
6.483974233579615E+99
 11
14.63000000000056
 21
-60.06906592285282
 31
6.483974233579615E+99
  0
ARC
  5
346
330
23D
100
AcDbEntity
  8
0
 62
     0
100
AcDbCircle
 10
21.04147722066318
 20
-78.10568831860904
 30
0.0
 40
18.41680697540189
100
AcDbArc
 50
110.3730936678164
 51
110.8717620092503
  0
LINE
  5
347
330
23D
100
AcDbEntity
  8
0
 62
     0
100
AcDbLine
 10
14.4799825891846
 20
-60.89738894388052
 30
0.0
 11
14.40446560960572
 21
-60.92639056957318
 31
0.0
  0
LINE
  5
348
330
23D
100
AcDbEntity
  8
0
 62
     0
100
AcDbLine
 10
14.40446560960572
 20
-60.92639056957318
 30
0.0
 11
14.33000000000038
 21
-60.95539219456235
 31
0.0
  0
LINE
  5
349
330
23D
100
AcDbEntity
  8
0
 62
     0
100
AcDbLine
 10
16.00000000000043
 20
-51.7749999999998
 30
0.0
 11
16.00000000000043
 21
-84.37499999999969
 31
0.0
  0
LWPOLYLINE
  5
34A
330
23D
100
AcDbEntity
  8
0
100
AcDbPolyline
 90
        4
 70
     1
 43
0.0
 10
18.49999999999953
 20
-41.52499926630912
 10
20.0999999999999
 20
-41.52499926630912
 10
20.0999999999999
 20
-44.22499926630985
 10
18.49999999999953
 20
-44.22499926630985
  0
LWPOLYLINE
  5
34B
330
23D
100
AcDbEntity
  8
0
100
AcDbPolyline
 90
        4
 70
     1
 43
0.0
 10
18.49999999999953
 20
-47.02499926630911
 10
20.0999999999999
 20
-47.02499926630911
 10
20.0999999999999
 20
-49.72499926630985
 10
18.49999999999953
 20
-49.72499926630985
  0
LINE
  5
34C
330
23D
100
AcDbEntity
  8
0
100
AcDbLine
 10
16.00000000000039
 20
-51.7749999999998
 30
0.0
 11
17.00007431254885
 21
-51.7749999999998
 31
0.0
  0
LINE
  5
34D
330
23D
100
AcDbEntity
  8
0
100
AcDbLine
 10
16.00000000000043
 20
-84.37499999999969
 30
0.0
 11
17.00007431255062
 21
-84.37499999999969
 31
0.0
  0
ENDBLK
  5
34F
330
23D
100
AcDbEntity
  8
0
100
AcDbBlockEnd
  0
ENDSEC
  0
SECTION
  2
ENTITIES
  0
LINE
  5
569
330
1F
100
AcDbEntity
  8
1
100
AcDbLine
 10
21.49999532091281
 20
359.9738178928942
 30
0.0
 11
36.49999532091283
 21
359.9738178928942
 31
0.0
  0
LINE
  5
56A
330
1F
100
AcDbEntity
  8
1
100
AcDbLine
 10
21.49999532091281
 20
175.9738178928943
 30
0.0
 11
36.49999532091283
 21
175.9738178928943
 31
0.0
  0
LINE
  5
56B
330
1F
100
AcDbEntity
  8
1
100
AcDbLine
 10
28.99999532091169
 20
352.4738178928942
 30
0.0
 11
28.99999532091169
 21
367.4738178928941
 31
0.0
  0
LINE
  5
56C
330
1F
100
AcDbEntity
  8
1
100
AcDbLine
 10
28.99999532091282
 20
168.4738178928943
 30
0.0
 11
28.99999532091282
 21
183.4738178928943
 31
0.0
  0
LINE
  5
57A
330
1F
100
AcDbEntity
  8
0
100
AcDbLine
 10
49.99999544283082
 20
267.5738177335503
 30
0.0
 11
38.59999544282981
 21
267.5738177335503
 31
0.0
  0
LINE
  5
57B
330
1F
100
AcDbEntity
  8
0
100
AcDbLine
 10
-0.0000046790871693
 20
363.8949173356964
 30
0.0
 11
-0.0000046790871693
 21
172.0527184500936
 31
0.0
  0
LINE
  5
57C
330
1F
100
AcDbEntity
  8
0
100
AcDbLine
 10
57.99999532091283
 20
363.9738178928942
 30
0.0
 11
57.99999532091283
 21
171.9738178928943
 31
0.0
  0
LINE
  5
57D
330
1F
100
AcDbEntity
  8
0
100
AcDbLine
 10
0.9738183726049099
 20
364.8945746606711
 30
0.0
 11
3.99999532091283
 21
364.9738178928942
 31
0.0
  0
LINE
  5
57E
330
1F
100
AcDbEntity
  8
0
100
AcDbLine
 10
26.89999532091269
 20
175.9738178928943
 30
0.0
 11
26.89999532091269
 21
170.9738178928943
 31
0.0
  0
LINE
  5
57F
330
1F
100
AcDbEntity
  8
0
100
AcDbLine
 10
0.4869068467587569
 20
354.8818244336445
 30
0.0
 11
3.99999532091283
 21
354.9738178928941
 31
0.0
  0
LINE
  5
580
330
1F
100
AcDbEntity
  8
0
100
AcDbLine
 10
0.4869068467587569
 20
181.0658113521443
 30
0.0
 11
3.99999532091283
 21
180.9738178928943
 31
0.0
  0
LINE
  5
581
330
1F
100
AcDbEntity
  8
0
100
AcDbLine
 10
4.999995320912828
 20
201.6069983178072
 30
0.0
 11
4.999995320912828
 21
354.9476319713253
 31
0.0
  0
ARC
  5
582
330
1F
100
AcDbEntity
  8
0
100
AcDbCircle
 10
4.299995320912785
 20
197.9738178928943
 30
0.0
 40
3.699999999995998
100
AcDbArc
 50
0.0
 51
79.09453000325759
  0
LINE
  5
583
330
1F
100
AcDbEntity
  8
0
100
AcDbLine
 10
7.999995320908737
 20
197.9738178928943
 30
0.0
 11
7.999995320907827
 21
181.0785615791711
 31
0.0
  0
LINE
  5
584
330
1F
100
AcDbEntity
  8
0
100
AcDbLine
 10
0.9738183726049099
 20
171.0530611251169
 30
0.0
 11
3.99999532091283
 21
170.9738178928943
 31
0.0
  0
LINE
  5
585
330
1F
100
AcDbEntity
  8
0
100
AcDbLine
 10
4.999995320912828
 20
350.9738178928941
 30
0.0
 11
5.013083795065766
 21
350.9741606266523
 31
0.0
  0
LINE
  5
586
330
1F
100
AcDbEntity
  8
0
100
AcDbLine
 10
3.99999532091283
 20
364.9738178928942
 30
0.0
 11
56.99999532091283
 21
364.9738178928942
 31
0.0
  0
LINE
  5
587
330
1F
100
AcDbEntity
  8
0
100
AcDbLine
 10
3.99999532091283
 20
354.9738178928941
 30
0.0
 11
4.999995320912828
 21
354.9476319713253
 31
0.0
  0
LINE
  5
588
330
1F
100
AcDbEntity
  8
0
100
AcDbLine
 10
3.99999532091283
 20
180.9738178928943
 30
0.0
 11
7.999995320907827
 21
181.0785615791711
 31
0.0
  0
LINE
  5
589
330
1F
100
AcDbEntity
  8
0
100
AcDbLine
 10
3.99999532091283
 20
170.9738178928943
 30
0.0
 11
26.89999532091269
 21
170.9738178928943
 31
0.0
  0
CIRCLE
  5
58A
330
1F
100
AcDbEntity
  8
0
100
AcDbCircle
 10
28.99999532091282
 20
359.9738178928942
 30
0.0
 40
2.1
  0
ARC
  5
58B
330
1F
100
AcDbEntity
  8
0
100
AcDbCircle
 10
28.99999532091282
 20
359.9738178928942
 30
0.0
 40
5.5
100
AcDbArc
 50
180.0
 51
245.3800226713518
  0
ARC
  5
58C
330
1F
100
AcDbEntity
  8
0
100
AcDbCircle
 10
28.99999532091282
 20
175.9738178928943
 30
0.0
 40
5.5
100
AcDbArc
 50
0.0
 51
65.3800226713519
  0
ARC
  5
58D
330
1F
100
AcDbEntity
  8
0
100
AcDbCircle
 10
28.99999532091282
 20
175.9738178928943
 30
0.0
 40
2.1
100
AcDbArc
 50
0.0
 51
180.0
  0
LINE
  5
58F
330
1F
100
AcDbEntity
  8
0
100
AcDbLine
 10
34.49999532091283
 20
359.9738178928942
 30
0.0
 11
34.49999532091283
 21
364.9738178928942
 31
0.0
  0
LINE
  5
590
330
1F
100
AcDbEntity
  8
0
100
AcDbLine
 10
23.49999532091282
 20
359.9738178928942
 30
0.0
 11
23.49999532091282
 21
364.9738178928942
 31
0.0
  0
LINE
  5
591
330
1F
100
AcDbEntity
  8
0
100
AcDbLine
 10
23.49999532091282
 20
175.9738178928943
 30
0.0
 11
23.49999532091282
 21
170.9738178928943
 31
0.0
  0
LINE
  5
592
330
1F
100
AcDbEntity
  8
0
100
AcDbLine
 10
31.09999532091273
 20
175.9738178928943
 30
0.0
 11
31.09999532091273
 21
170.9738178928943
 31
0.0
  0
LINE
  5
593
330
1F
100
AcDbEntity
  8
0
100
AcDbLine
 10
34.49999532091283
 20
175.9738178928943
 30
0.0
 11
34.49999532091283
 21
170.9738178928943
 31
0.0
  0
CIRCLE
  5
594
330
1F
100
AcDbEntity
  8
0
100
AcDbCircle
 10
3.99999532091283
 20
195.9738178928943
 30
0.0
 40
2.0
  0
CIRCLE
  5
595
330
1F
100
AcDbEntity
  8
0
100
AcDbCircle
 10
3.99999532091283
 20
195.9738178928943
 30
0.0
 40
1.6
  0
CIRCLE
  5
596
330
1F
100
AcDbEntity
  8
0
100
AcDbCircle
 10
3.99999532091283
 20
185.9738178928943
 30
0.0
 40
2.0
  0
CIRCLE
  5
597
330
1F
100
AcDbEntity
  8
0
100
AcDbCircle
 10
3.99999532091283
 20
185.9738178928943
 30
0.0
 40
1.6
  0
ARC
  5
598
330
1F
100
AcDbEntity
  8
0
100
AcDbCircle
 10
0.9999953209128308
 20
363.8949173356964
 30
0.0
 40
1.0
100
AcDbArc
 50
91.50000000000263
 51
180.0
  0
ARC
  5
599
330
1F
100
AcDbEntity
  8
0
100
AcDbCircle
 10
56.99999532091283
 20
363.9738178928942
 30
0.0
 40
1.0
100
AcDbArc
 50
0.0
 51
90.0
  0
ARC
  5
59A
330
1F
100
AcDbEntity
  8
0
100
AcDbCircle
 10
0.9999953209128308
 20
172.0527184500936
 30
0.0
 40
1.0
100
AcDbArc
 50
180.0
 51
268.4999999999973
  0
ARC
  5
59B
330
1F
100
AcDbEntity
  8
0
100
AcDbCircle
 10
56.99999532091283
 20
171.9738178928943
 30
0.0
 40
1.0
100
AcDbArc
 50
270.0
 51
0.0
  0
ARC
  5
59C
330
1F
100
AcDbEntity
  8
0
100
AcDbCircle
 10
0.4999953209128308
 20
354.3819957711574
 30
0.0
 40
0.5
100
AcDbArc
 50
91.50000000000263
 51
180.0
  0
ARC
  5
59D
330
1F
100
AcDbEntity
  8
0
100
AcDbCircle
 10
0.4999953209128308
 20
181.5656400146321
 30
0.0
 40
0.5
100
AcDbArc
 50
180.0
 51
268.4999999999973
  0
LINE
  5
59E
330
1F
100
AcDbEntity
  8
0
100
AcDbLine
 10
5.999995320910784
 20
180.9738178928943
 30
0.0
 11
57.99999532091283
 21
180.9738178928943
 31
0.0
  0
LINE
  5
59F
330
1F
100
AcDbEntity
  8
0
100
AcDbLine
 10
5.999995320912829
 20
354.4738178928942
 30
0.0
 11
4.999995320912828
 21
354.4738178928942
 31
0.0
  0
LINE
  5
5A0
330
1F
100
AcDbEntity
  8
0
100
AcDbLine
 10
5.999995320912829
 20
354.9738178928941
 30
0.0
 11
5.999995320910784
 21
202.3555983529322
 31
0.0
  0
LINE
  5
5A1
330
1F
100
AcDbEntity
  8
0
100
AcDbLine
 10
5.999995320912829
 20
354.9738178928941
 30
0.0
 11
57.99999532091283
 21
354.9738178928941
 31
0.0
  0
ARC
  5
5A2
330
1F
100
AcDbEntity
  8
0
100
AcDbCircle
 10
4.299995320912785
 20
197.9738178928943
 30
0.0
 40
4.699999999995998
100
AcDbArc
 50
0.0
 51
68.79523363710852
  0
LINE
  5
5A3
330
1F
100
AcDbEntity
  8
0
100
AcDbLine
 10
8.999995320908737
 20
197.9738178928943
 30
0.0
 11
8.999995320907828
 21
180.9738178928943
 31
0.0
  0
LINE
  5
5A4
330
1F
100
AcDbEntity
  8
0
100
AcDbLine
 10
8.999995320907828
 20
181.4738178928943
 30
0.0
 11
7.999995320907827
 21
181.4738178928943
 31
0.0
  0
LINE
  5
5A5
330
1F
100
AcDbEntity
  8
0
100
AcDbLine
 10
55.99999532091283
 20
182.9738178928939
 30
0.0
 11
55.99999532091283
 21
352.9738178928941
 31
0.0
  0
LINE
  5
5A6
330
1F
100
AcDbEntity
  8
0
100
AcDbLine
 10
55.99999532091283
 20
352.9738178928941
 30
0.0
 11
7.999995320912829
 21
352.9738178928941
 31
0.0
  0
ARC
  5
5A7
330
1F
100
AcDbEntity
  8
0
100
AcDbCircle
 10
4.299995320912785
 20
197.9738178928943
 30
0.0
 40
6.699999999996
100
AcDbArc
 50
0.0
 51
56.47925960398929
  0
LINE
  5
5A8
330
1F
100
AcDbEntity
  8
0
100
AcDbLine
 10
10.99999532090873
 20
197.9738178928943
 30
0.0
 11
10.99999532090782
 21
182.9738178928939
 31
0.0
  0
LINE
  5
5A9
330
1F
100
AcDbEntity
  8
0
100
AcDbLine
 10
55.99999532091283
 20
182.9738178928939
 30
0.0
 11
10.99999532090782
 21
182.9738178928939
 31
0.0
  0
LINE
  5
5AA
330
1F
100
AcDbEntity
  8
0
100
AcDbLine
 10
7.999995320912829
 20
352.9738178928941
 30
0.0
 11
7.999995320911692
 21
203.5595139103983
 31
0.0
  0
LINE
  5
5AB
330
1F
100
AcDbEntity
  8
0
100
AcDbLine
 10
57.99999532091283
 20
180.9738178928943
 30
0.0
 11
57.99999532091283
 21
354.9738178928941
 31
0.0
  0
LINE
  5
5AC
330
1F
100
AcDbEntity
  8
0
100
AcDbLine
 10
4.999995320912828
 20
201.606998317808
 30
0.0
 11
4.999995320912828
 21
354.4738178928942
 31
0.0
  0
LINE
  5
5AD
330
1F
100
AcDbEntity
  8
0
100
AcDbLine
 10
7.999995320908737
 20
197.9738178928943
 30
0.0
 11
7.999995320907827
 21
181.4738178928943
 31
0.0
  0
ARC
  5
5AE
330
1F
100
AcDbEntity
  8
0
100
AcDbCircle
 10
4.299995320912785
 20
197.9738178928943
 30
0.0
 40
3.699999999995998
100
AcDbArc
 50
0.0
 51
79.09453000325759
  0
LINE
  5
5AF
330
1F
100
AcDbEntity
  8
0
100
AcDbLine
 10
5.999995320909648
 20
181.0261897360328
 30
0.0
 11
5.999995320910784
 21
180.9738178928943
 31
0.0
  0
LINE
  5
5B0
330
1F
100
AcDbEntity
  8
0
100
AcDbLine
 10
35.19999544282995
 20
263.07381773355
 30
0.0
 11
35.19999544282995
 21
247.0738177335503
 31
0.0
  0
LINE
  5
5B1
330
1F
100
AcDbEntity
  8
0
100
AcDbLine
 10
38.59999544282981
 20
247.0738177335503
 30
0.0
 11
35.19999544282995
 21
247.0738177335503
 31
0.0
  0
LINE
  5
5B2
330
1F
100
AcDbEntity
  8
0
100
AcDbLine
 10
38.59999544282981
 20
263.07381773355
 30
0.0
 11
35.19999544282995
 21
263.07381773355
 31
0.0
  0
LINE
  5
5B3
330
1F
100
AcDbEntity
  8
0
100
AcDbLine
 10
38.59999544282981
 20
263.07381773355
 30
0.0
 11
38.59999544282981
 21
267.5738177335503
 31
0.0
  0
LINE
  5
5B4
330
1F
100
AcDbEntity
  8
0
100
AcDbLine
 10
49.99999544283082
 20
185.1738177335504
 30
0.0
 11
38.59999544282981
 21
185.1738177335504
 31
0.0
  0
LINE
  5
5B5
330
1F
100
AcDbEntity
  8
0
100
AcDbLine
 10
38.59999544282981
 20
247.0738177335503
 30
0.0
 11
38.59999544282981
 21
232.6738177335504
 31
0.0
  0
LINE
  5
5B6
330
1F
100
AcDbEntity
  8
0
100
AcDbLine
 10
11.09999532090773
 20
183.1738178928939
 30
0.0
 11
55.69999532091197
 21
183.1738178928939
 31
0.0
  0
LINE
  5
5B7
330
1F
100
AcDbEntity
  8
0
100
AcDbLine
 10
55.69999532091197
 20
352.7738178928945
 30
0.0
 11
55.69999532091197
 21
183.1738178928939
 31
0.0
  0
LINE
  5
5B8
330
1F
100
AcDbEntity
  8
0
100
AcDbLine
 10
11.09999532090885
 20
197.9738178928943
 30
0.0
 11
11.09999532090773
 21
183.1738178928939
 31
0.0
  0
ARC
  5
5B9
330
1F
100
AcDbEntity
  8
0
100
AcDbCircle
 10
4.199995320911738
 20
197.9738178928943
 30
0.0
 40
6.899999999996
100
AcDbArc
 50
0.0
 51
55.58261128954775
  0
LINE
  5
5BA
330
1F
100
AcDbEntity
  8
0
100
AcDbLine
 10
8.09999532091183
 20
352.7738178928945
 30
0.0
 11
8.09999532091183
 21
203.6659176811931
 31
0.0
  0
LINE
  5
5BB
330
1F
100
AcDbEntity
  8
0
100
AcDbLine
 10
55.69999532091197
 20
352.7738178928945
 30
0.0
 11
8.09999532091183
 21
352.7738178928945
 31
0.0
  0
LINE
  5
5BC
330
1F
100
AcDbEntity
  8
0
100
AcDbLine
 10
25.19999544282971
 20
260.1738177335504
 30
0.0
 11
25.19999544282971
 21
256.5738177335503
 31
0.0
  0
LINE
  5
5BD
330
1F
100
AcDbEntity
  8
0
100
AcDbLine
 10
23.59999544282981
 20
271.4738177335504
 30
0.0
 11
23.59999544282981
 21
260.1738177335504
 31
0.0
  0
LINE
  5
5BE
330
1F
100
AcDbEntity
  8
0
100
AcDbLine
 10
12.99999544282968
 20
271.4738177335504
 30
0.0
 11
23.59999544282981
 21
271.4738177335504
 31
0.0
  0
LINE
  5
5BF
330
1F
100
AcDbEntity
  8
0
100
AcDbLine
 10
23.59999544282981
 20
239.5738177335501
 30
0.0
 11
25.19999544282971
 21
239.5738177335501
 31
0.0
  0
LINE
  5
5C0
330
1F
100
AcDbEntity
  8
0
100
AcDbLine
 10
23.59999544282981
 20
256.5738177335503
 30
0.0
 11
25.19999544282971
 21
256.5738177335503
 31
0.0
  0
LINE
  5
5C1
330
1F
100
AcDbEntity
  8
0
100
AcDbLine
 10
23.59999544282981
 20
260.1738177335504
 30
0.0
 11
25.19999544282971
 21
260.1738177335504
 31
0.0
  0
LINE
  5
5C2
330
1F
100
AcDbEntity
  8
0
100
AcDbLine
 10
23.59999544282981
 20
243.1738177335504
 30
0.0
 11
25.19999544282971
 21
243.1738177335504
 31
0.0
  0
LINE
  5
5C3
330
1F
100
AcDbEntity
  8
0
100
AcDbLine
 10
25.19999544282971
 20
243.1738177335504
 30
0.0
 11
25.19999544282971
 21
239.5738177335501
 31
0.0
  0
LINE
  5
5C4
330
1F
100
AcDbEntity
  8
0
100
AcDbLine
 10
23.59999544282981
 20
256.5738177335503
 30
0.0
 11
23.59999544282981
 21
243.1738177335504
 31
0.0
  0
LINE
  5
5C5
330
1F
100
AcDbEntity
  8
0
100
AcDbLine
 10
23.59999544282981
 20
185.1738177335504
 30
0.0
 11
12.99999544282968
 21
185.1738177335504
 31
0.0
  0
LINE
  5
5C6
330
1F
100
AcDbEntity
  8
0
100
AcDbLine
 10
23.59999544282981
 20
239.5738177335501
 30
0.0
 11
23.59999544282981
 21
185.1738177335504
 31
0.0
  0
LINE
  5
5C7
330
1F
100
AcDbEntity
  8
0
100
AcDbLine
 10
12.99999544282968
 20
271.4738177335504
 30
0.0
 11
12.99999544282968
 21
185.1738177335504
 31
0.0
  0
LINE
  5
5C8
330
1F
100
AcDbEntity
  8
0
100
AcDbLine
 10
12.99999544282968
 20
275.9738177335504
 30
0.0
 11
25.39999544282977
 21
275.9738177335504
 31
0.0
  0
LINE
  5
5C9
330
1F
100
AcDbEntity
  8
0
100
AcDbLine
 10
22.89999544282977
 20
339.0738177335502
 30
0.0
 11
22.89999544282977
 21
331.0738177335502
 31
0.0
  0
LINE
  5
5CA
330
1F
100
AcDbEntity
  8
0
100
AcDbLine
 10
12.99999544282968
 20
306.0738177335502
 30
0.0
 11
22.29999544282986
 21
306.0738177335502
 31
0.0
  0
LINE
  5
5CB
330
1F
100
AcDbEntity
  8
0
100
AcDbLine
 10
22.29999544282986
 20
322.8738177335503
 30
0.0
 11
25.89999544282977
 21
322.8738177335503
 31
0.0
  0
CIRCLE
  5
5CC
330
1F
100
AcDbEntity
  8
0
100
AcDbCircle
 10
16.59999544282982
 20
342.9738177335504
 30
0.0
 40
1.399999999999999
  0
LINE
  5
5CD
330
1F
100
AcDbEntity
  8
0
100
AcDbLine
 10
12.99999544282968
 20
302.1738177335503
 30
0.0
 11
12.99999544282968
 21
275.9738177335504
 31
0.0
  0
LINE
  5
5CE
330
1F
100
AcDbEntity
  8
0
100
AcDbLine
 10
22.89999544282977
 20
331.0738177335502
 30
0.0
 11
25.89999544282977
 21
331.0738177335502
 31
0.0
  0
LINE
  5
5CF
330
1F
100
AcDbEntity
  8
0
100
AcDbLine
 10
12.99999544282968
 20
302.1738177335503
 30
0.0
 11
25.39999544282977
 21
302.1738177335503
 31
0.0
  0
CIRCLE
  5
5D0
330
1F
100
AcDbEntity
  8
0
100
AcDbCircle
 10
16.59999544282982
 20
347.7738177335503
 30
0.0
 40
1.399999999999999
  0
CIRCLE
  5
5D1
330
1F
100
AcDbEntity
  8
0
100
AcDbCircle
 10
21.6999954428297
 20
347.7738177335503
 30
0.0
 40
1.399999999999999
  0
LINE
  5
5D2
330
1F
100
AcDbEntity
  8
0
100
AcDbLine
 10
25.89999544282977
 20
331.0738177335502
 30
0.0
 11
25.89999544282977
 21
322.8738177335503
 31
0.0
  0
LINE
  5
5D3
330
1F
100
AcDbEntity
  8
0
100
AcDbLine
 10
22.89999544282977
 20
339.0738177335502
 30
0.0
 11
12.99999544282968
 21
339.0738177335502
 31
0.0
  0
LINE
  5
5D4
330
1F
100
AcDbEntity
  8
0
100
AcDbLine
 10
12.99999544282968
 20
339.0738177335502
 30
0.0
 11
12.99999544282968
 21
306.0738177335502
 31
0.0
  0
CIRCLE
  5
5D5
330
1F
100
AcDbEntity
  8
0
100
AcDbCircle
 10
21.6999954428297
 20
342.9738177335504
 30
0.0
 40
1.399999999999999
  0
LINE
  5
5D6
330
1F
100
AcDbEntity
  8
0
100
AcDbLine
 10
22.29999544282986
 20
322.8738177335503
 30
0.0
 11
22.29999544282986
 21
306.0738177335502
 31
0.0
  0
LINE
  5
5D7
330
1F
100
AcDbEntity
  8
0
100
AcDbLine
 10
49.99999544283082
 20
230.6738177335504
 30
0.0
 11
38.59999544282981
 21
230.6738177335504
 31
0.0
  0
LINE
  5
5D8
330
1F
100
AcDbEntity
  8
0
100
AcDbLine
 10
49.99999544283082
 20
232.6738177335504
 30
0.0
 11
38.59999544282981
 21
232.6738177335504
 31
0.0
  0
LINE
  5
5D9
330
1F
100
AcDbEntity
  8
0
100
AcDbLine
 10
49.99999544283082
 20
267.5738177335503
 30
0.0
 11
49.99999544283082
 21
232.6738177335504
 31
0.0
  0
LINE
  5
5DA
330
1F
100
AcDbEntity
  8
0
100
AcDbLine
 10
49.99999544283082
 20
230.6738177335504
 30
0.0
 11
49.99999544283082
 21
185.1738177335504
 31
0.0
  0
LINE
  5
5DB
330
1F
100
AcDbEntity
  8
0
100
AcDbLine
 10
38.59999544282981
 20
230.6738177335504
 30
0.0
 11
38.59999544282981
 21
185.1738177335504
 31
0.0
  0
LINE
  5
5DC
330
1F
100
AcDbEntity
  8
0
100
AcDbLine
 10
25.39999544282977
 20
302.1738177335503
 30
0.0
 11
25.39999544282977
 21
275.9738177335504
 31
0.0
  0
CIRCLE
  5
5DD
330
1F
100
AcDbEntity
  8
0
100
AcDbCircle
 10
18.24999532091169
 20
334.8038178928941
 30
0.0
 40
1.290290050200999
  0
LINE
  5
5DE
330
1F
100
AcDbEntity
  8
0
100
AcDbLine
 10
21.99999532091169
 20
338.5538178928941
 30
0.0
 11
14.09999532091183
 21
338.5538178928941
 31
0.0
  0
LINE
  5
5DF
330
1F
100
AcDbEntity
  8
0
100
AcDbLine
 10
21.99999532091169
 20
331.0538178928952
 30
0.0
 11
14.09999532091183
 21
331.0538178928952
 31
0.0
  0
LINE
  5
5E0
330
1F
100
AcDbEntity
  8
0
100
AcDbLine
 10
21.99999532091169
 20
331.0538178928952
 30
0.0
 11
21.99999532091169
 21
338.5538178928941
 31
0.0
  0
LINE
  5
5E1
330
1F
100
AcDbEntity
  8
0
100
AcDbLine
 10
14.49999532091168
 20
331.0538178928952
 30
0.0
 11
14.49999532091168
 21
338.5538178928941
 31
0.0
  0
LINE
  5
5E2
330
1F
100
AcDbEntity
  8
0
100
AcDbLine
 10
14.09999532091183
 20
337.6438178928943
 30
0.0
 11
14.09999532091183
 21
338.5538178928941
 31
0.0
  0
LINE
  5
5E3
330
1F
100
AcDbEntity
  8
0
100
AcDbLine
 10
14.09999532091274
 20
337.6438178928951
 30
0.0
 11
14.49999532091168
 21
337.6438178928951
 31
0.0
  0
LINE
  5
5E4
330
1F
100
AcDbEntity
  8
0
100
AcDbLine
 10
14.09999532091274
 20
337.0438178928953
 30
0.0
 11
14.49999532091168
 21
337.0438178928953
 31
0.0
  0
LINE
  5
5E5
330
1F
100
AcDbEntity
  8
0
100
AcDbLine
 10
14.09999532091274
 20
331.9638178928951
 30
0.0
 11
14.49999532091168
 21
331.9638178928951
 31
0.0
  0
LINE
  5
5E6
330
1F
100
AcDbEntity
  8
0
100
AcDbLine
 10
14.09999532091274
 20
332.5638178928953
 30
0.0
 11
14.49999532091168
 21
332.5638178928953
 31
0.0
  0
LINE
  5
5E7
330
1F
100
AcDbEntity
  8
0
100
AcDbLine
 10
14.09999532091274
 20
335.1038178928952
 30
0.0
 11
14.49999532091168
 21
335.1038178928952
 31
0.0
  0
LINE
  5
5E8
330
1F
100
AcDbEntity
  8
0
100
AcDbLine
 10
14.09999532091274
 20
334.5038178928953
 30
0.0
 11
14.49999532091168
 21
334.5038178928953
 31
0.0
  0
LINE
  5
5E9
330
1F
100
AcDbEntity
  8
0
100
AcDbLine
 10
14.09999532091183
 20
331.0538178928952
 30
0.0
 11
14.09999532091183
 21
331.9638178928951
 31
0.0
  0
LINE
  5
5EA
330
1F
100
AcDbEntity
  8
0
100
AcDbLine
 10
14.09999532091183
 20
307.0138178928941
 30
0.0
 11
21.34999532091272
 21
307.0138178928941
 31
0.0
  0
CIRCLE
  5
5EB
330
1F
100
AcDbEntity
  8
0
100
AcDbCircle
 10
17.59999532091182
 20
319.9638178928943
 30
0.0
 40
1.0
  0
CIRCLE
  5
5EC
330
1F
100
AcDbEntity
  8
0
100
AcDbCircle
 10
17.59999532091182
 20
316.4638178928941
 30
0.0
 40
1.0
  0
CIRCLE
  5
5ED
330
1F
100
AcDbEntity
  8
0
100
AcDbCircle
 10
17.59999532091182
 20
312.9638178928943
 30
0.0
 40
1.0
  0
CIRCLE
  5
5EE
330
1F
100
AcDbEntity
  8
0
100
AcDbCircle
 10
17.59999532091182
 20
309.4638178928943
 30
0.0
 40
1.0
  0
LINE
  5
5EF
330
1F
100
AcDbEntity
  8
0
100
AcDbLine
 10
21.34999532091272
 20
307.0138178928941
 30
0.0
 11
21.34999532091272
 21
322.4138178928941
 31
0.0
  0
LINE
  5
5F0
330
1F
100
AcDbEntity
  8
0
100
AcDbLine
 10
21.34999532091272
 20
322.4138178928941
 30
0.0
 11
14.09999532091183
 21
322.4138178928941
 31
0.0
  0
LINE
  5
5F1
330
1F
100
AcDbEntity
  8
0
100
AcDbLine
 10
14.09999532091183
 20
322.4138178928941
 30
0.0
 11
14.09999532091183
 21
307.0138178928941
 31
0.0
  0
LINE
  5
5F2
330
1F
100
AcDbEntity
  8
0
100
AcDbLine
 10
24.29999532091278
 20
324.8638178928942
 30
0.0
 11
19.52450039192081
 21
324.8638178928942
 31
0.0
  0
LINE
  5
5F3
330
1F
100
AcDbEntity
  8
0
100
AcDbLine
 10
24.29999532091278
 20
328.6038178928943
 30
0.0
 11
19.52450039192081
 21
328.6038178928943
 31
0.0
  0
LINE
  5
5F4
330
1F
100
AcDbEntity
  8
0
100
AcDbLine
 10
24.29999532091278
 20
323.4138178928943
 30
0.0
 11
14.09999532091274
 21
323.4138178928943
 31
0.0
  0
LINE
  5
5F5
330
1F
100
AcDbEntity
  8
0
100
AcDbLine
 10
24.29999532091278
 20
330.0538178928941
 30
0.0
 11
14.09999532091274
 21
330.0538178928941
 31
0.0
  0
LINE
  5
5F6
330
1F
100
AcDbEntity
  8
0
100
AcDbLine
 10
24.29999532091278
 20
327.4038178928941
 30
0.0
 11
21.29999532091278
 21
327.4038178928941
 31
0.0
  0
LINE
  5
5F7
330
1F
100
AcDbEntity
  8
0
100
AcDbLine
 10
24.29999532091278
 20
326.0638178928943
 30
0.0
 11
21.29999532091278
 21
326.0638178928943
 31
0.0
  0
LINE
  5
5F8
330
1F
100
AcDbEntity
  8
0
100
AcDbLine
 10
24.29999532091278
 20
324.8638178928942
 30
0.0
 11
21.29999532091278
 21
324.8638178928942
 31
0.0
  0
LINE
  5
5F9
330
1F
100
AcDbEntity
  8
0
100
AcDbLine
 10
21.29999532091278
 20
327.4038178928941
 30
0.0
 11
21.29999532091278
 21
328.6038178928943
 31
0.0
  0
LINE
  5
5FA
330
1F
100
AcDbEntity
  8
0
100
AcDbLine
 10
21.29999532091278
 20
324.8638178928942
 30
0.0
 11
21.29999532091278
 21
326.0638178928943
 31
0.0
  0
LINE
  5
5FB
330
1F
100
AcDbEntity
  8
0
100
AcDbLine
 10
22.79999532091278
 20
326.0638178928943
 30
0.0
 11
22.79999532091278
 21
327.4038178928941
 31
0.0
  0
LINE
  5
5FC
330
1F
100
AcDbEntity
  8
0
100
AcDbLine
 10
23.29999532091278
 20
327.4038178928941
 30
0.0
 11
23.29999532091278
 21
328.6038178928943
 31
0.0
  0
LINE
  5
5FD
330
1F
100
AcDbEntity
  8
0
100
AcDbLine
 10
23.29999532091278
 20
324.8638178928942
 30
0.0
 11
23.29999532091278
 21
326.0638178928943
 31
0.0
  0
LINE
  5
5FE
330
1F
100
AcDbEntity
  8
0
100
AcDbLine
 10
24.29999532091278
 20
323.4138178928943
 30
0.0
 11
24.29999532091278
 21
330.0538178928941
 31
0.0
  0
LINE
  5
5FF
330
1F
100
AcDbEntity
  8
0
100
AcDbLine
 10
19.52450039192081
 20
328.6038178928943
 30
0.0
 11
19.52450039192081
 21
324.8638178928942
 31
0.0
  0
LINE
  5
600
330
1F
100
AcDbEntity
  8
0
100
AcDbLine
 10
14.09999532091274
 20
323.4138178928943
 30
0.0
 11
14.09999532091274
 21
330.0538178928941
 31
0.0
  0
LINE
  5
601
330
1F
100
AcDbEntity
  8
0
100
AcDbLine
 10
14.09999532091274
 20
293.6338178928941
 30
0.0
 11
15.59999532091183
 21
293.6338178928941
 31
0.0
  0
LINE
  5
602
330
1F
100
AcDbEntity
  8
0
100
AcDbLine
 10
14.09999532091274
 20
288.5538178928941
 30
0.0
 11
15.59999532091183
 21
288.5538178928941
 31
0.0
  0
LINE
  5
603
330
1F
100
AcDbEntity
  8
0
100
AcDbLine
 10
14.09999532091274
 20
283.4738178928943
 30
0.0
 11
15.59999532091183
 21
283.4738178928943
 31
0.0
  0
LINE
  5
604
330
1F
100
AcDbEntity
  8
0
100
AcDbLine
 10
14.09999532091183
 20
298.1338178928941
 30
0.0
 11
15.59999532091183
 21
298.1338178928941
 31
0.0
  0
LINE
  5
605
330
1F
100
AcDbEntity
  8
0
100
AcDbLine
 10
14.09999532091183
 20
276.9738178928943
 30
0.0
 11
15.59999532091183
 21
276.9738178928943
 31
0.0
  0
LINE
  5
606
330
1F
100
AcDbEntity
  8
0
100
AcDbLine
 10
19.5999953209118
 20
293.1338178928941
 30
0.0
 11
20.59999532091182
 21
293.1338178928941
 31
0.0
  0
LINE
  5
607
330
1F
100
AcDbEntity
  8
0
100
AcDbLine
 10
19.5999953209118
 20
288.0538178928941
 30
0.0
 11
20.59999532091182
 21
288.0538178928941
 31
0.0
  0
LINE
  5
608
330
1F
100
AcDbEntity
  8
0
100
AcDbLine
 10
19.5999953209118
 20
282.9738178928943
 30
0.0
 11
20.59999532091182
 21
282.9738178928943
 31
0.0
  0
LINE
  5
609
330
1F
100
AcDbEntity
  8
0
100
AcDbLine
 10
15.59999532091183
 20
301.1338178928943
 30
0.0
 11
16.59999532091183
 21
301.1338178928943
 31
0.0
  0
LINE
  5
60A
330
1F
100
AcDbEntity
  8
0
100
AcDbLine
 10
16.59999532091183
 20
301.1338178928943
 30
0.0
 11
16.59999532091183
 21
276.9738178928943
 31
0.0
  0
LINE
  5
60B
330
1F
100
AcDbEntity
  8
0
100
AcDbLine
 10
24.08499532091173
 20
301.1338178928943
 30
0.0
 11
23.58499532091173
 21
301.1338178928943
 31
0.0
  0
LINE
  5
60C
330
1F
100
AcDbEntity
  8
0
100
AcDbLine
 10
23.58499532091173
 20
301.1338178928943
 30
0.0
 11
23.58499532091173
 21
276.9738178928943
 31
0.0
  0
LINE
  5
60D
330
1F
100
AcDbEntity
  8
0
100
AcDbLine
 10
24.94499532091162
 20
301.1338178928943
 30
0.0
 11
24.94499532091162
 21
276.9738178928943
 31
0.0
  0
LINE
  5
60E
330
1F
100
AcDbEntity
  8
0
100
AcDbLine
 10
15.59999532091183
 20
301.1338178928943
 30
0.0
 11
15.59999532091183
 21
300.1338178928941
 31
0.0
  0
LINE
  5
60F
330
1F
100
AcDbEntity
  8
0
100
AcDbLine
 10
16.59999532091183
 20
300.1338178928941
 30
0.0
 11
23.58499532091173
 21
300.1338178928941
 31
0.0
  0
LINE
  5
610
330
1F
100
AcDbEntity
  8
0
100
AcDbLine
 10
15.59999532091183
 20
276.9738178928943
 30
0.0
 11
15.59999532091183
 21
277.9738178928943
 31
0.0
  0
LINE
  5
611
330
1F
100
AcDbEntity
  8
0
100
AcDbLine
 10
16.59999532091183
 20
277.9738178928943
 30
0.0
 11
23.58499532091173
 21
277.9738178928943
 31
0.0
  0
LINE
  5
612
330
1F
100
AcDbEntity
  8
0
100
AcDbLine
 10
15.59999532091183
 20
276.9738178928943
 30
0.0
 11
24.94499532091162
 21
276.9738178928943
 31
0.0
  0
LINE
  5
613
330
1F
100
AcDbEntity
  8
0
100
AcDbLine
 10
24.94499532091162
 20
301.1338178928943
 30
0.0
 11
15.59999532091183
 21
301.1338178928943
 31
0.0
  0
LINE
  5
614
330
1F
100
AcDbEntity
  8
0
100
AcDbLine
 10
15.59999532091183
 20
301.1338178928943
 30
0.0
 11
15.59999532091183
 21
276.9738178928943
 31
0.0
  0
LINE
  5
615
330
1F
100
AcDbEntity
  8
0
100
AcDbLine
 10
20.59999532091182
 20
293.1338178928941
 30
0.0
 11
20.59999532091182
 21
295.1338178928941
 31
0.0
  0
LINE
  5
616
330
1F
100
AcDbEntity
  8
0
100
AcDbLine
 10
20.59999532091182
 20
295.1338178928941
 30
0.0
 11
19.5999953209118
 21
295.1338178928941
 31
0.0
  0
LINE
  5
617
330
1F
100
AcDbEntity
  8
0
100
AcDbLine
 10
19.5999953209118
 20
295.1338178928941
 30
0.0
 11
19.5999953209118
 21
293.1338178928941
 31
0.0
  0
LINE
  5
618
330
1F
100
AcDbEntity
  8
0
100
AcDbLine
 10
20.59999532091182
 20
288.0538178928941
 30
0.0
 11
20.59999532091182
 21
290.0538178928943
 31
0.0
  0
LINE
  5
619
330
1F
100
AcDbEntity
  8
0
100
AcDbLine
 10
20.59999532091182
 20
290.0538178928943
 30
0.0
 11
19.5999953209118
 21
290.0538178928943
 31
0.0
  0
LINE
  5
61A
330
1F
100
AcDbEntity
  8
0
100
AcDbLine
 10
19.5999953209118
 20
290.0538178928943
 30
0.0
 11
19.5999953209118
 21
288.0538178928941
 31
0.0
  0
LINE
  5
61B
330
1F
100
AcDbEntity
  8
0
100
AcDbLine
 10
20.59999532091182
 20
282.9738178928943
 30
0.0
 11
20.59999532091182
 21
284.9738178928943
 31
0.0
  0
LINE
  5
61C
330
1F
100
AcDbEntity
  8
0
100
AcDbLine
 10
20.59999532091182
 20
284.9738178928943
 30
0.0
 11
19.5999953209118
 21
284.9738178928943
 31
0.0
  0
LINE
  5
61D
330
1F
100
AcDbEntity
  8
0
100
AcDbLine
 10
19.5999953209118
 20
284.9738178928943
 30
0.0
 11
19.5999953209118
 21
282.9738178928943
 31
0.0
  0
LINE
  5
61E
330
1F
100
AcDbEntity
  8
0
100
AcDbLine
 10
15.59999532091183
 20
276.9738178928943
 30
0.0
 11
15.59999532091183
 21
279.9738178928943
 31
0.0
  0
LINE
  5
61F
330
1F
100
AcDbEntity
  8
0
100
AcDbLine
 10
15.59999532091183
 20
279.9738178928943
 30
0.0
 11
14.09999532091183
 21
279.9738178928943
 31
0.0
  0
LINE
  5
620
330
1F
100
AcDbEntity
  8
0
100
AcDbLine
 10
14.09999532091183
 20
279.9738178928943
 30
0.0
 11
14.09999532091183
 21
276.9738178928943
 31
0.0
  0
LINE
  5
621
330
1F
100
AcDbEntity
  8
0
100
AcDbLine
 10
15.59999532091183
 20
283.4738178928943
 30
0.0
 11
15.59999532091183
 21
284.4738178928943
 31
0.0
  0
LINE
  5
622
330
1F
100
AcDbEntity
  8
0
100
AcDbLine
 10
15.59999532091183
 20
284.4738178928943
 30
0.0
 11
14.09999532091274
 21
284.4738178928943
 31
0.0
  0
LINE
  5
623
330
1F
100
AcDbEntity
  8
0
100
AcDbLine
 10
15.59999532091183
 20
288.5538178928941
 30
0.0
 11
15.59999532091183
 21
289.5538178928942
 31
0.0
  0
LINE
  5
624
330
1F
100
AcDbEntity
  8
0
100
AcDbLine
 10
15.59999532091183
 20
289.5538178928942
 30
0.0
 11
14.09999532091274
 21
289.5538178928942
 31
0.0
  0
LINE
  5
625
330
1F
100
AcDbEntity
  8
0
100
AcDbLine
 10
15.59999532091183
 20
293.6338178928941
 30
0.0
 11
15.59999532091183
 21
294.6338178928943
 31
0.0
  0
LINE
  5
626
330
1F
100
AcDbEntity
  8
0
100
AcDbLine
 10
15.59999532091183
 20
294.6338178928943
 30
0.0
 11
14.09999532091274
 21
294.6338178928943
 31
0.0
  0
LINE
  5
627
330
1F
100
AcDbEntity
  8
0
100
AcDbLine
 10
15.59999532091183
 20
298.1338178928941
 30
0.0
 11
15.59999532091183
 21
301.1338178928943
 31
0.0
  0
LINE
  5
628
330
1F
100
AcDbEntity
  8
0
100
AcDbLine
 10
15.59999532091183
 20
301.1338178928943
 30
0.0
 11
14.09999532091183
 21
301.1338178928943
 31
0.0
  0
LINE
  5
629
330
1F
100
AcDbEntity
  8
0
100
AcDbLine
 10
14.09999532091183
 20
301.1338178928943
 30
0.0
 11
14.09999532091183
 21
298.1338178928941
 31
0.0
  0
LINE
  5
62A
330
1F
100
AcDbEntity
  8
0
100
AcDbLine
 10
14.09999532091183
 20
185.9738178928943
 30
0.0
 11
22.69999532091173
 21
185.9738178928943
 31
0.0
  0
CIRCLE
  5
62B
330
1F
100
AcDbEntity
  8
0
100
AcDbCircle
 10
18.09999532091182
 20
193.5938178928939
 30
0.0
 40
2.0
  0
CIRCLE
  5
62C
330
1F
100
AcDbEntity
  8
0
100
AcDbCircle
 10
18.09999532091182
 20
198.6738178928941
 30
0.0
 40
2.0
  0
CIRCLE
  5
62D
330
1F
100
AcDbEntity
  8
0
100
AcDbCircle
 10
18.09999532091182
 20
198.6738178928941
 30
0.0
 40
2.0
  0
CIRCLE
  5
62E
330
1F
100
AcDbEntity
  8
0
100
AcDbCircle
 10
18.09999532091182
 20
203.7538178928955
 30
0.0
 40
2.0
  0
CIRCLE
  5
62F
330
1F
100
AcDbEntity
  8
0
100
AcDbCircle
 10
18.09999532091182
 20
203.7538178928955
 30
0.0
 40
2.0
  0
CIRCLE
  5
630
330
1F
100
AcDbEntity
  8
0
100
AcDbCircle
 10
18.09999532091182
 20
213.9138178928939
 30
0.0
 40
2.0
  0
CIRCLE
  5
631
330
1F
100
AcDbEntity
  8
0
100
AcDbCircle
 10
18.09999532091182
 20
213.9138178928939
 30
0.0
 40
2.0
  0
CIRCLE
  5
632
330
1F
100
AcDbEntity
  8
0
100
AcDbCircle
 10
18.09999532091182
 20
218.993817892895
 30
0.0
 40
2.0
  0
CIRCLE
  5
633
330
1F
100
AcDbEntity
  8
0
100
AcDbCircle
 10
18.09999532091182
 20
188.8438178928941
 30
0.0
 40
1.0
  0
CIRCLE
  5
634
330
1F
100
AcDbEntity
  8
0
100
AcDbCircle
 10
18.09999532091182
 20
188.8438178928941
 30
0.0
 40
1.5
  0
CIRCLE
  5
635
330
1F
100
AcDbEntity
  8
0
100
AcDbCircle
 10
18.09999532091182
 20
223.743817892895
 30
0.0
 40
1.0
  0
CIRCLE
  5
636
330
1F
100
AcDbEntity
  8
0
100
AcDbCircle
 10
18.09999532091182
 20
223.743817892895
 30
0.0
 40
1.5
  0
CIRCLE
  5
637
330
1F
100
AcDbEntity
  8
0
100
AcDbCircle
 10
18.09999532091182
 20
208.8338178928943
 30
0.0
 40
2.0
  0
LINE
  5
638
330
1F
100
AcDbEntity
  8
0
100
AcDbLine
 10
22.69999532091173
 20
185.9738178928943
 30
0.0
 11
22.69999532091173
 21
226.6138178928941
 31
0.0
  0
LINE
  5
639
330
1F
100
AcDbEntity
  8
0
100
AcDbLine
 10
22.69999532091173
 20
226.6138178928941
 30
0.0
 11
14.09999532091183
 21
226.6138178928941
 31
0.0
  0
LINE
  5
63A
330
1F
100
AcDbEntity
  8
0
100
AcDbLine
 10
14.09999532091183
 20
226.6138178928941
 30
0.0
 11
14.09999532091183
 21
185.9738178928943
 31
0.0
  0
LINE
  5
63B
330
1F
100
AcDbEntity
  8
0
100
AcDbLine
 10
47.44999532091287
 20
204.0901010354859
 30
0.0
 11
47.44999532091287
 21
219.057534750303
 31
0.0
  0
LINE
  5
63C
330
1F
100
AcDbEntity
  8
0
100
AcDbLine
 10
41.14999532091268
 20
219.6738178928941
 30
0.0
 11
41.14999532091268
 21
203.4738178928943
 31
0.0
  0
LINE
  5
63D
330
1F
100
AcDbEntity
  8
0
100
AcDbLine
 10
42.69999532091286
 20
220.1738178928941
 30
0.0
 11
42.69999532091286
 21
202.9738178928943
 31
0.0
  0
LINE
  5
63E
330
1F
100
AcDbEntity
  8
0
100
AcDbLine
 10
45.89999532091267
 20
202.9738178928943
 30
0.0
 11
45.89999532091267
 21
220.1738178928941
 31
0.0
  0
LINE
  5
63F
330
1F
100
AcDbEntity
  8
0
100
AcDbLine
 10
39.69999532091287
 20
229.1738178928941
 30
0.0
 11
39.69999532091287
 21
193.9738178928943
 31
0.0
  0
LINE
  5
640
330
1F
100
AcDbEntity
  8
0
100
AcDbLine
 10
48.79999532091279
 20
192.9738178928943
 30
0.0
 11
48.79999532091279
 21
230.1738178928941
 31
0.0
  0
LINE
  5
641
330
1F
100
AcDbEntity
  8
0
100
AcDbLine
 10
49.09999532091274
 20
200.3738178928943
 30
0.0
 11
49.09999532091274
 21
193.2738178928945
 31
0.0
  0
CIRCLE
  5
642
330
1F
100
AcDbEntity
  8
0
100
AcDbCircle
 10
44.29999532091279
 20
195.9438178928943
 30
0.0
 40
1.399999999999999
  0
ARC
  5
643
330
1F
100
AcDbEntity
  8
0
100
AcDbCircle
 10
48.79999532091279
 20
193.2738178928945
 30
0.0
 40
0.3
100
AcDbArc
 50
270.0
 51
0.0
  0
LINE
  5
644
330
1F
100
AcDbEntity
  8
0
100
AcDbLine
 10
40.49999532091283
 20
192.9738178928943
 30
0.0
 11
48.79999532091279
 21
192.9738178928943
 31
0.0
  0
ARC
  5
645
330
1F
100
AcDbEntity
  8
0
100
AcDbCircle
 10
40.49999532091283
 20
193.4738178928943
 30
0.0
 40
0.5
100
AcDbArc
 50
180.0
 51
270.0
  0
LINE
  5
646
330
1F
100
AcDbEntity
  8
0
100
AcDbLine
 10
39.99999532091283
 20
193.9738178928943
 30
0.0
 11
39.99999532091283
 21
193.4738178928943
 31
0.0
  0
LINE
  5
647
330
1F
100
AcDbEntity
  8
0
100
AcDbLine
 10
39.69999532091287
 20
193.9738178928943
 30
0.0
 11
48.79999532091279
 21
193.9738178928943
 31
0.0
  0
ARC
  5
648
330
1F
100
AcDbEntity
  8
0
100
AcDbCircle
 10
45.44999532091288
 20
204.0901010354859
 30
0.0
 40
2.0
100
AcDbArc
 50
284.9999999999943
 51
0.0
  0
LINE
  5
649
330
1F
100
AcDbEntity
  8
0
100
AcDbLine
 10
43.66763341111775
 20
201.5419662403163
 30
0.0
 11
45.96763341111794
 21
202.1582493829074
 31
0.0
  0
ARC
  5
64A
330
1F
100
AcDbEntity
  8
0
100
AcDbCircle
 10
43.14999532091269
 20
203.4738178928943
 30
0.0
 40
2.0
100
AcDbArc
 50
180.0
 51
284.9999999999943
  0
LINE
  5
64B
330
1F
100
AcDbEntity
  8
0
100
AcDbLine
 10
42.69999532091286
 20
202.9738178928943
 30
0.0
 11
45.89999532091267
 21
202.9738178928943
 31
0.0
  0
LINE
  5
64C
330
1F
100
AcDbEntity
  8
0
100
AcDbLine
 10
48.79999532091279
 20
200.3738178928943
 30
0.0
 11
49.09999532091274
 21
200.3738178928943
 31
0.0
  0
LINE
  5
64D
330
1F
100
AcDbEntity
  8
0
100
AcDbLine
 10
47.44999532091287
 20
197.9738178928943
 30
0.0
 11
47.44999532091287
 21
200.3738178928943
 31
0.0
  0
LINE
  5
64E
330
1F
100
AcDbEntity
  8
0
100
AcDbLine
 10
41.14999532091268
 20
200.3738178928943
 30
0.0
 11
41.14999532091268
 21
197.9738178928943
 31
0.0
  0
LINE
  5
64F
330
1F
100
AcDbEntity
  8
0
100
AcDbLine
 10
41.14999532091268
 20
200.3738178928943
 30
0.0
 11
47.44999532091287
 21
200.3738178928943
 31
0.0
  0
LINE
  5
650
330
1F
100
AcDbEntity
  8
0
100
AcDbLine
 10
41.14999532091268
 20
198.4738178928943
 30
0.0
 11
47.44999532091287
 21
198.4738178928943
 31
0.0
  0
LINE
  5
651
330
1F
100
AcDbEntity
  8
0
100
AcDbLine
 10
41.14999532091268
 20
197.9738178928943
 30
0.0
 11
47.44999532091287
 21
197.9738178928943
 31
0.0
  0
ARC
  5
652
330
1F
100
AcDbEntity
  8
0
100
AcDbCircle
 10
48.79999532091279
 20
229.8738178928952
 30
0.0
 40
0.3
100
AcDbArc
 50
0.0
 51
90.0
  0
LINE
  5
653
330
1F
100
AcDbEntity
  8
0
100
AcDbLine
 10
49.09999532091274
 20
229.8738178928952
 30
0.0
 11
49.09999532091274
 21
222.7738178928944
 31
0.0
  0
LINE
  5
654
330
1F
100
AcDbEntity
  8
0
100
AcDbLine
 10
40.49999532091283
 20
230.1738178928941
 30
0.0
 11
48.79999532091279
 21
230.1738178928955
 31
0.0
  0
ARC
  5
655
330
1F
100
AcDbEntity
  8
0
100
AcDbCircle
 10
45.44999532091288
 20
219.057534750303
 30
0.0
 40
2.0
100
AcDbArc
 50
0.0
 51
75.00000000000555
  0
LINE
  5
656
330
1F
100
AcDbEntity
  8
0
100
AcDbLine
 10
43.66763341111775
 20
221.6056695454723
 30
0.0
 11
45.96763341111794
 21
220.9893864028813
 31
0.0
  0
ARC
  5
657
330
1F
100
AcDbEntity
  8
0
100
AcDbCircle
 10
43.14999532091269
 20
219.6738178928941
 30
0.0
 40
2.0
100
AcDbArc
 50
75.00000000000555
 51
180.0
  0
LINE
  5
658
330
1F
100
AcDbEntity
  8
0
100
AcDbLine
 10
45.89999532091267
 20
220.1738178928941
 30
0.0
 11
42.69999532091286
 21
220.1738178928954
 31
0.0
  0
ARC
  5
659
330
1F
100
AcDbEntity
  8
0
100
AcDbCircle
 10
40.49999532091283
 20
229.673817892894
 30
0.0
 40
0.5
100
AcDbArc
 50
90.0
 51
180.0
  0
LINE
  5
65A
330
1F
100
AcDbEntity
  8
0
100
AcDbLine
 10
39.99999532091283
 20
229.673817892894
 30
0.0
 11
39.99999532091283
 21
229.1738178928941
 31
0.0
  0
LINE
  5
65B
330
1F
100
AcDbEntity
  8
0
100
AcDbLine
 10
39.69999532091287
 20
229.1738178928941
 30
0.0
 11
48.79999532091279
 21
229.1738178928941
 31
0.0
  0
LINE
  5
65C
330
1F
100
AcDbEntity
  8
0
100
AcDbLine
 10
48.79999532091279
 20
222.7738178928944
 30
0.0
 11
49.09999532091274
 21
222.7738178928944
 31
0.0
  0
LINE
  5
65D
330
1F
100
AcDbEntity
  8
0
100
AcDbLine
 10
47.44999532091287
 20
222.7738178928944
 30
0.0
 11
47.44999532091287
 21
225.1738178928955
 31
0.0
  0
LINE
  5
65E
330
1F
100
AcDbEntity
  8
0
100
AcDbLine
 10
41.14999532091268
 20
225.1738178928955
 30
0.0
 11
41.14999532091268
 21
222.7738178928944
 31
0.0
  0
LINE
  5
65F
330
1F
100
AcDbEntity
  8
0
100
AcDbLine
 10
41.14999532091268
 20
222.7738178928944
 30
0.0
 11
47.44999532091287
 21
222.7738178928944
 31
0.0
  0
LINE
  5
660
330
1F
100
AcDbEntity
  8
0
100
AcDbLine
 10
41.14999532091268
 20
224.6738178928941
 30
0.0
 11
47.44999532091287
 21
224.6738178928941
 31
0.0
  0
LINE
  5
661
330
1F
100
AcDbEntity
  8
0
100
AcDbLine
 10
41.14999532091268
 20
225.1738178928941
 30
0.0
 11
47.44999532091287
 21
225.1738178928941
 31
0.0
  0
CIRCLE
  5
662
330
1F
100
AcDbEntity
  8
0
100
AcDbCircle
 10
44.29999532091279
 20
227.2038178928943
 30
0.0
 40
1.399999999999999
  0
LINE
  5
663
330
1F
100
AcDbEntity
  8
0
100
AcDbLine
 10
48.79999532091279
 20
215.3838178928952
 30
0.0
 11
49.09999532091274
 21
215.3838178928952
 31
0.0
  0
LINE
  5
664
330
1F
100
AcDbEntity
  8
0
100
AcDbLine
 10
48.79999532091279
 20
214.1138178928952
 30
0.0
 11
49.09999532091274
 21
214.1138178928952
 31
0.0
  0
LINE
  5
665
330
1F
100
AcDbEntity
  8
0
100
AcDbLine
 10
48.79999532091279
 20
212.8438178928952
 30
0.0
 11
49.09999532091274
 21
212.8438178928952
 31
0.0
  0
LINE
  5
666
330
1F
100
AcDbEntity
  8
0
100
AcDbLine
 10
48.79999532091279
 20
211.573817892895
 30
0.0
 11
49.09999532091274
 21
211.573817892895
 31
0.0
  0
LINE
  5
667
330
1F
100
AcDbEntity
  8
0
100
AcDbLine
 10
48.79999532091279
 20
210.3038178928954
 30
0.0
 11
49.09999532091274
 21
210.3038178928954
 31
0.0
  0
LINE
  5
668
330
1F
100
AcDbEntity
  8
0
100
AcDbLine
 10
48.79999532091279
 20
209.0338178928953
 30
0.0
 11
49.09999532091274
 21
209.0338178928953
 31
0.0
  0
LINE
  5
669
330
1F
100
AcDbEntity
  8
0
100
AcDbLine
 10
48.79999532091279
 20
207.763817892895
 30
0.0
 11
49.09999532091274
 21
207.763817892895
 31
0.0
  0
LINE
  5
66A
330
1F
100
AcDbEntity
  8
0
100
AcDbLine
 10
48.79999532091279
 20
217.9238178928954
 30
0.0
 11
49.09999532091274
 21
217.9238178928954
 31
0.0
  0
LINE
  5
66B
330
1F
100
AcDbEntity
  8
0
100
AcDbLine
 10
48.79999532091279
 20
216.6538178928949
 30
0.0
 11
49.09999532091274
 21
216.6538178928955
 31
0.0
  0
LINE
  5
66C
330
1F
100
AcDbEntity
  8
0
100
AcDbLine
 10
48.79999532091279
 20
215.3838178928952
 30
0.0
 11
49.09999532091274
 21
215.3838178928952
 31
0.0
  0
LINE
  5
66D
330
1F
100
AcDbEntity
  8
0
100
AcDbLine
 10
48.79999532091279
 20
219.1938178928943
 30
0.0
 11
49.09999532091274
 21
219.1938178928943
 31
0.0
  0
LINE
  5
66E
330
1F
100
AcDbEntity
  8
0
100
AcDbLine
 10
48.79999532091279
 20
217.9238178928954
 30
0.0
 11
49.09999532091274
 21
217.9238178928954
 31
0.0
  0
LINE
  5
66F
330
1F
100
AcDbEntity
  8
0
100
AcDbLine
 10
48.79999532091279
 20
207.763817892895
 30
0.0
 11
49.09999532091274
 21
207.763817892895
 31
0.0
  0
LINE
  5
670
330
1F
100
AcDbEntity
  8
0
100
AcDbLine
 10
48.79999532091279
 20
206.4938178928955
 30
0.0
 11
49.09999532091274
 21
206.4938178928955
 31
0.0
  0
LINE
  5
671
330
1F
100
AcDbEntity
  8
0
100
AcDbLine
 10
48.79999532091279
 20
205.2238178928948
 30
0.0
 11
49.09999532091274
 21
205.2238178928948
 31
0.0
  0
LINE
  5
672
330
1F
100
AcDbEntity
  8
0
100
AcDbLine
 10
48.79999532091279
 20
203.9538178928952
 30
0.0
 11
49.09999532091274
 21
203.9538178928952
 31
0.0
  0
LINE
  5
673
330
1F
100
AcDbEntity
  8
0
100
AcDbLine
 10
14.09999532091274
 20
185.1738177335504
 30
0.0
 11
14.09999532091274
 21
271.4738177335504
 31
0.0
  0
LINE
  5
67D
330
1F
100
AcDbEntity
  8
0
100
AcDbLine
 10
49.09999532091183
 20
185.9738178928943
 30
0.0
 11
49.09999532091183
 21
191.4738178928943
 31
0.0
  0
CIRCLE
  5
67E
330
1F
100
AcDbEntity
  8
0
100
AcDbCircle
 10
45.66999532091061
 20
187.4738178928939
 30
0.0
 40
0.32
  0
CIRCLE
  5
67F
330
1F
100
AcDbEntity
  8
0
100
AcDbCircle
 10
45.66999532091061
 20
189.9738178928943
 30
0.0
 40
0.32
  0
LINE
  5
680
330
1F
100
AcDbEntity
  8
0
100
AcDbLine
 10
42.59999532091183
 20
185.9738178928943
 30
0.0
 11
43.59999532091181
 21
185.9738178928943
 31
0.0
  0
LINE
  5
681
330
1F
100
AcDbEntity
  8
0
100
AcDbLine
 10
43.59999532091181
 20
185.9738178928943
 30
0.0
 11
43.59999532091181
 21
191.4738178928943
 31
0.0
  0
LINE
  5
682
330
1F
100
AcDbEntity
  8
0
100
AcDbLine
 10
43.59999532091181
 20
187.9738178928943
 30
0.0
 11
43.59999532091181
 21
189.4738178928943
 31
0.0
  0
LINE
  5
683
330
1F
100
AcDbEntity
  8
0
100
AcDbLine
 10
43.59999532091181
 20
189.4738178928943
 30
0.0
 11
42.59999532091183
 21
189.4738178928943
 31
0.0
  0
LINE
  5
684
330
1F
100
AcDbEntity
  8
0
100
AcDbLine
 10
42.59999532091183
 20
189.4738178928943
 30
0.0
 11
42.59999532091183
 21
187.9738178928943
 31
0.0
  0
LINE
  5
685
330
1F
100
AcDbEntity
  8
0
100
AcDbLine
 10
42.59999532091183
 20
187.9738178928943
 30
0.0
 11
43.59999532091181
 21
187.9738178928943
 31
0.0
  0
LINE
  5
686
330
1F
100
AcDbEntity
  8
0
100
AcDbLine
 10
49.09999532091183
 20
191.4738178928943
 30
0.0
 11
42.59999532091183
 21
191.4738178928943
 31
0.0
  0
LINE
  5
687
330
1F
100
AcDbEntity
  8
0
100
AcDbLine
 10
42.59999532091183
 20
191.4738178928943
 30
0.0
 11
42.59999532091183
 21
185.9738178928943
 31
0.0
  0
LINE
  5
688
330
1F
100
AcDbEntity
  8
0
100
AcDbLine
 10
42.59999532091183
 20
185.9738178928943
 30
0.0
 11
49.09999532091183
 21
185.9738178928943
 31
0.0
  0
CIRCLE
  5
689
330
1F
100
AcDbEntity
  8
0
100
AcDbCircle
 10
18.09999532091182
 20
238.6138178928943
 30
0.0
 40
0.75
  0
LINE
  5
68A
330
1F
100
AcDbEntity
  8
0
100
AcDbLine
 10
22.59999532091182
 20
234.6138178928943
 30
0.0
 11
22.59999532091182
 21
265.1138178928943
 31
0.0
  0
LINE
  5
68B
330
1F
100
AcDbEntity
  8
0
100
AcDbLine
 10
14.09999532091183
 20
270.4738178928943
 30
0.0
 11
14.09999532091183
 21
229.6138178928943
 31
0.0
  0
LINE
  5
68C
330
1F
100
AcDbEntity
  8
0
100
AcDbLine
 10
20.29999532091165
 20
239.923817892894
 30
0.0
 11
20.29999532091165
 21
237.3038178928943
 31
0.0
  0
ARC
  5
68D
330
1F
100
AcDbEntity
  8
0
100
AcDbCircle
 10
18.09999532091182
 20
238.6138178928943
 30
0.0
 40
2.9
100
AcDbArc
 50
133.6028189726939
 51
226.3971810273058
  0
CIRCLE
  5
68E
330
1F
100
AcDbEntity
  8
0
100
AcDbCircle
 10
18.09999532091182
 20
238.6138178928943
 30
0.0
 40
1.5
  0
CIRCLE
  5
68F
330
1F
100
AcDbEntity
  8
0
100
AcDbCircle
 10
18.06360926050865
 20
232.5138178928941
 30
0.0
 40
2.0
  0
LINE
  5
690
330
1F
100
AcDbEntity
  8
0
100
AcDbLine
 10
14.09999532091183
 20
229.6138178928943
 30
0.0
 11
21.09999532091181
 21
229.6138178928943
 31
0.0
  0
LINE
  5
691
330
1F
100
AcDbEntity
  8
0
100
AcDbLine
 10
16.09999532091183
 20
235.6138178928943
 30
0.0
 11
21.09999532091181
 21
235.6138178928943
 31
0.0
  0
LINE
  5
692
330
1F
100
AcDbEntity
  8
0
100
AcDbLine
 10
16.09999532091183
 20
236.5138178928939
 30
0.0
 11
16.09999532091183
 21
235.6138178928943
 31
0.0
  0
LINE
  5
693
330
1F
100
AcDbEntity
  8
0
100
AcDbLine
 10
21.09999532091181
 20
229.6138178928943
 30
0.0
 11
21.09999532091181
 21
234.6138178928943
 31
0.0
  0
CIRCLE
  5
694
330
1F
100
AcDbEntity
  8
0
100
AcDbCircle
 10
18.06360926050865
 20
232.5138178928941
 30
0.0
 40
0.9
  0
LINE
  5
695
330
1F
100
AcDbEntity
  8
0
100
AcDbLine
 10
21.09999532091181
 20
234.6138178928943
 30
0.0
 11
22.59999532091182
 21
234.6138178928943
 31
0.0
  0
LINE
  5
696
330
1F
100
AcDbEntity
  8
0
100
AcDbLine
 10
20.29999532091165
 20
237.3038178928943
 30
0.0
 11
21.09999532091181
 21
237.3038178928943
 31
0.0
  0
LINE
  5
697
330
1F
100
AcDbEntity
  8
0
100
AcDbLine
 10
21.09999532091181
 20
237.3038178928943
 30
0.0
 11
21.09999532091181
 21
235.6138178928943
 31
0.0
  0
ARC
  5
698
330
1F
100
AcDbEntity
  8
0
100
AcDbCircle
 10
18.09999532091182
 20
261.4738178928943
 30
0.0
 40
2.9
100
AcDbArc
 50
133.6028189726939
 51
226.3971810273058
  0
LINE
  5
699
330
1F
100
AcDbEntity
  8
0
100
AcDbLine
 10
21.09999532091181
 20
260.163817892894
 30
0.0
 11
21.09999532091181
 21
255.1638178928941
 31
0.0
  0
LINE
  5
69A
330
1F
100
AcDbEntity
  8
0
100
AcDbLine
 10
21.09999532091181
 20
252.5438178928943
 30
0.0
 11
21.09999532091181
 21
247.5438178928945
 31
0.0
  0
LINE
  5
69B
330
1F
100
AcDbEntity
  8
0
100
AcDbLine
 10
16.09999532091183
 20
251.7538178928944
 30
0.0
 11
16.09999532091183
 21
248.3338178928943
 31
0.0
  0
ARC
  5
69C
330
1F
100
AcDbEntity
  8
0
100
AcDbCircle
 10
18.09999532091182
 20
246.2338178928943
 30
0.0
 40
2.9
100
AcDbArc
 50
133.6028189726939
 51
226.3971810273058
  0
LINE
  5
69D
330
1F
100
AcDbEntity
  8
0
100
AcDbLine
 10
16.09999532091183
 20
244.1338178928941
 30
0.0
 11
16.09999532091183
 21
240.7138178928943
 31
0.0
  0
CIRCLE
  5
69E
330
1F
100
AcDbEntity
  8
0
100
AcDbCircle
 10
18.09999532091182
 20
246.2338178928943
 30
0.0
 40
1.5
  0
LINE
  5
69F
330
1F
100
AcDbEntity
  8
0
100
AcDbLine
 10
21.09999532091181
 20
244.9238178928941
 30
0.0
 11
21.09999532091181
 21
239.923817892894
 31
0.0
  0
LINE
  5
6A0
330
1F
100
AcDbEntity
  8
0
100
AcDbLine
 10
20.29999532091165
 20
239.923817892894
 30
0.0
 11
21.09999532091181
 21
239.923817892894
 31
0.0
  0
LINE
  5
6A1
330
1F
100
AcDbEntity
  8
0
100
AcDbLine
 10
22.59999532091182
 20
242.1638178928939
 30
0.0
 11
24.29999532091164
 21
242.1638178928939
 31
0.0
  0
LINE
  5
6A2
330
1F
100
AcDbEntity
  8
0
100
AcDbLine
 10
24.29999532091164
 20
240.5638178928944
 30
0.0
 11
22.59999532091182
 21
240.5638178928944
 31
0.0
  0
LINE
  5
6A3
330
1F
100
AcDbEntity
  8
0
100
AcDbLine
 10
24.29999532091164
 20
242.1638178928939
 30
0.0
 11
24.29999532091164
 21
240.5638178928944
 31
0.0
  0
CIRCLE
  5
6A4
330
1F
100
AcDbEntity
  8
0
100
AcDbCircle
 10
18.09999532091182
 20
246.2338178928943
 30
0.0
 40
0.75
  0
LINE
  5
6A5
330
1F
100
AcDbEntity
  8
0
100
AcDbLine
 10
20.29999532091165
 20
244.9238178928941
 30
0.0
 11
21.09999532091181
 21
244.9238178928941
 31
0.0
  0
LINE
  5
6A6
330
1F
100
AcDbEntity
  8
0
100
AcDbLine
 10
20.29999532091165
 20
247.5438178928945
 30
0.0
 11
21.09999532091181
 21
247.5438178928945
 31
0.0
  0
LINE
  5
6A7
330
1F
100
AcDbEntity
  8
0
100
AcDbLine
 10
20.29999532091165
 20
247.5438178928945
 30
0.0
 11
20.29999532091165
 21
244.9238178928941
 31
0.0
  0
ARC
  5
6A8
330
1F
100
AcDbEntity
  8
0
100
AcDbCircle
 10
18.09999532091182
 20
253.8538178928943
 30
0.0
 40
2.9
100
AcDbArc
 50
133.6028189726939
 51
226.3971810273058
  0
LINE
  5
6A9
330
1F
100
AcDbEntity
  8
0
100
AcDbLine
 10
16.09999532091183
 20
259.3738178928941
 30
0.0
 11
16.09999532091183
 21
255.9538178928943
 31
0.0
  0
LINE
  5
6AA
330
1F
100
AcDbEntity
  8
0
100
AcDbLine
 10
24.29999532091164
 20
257.5638178928944
 30
0.0
 11
22.59999532091182
 21
257.5638178928944
 31
0.0
  0
LINE
  5
6AB
330
1F
100
AcDbEntity
  8
0
100
AcDbLine
 10
24.29999532091164
 20
259.1638178928941
 30
0.0
 11
22.59999532091182
 21
259.1638178928941
 31
0.0
  0
LINE
  5
6AC
330
1F
100
AcDbEntity
  8
0
100
AcDbLine
 10
24.29999532091164
 20
259.1638178928941
 30
0.0
 11
24.29999532091164
 21
257.5638178928944
 31
0.0
  0
LINE
  5
6AD
330
1F
100
AcDbEntity
  8
0
100
AcDbLine
 10
20.29999532091165
 20
255.1638178928941
 30
0.0
 11
21.09999532091181
 21
255.1638178928941
 31
0.0
  0
CIRCLE
  5
6AE
330
1F
100
AcDbEntity
  8
0
100
AcDbCircle
 10
18.09999532091182
 20
253.8538178928943
 30
0.0
 40
0.75
  0
LINE
  5
6AF
330
1F
100
AcDbEntity
  8
0
100
AcDbLine
 10
20.29999532091165
 20
252.5438178928943
 30
0.0
 11
21.09999532091181
 21
252.5438178928943
 31
0.0
  0
CIRCLE
  5
6B0
330
1F
100
AcDbEntity
  8
0
100
AcDbCircle
 10
18.09999532091182
 20
253.8538178928943
 30
0.0
 40
1.5
  0
LINE
  5
6B1
330
1F
100
AcDbEntity
  8
0
100
AcDbLine
 10
20.29999532091165
 20
255.1638178928941
 30
0.0
 11
20.29999532091165
 21
252.5438178928943
 31
0.0
  0
LINE
  5
6B2
330
1F
100
AcDbEntity
  8
0
100
AcDbLine
 10
21.09999532091181
 20
265.4738178928943
 30
0.0
 11
21.09999532091181
 21
270.4738178928943
 31
0.0
  0
CIRCLE
  5
6B3
330
1F
100
AcDbEntity
  8
0
100
AcDbCircle
 10
18.09999532091182
 20
267.5738178928941
 30
0.0
 40
2.0
  0
LINE
  5
6B4
330
1F
100
AcDbEntity
  8
0
100
AcDbLine
 10
21.09999532091181
 20
264.1138178928942
 30
0.0
 11
16.09999532091183
 21
264.1138178928942
 31
0.0
  0
LINE
  5
6B5
330
1F
100
AcDbEntity
  8
0
100
AcDbLine
 10
16.09999532091183
 20
264.1138178928942
 30
0.0
 11
16.09999532091183
 21
263.5738178928941
 31
0.0
  0
LINE
  5
6B6
330
1F
100
AcDbEntity
  8
0
100
AcDbLine
 10
21.09999532091181
 20
265.4738178928943
 30
0.0
 11
22.59999532091182
 21
265.4738178928943
 31
0.0
  0
CIRCLE
  5
6B7
330
1F
100
AcDbEntity
  8
0
100
AcDbCircle
 10
18.09999532091182
 20
267.5738178928941
 30
0.0
 40
0.9
  0
LINE
  5
6B8
330
1F
100
AcDbEntity
  8
0
100
AcDbLine
 10
20.29999532091165
 20
262.7838178928941
 30
0.0
 11
21.09999532091181
 21
262.7838178928941
 31
0.0
  0
LINE
  5
6B9
330
1F
100
AcDbEntity
  8
0
100
AcDbLine
 10
21.09999532091181
 20
264.1138178928942
 30
0.0
 11
21.09999532091181
 21
262.7838178928941
 31
0.0
  0
LINE
  5
6BA
330
1F
100
AcDbEntity
  8
0
100
AcDbLine
 10
20.29999532091165
 20
260.163817892894
 30
0.0
 11
21.09999532091181
 21
260.163817892894
 31
0.0
  0
CIRCLE
  5
6BB
330
1F
100
AcDbEntity
  8
0
100
AcDbCircle
 10
18.09999532091182
 20
261.4738178928943
 30
0.0
 40
0.75
  0
LINE
  5
6BC
330
1F
100
AcDbEntity
  8
0
100
AcDbLine
 10
20.29999532091165
 20
262.7838178928941
 30
0.0
 11
20.29999532091165
 21
260.163817892894
 31
0.0
  0
CIRCLE
  5
6BD
330
1F
100
AcDbEntity
  8
0
100
AcDbCircle
 10
18.09999532091182
 20
261.4738178928943
 30
0.0
 40
1.5
  0
LINE
  5
6BE
330
1F
100
AcDbEntity
  8
0
100
AcDbLine
 10
22.59999532091182
 20
265.4738178928943
 30
0.0
 11
22.59999532091182
 21
265.1138178928943
 31
0.0
  0
LINE
  5
6BF
330
1F
100
AcDbEntity
  8
0
100
AcDbLine
 10
14.09999532091183
 20
270.4738178928943
 30
0.0
 11
21.09999532091181
 21
270.4738178928943
 31
0.0
  0
LINE
  5
6C0
330
1F
100
AcDbEntity
  8
0
100
AcDbLine
 10
14.09999532091183
 20
265.2338178928943
 30
0.0
 11
14.09999532091183
 21
270.4738178928943
 31
0.0
  0
LINE
  5
6C1
330
1F
100
AcDbEntity
  8
0
100
AcDbLine
 10
14.09999532091183
 20
270.4738178928943
 30
0.0
 11
21.09999532091181
 21
270.4738178928943
 31
0.0
  0
LINE
  5
6C2
330
1F
100
AcDbEntity
  8
0
100
AcDbLine
 10
21.09999532091181
 20
270.4738178928943
 30
0.0
 11
21.09999532091181
 21
265.2338178928943
 31
0.0
  0
LINE
  5
6C3
330
1F
100
AcDbEntity
  8
0
100
AcDbLine
 10
14.09999532091183
 20
234.8538178928943
 30
0.0
 11
14.09999532091183
 21
229.6138178928943
 31
0.0
  0
LINE
  5
6C4
330
1F
100
AcDbEntity
  8
0
100
AcDbLine
 10
14.09999532091183
 20
229.6138178928943
 30
0.0
 11
21.09999532091181
 21
229.6138178928943
 31
0.0
  0
LINE
  5
6C5
330
1F
100
AcDbEntity
  8
0
100
AcDbLine
 10
21.09999532091181
 20
229.6138178928943
 30
0.0
 11
21.09999532091181
 21
234.8538178928943
 31
0.0
  0
LINE
  5
6C6
330
1F
100
AcDbEntity
  8
0
100
AcDbLine
 10
41.19999532091195
 20
242.0738178928943
 30
0.0
 11
49.09999532091183
 21
242.0738178928943
 31
0.0
  0
LINE
  5
6C7
330
1F
100
AcDbEntity
  8
0
100
AcDbLine
 10
42.14999532091065
 20
243.0738178928939
 30
0.0
 11
48.14999532091178
 21
243.0738178928939
 31
0.0
  0
LINE
  5
6C8
330
1F
100
AcDbEntity
  8
0
100
AcDbLine
 10
43.14999532091177
 20
243.0738178928939
 30
0.0
 11
44.14999532091065
 21
243.0738178928939
 31
0.0
  0
LINE
  5
6C9
330
1F
100
AcDbEntity
  8
0
100
AcDbLine
 10
44.94999532091195
 20
243.0738178928939
 30
0.0
 11
44.94999532091195
 21
246.0738178928943
 31
0.0
  0
LINE
  5
6CA
330
1F
100
AcDbEntity
  8
0
100
AcDbLine
 10
48.14999532091178
 20
243.0738178928939
 30
0.0
 11
48.14999532091178
 21
246.0738178928943
 31
0.0
  0
LINE
  5
6CB
330
1F
100
AcDbEntity
  8
0
100
AcDbLine
 10
48.14999532091178
 20
246.0738178928943
 30
0.0
 11
42.14999532091065
 21
246.0738178928943
 31
0.0
  0
LINE
  5
6CC
330
1F
100
AcDbEntity
  8
0
100
AcDbLine
 10
42.14999532091065
 20
246.0738178928943
 30
0.0
 11
42.14999532091065
 21
243.0738178928939
 31
0.0
  0
LINE
  5
6CD
330
1F
100
AcDbEntity
  8
0
100
AcDbLine
 10
44.14999532091065
 20
243.0738178928939
 30
0.0
 11
44.14999532091065
 21
246.0738178928943
 31
0.0
  0
LINE
  5
6CE
330
1F
100
AcDbEntity
  8
0
100
AcDbLine
 10
44.14999532091065
 20
246.0738178928943
 30
0.0
 11
43.14999532091177
 21
246.0738178928943
 31
0.0
  0
LINE
  5
6CF
330
1F
100
AcDbEntity
  8
0
100
AcDbLine
 10
43.14999532091177
 20
246.0738178928943
 30
0.0
 11
43.14999532091177
 21
243.0738178928939
 31
0.0
  0
LINE
  5
6D0
330
1F
100
AcDbEntity
  8
0
100
AcDbLine
 10
49.09999532091183
 20
242.0738178928943
 30
0.0
 11
49.09999532091183
 21
247.0738178928939
 31
0.0
  0
LINE
  5
6D1
330
1F
100
AcDbEntity
  8
0
100
AcDbLine
 10
49.09999532091183
 20
247.0738178928939
 30
0.0
 11
41.19999532091195
 21
247.0738178928939
 31
0.0
  0
LINE
  5
6D2
330
1F
100
AcDbEntity
  8
0
100
AcDbLine
 10
41.19999532091195
 20
247.0738178928939
 30
0.0
 11
41.19999532091195
 21
242.0738178928943
 31
0.0
  0
CIRCLE
  5
6D3
330
1F
100
AcDbEntity
  8
0
100
AcDbCircle
 10
2.499995320912828
 20
203.9738178928943
 30
0.0
 40
2.149999999999999
  0
CIRCLE
  5
6D4
330
1F
100
AcDbEntity
  8
0
100
AcDbCircle
 10
2.499995320912828
 20
203.9738178928943
 30
0.0
 40
1.85
  0
LINE
  5
6D5
330
1F
100
AcDbEntity
  8
0
100
AcDbLine
 10
1.149995320911784
 20
203.6738178928941
 30
0.0
 11
3.849995320912738
 21
203.6738178928941
 31
0.0
  0
LINE
  5
6D6
330
1F
100
AcDbEntity
  8
0
100
AcDbLine
 10
2.349995320912739
 20
203.9738178928943
 30
0.0
 11
2.349995320912739
 21
205.3238178928939
 31
0.0
  0
LINE
  5
6D7
330
1F
100
AcDbEntity
  8
0
100
AcDbLine
 10
2.649995320911784
 20
203.9738178928943
 30
0.0
 11
2.649995320911784
 21
205.3238178928939
 31
0.0
  0
ARC
  5
6D8
330
1F
100
AcDbEntity
  8
0
100
AcDbCircle
 10
2.499995320912828
 20
205.3238178928939
 30
0.0
 40
0.15
100
AcDbArc
 50
0.0
 51
180.0
  0
ARC
  5
6D9
330
1F
100
AcDbEntity
  8
0
100
AcDbCircle
 10
1.149995320911784
 20
203.8238178928938
 30
0.0
 40
0.15
100
AcDbArc
 50
90.0
 51
270.0
  0
ARC
  5
6DA
330
1F
100
AcDbEntity
  8
0
100
AcDbCircle
 10
3.849995320912738
 20
203.8238178928938
 30
0.0
 40
0.15
100
AcDbArc
 50
270.0
 51
90.0
  0
LINE
  5
6DB
330
1F
100
AcDbEntity
  8
0
100
AcDbLine
 10
1.149995320911784
 20
203.9738178928943
 30
0.0
 11
2.349995320912739
 21
203.9738178928943
 31
0.0
  0
LINE
  5
6DC
330
1F
100
AcDbEntity
  8
0
100
AcDbLine
 10
2.649995320911784
 20
203.9738178928943
 30
0.0
 11
3.849995320912738
 21
203.9738178928943
 31
0.0
  0
LINE
  5
6DD
330
1F
100
AcDbEntity
  8
0
100
AcDbLine
 10
1.549995320912785
 20
203.3238178928939
 30
0.0
 11
3.449995320911738
 21
203.3238178928939
 31
0.0
  0
LINE
  5
6DE
330
1F
100
AcDbEntity
  8
0
100
AcDbLine
 10
1.549995320912785
 20
203.0238178928945
 30
0.0
 11
3.449995320911738
 21
203.0238178928945
 31
0.0
  0
LINE
  5
6DF
330
1F
100
AcDbEntity
  8
0
100
AcDbLine
 10
1.949995320912874
 20
202.673817892894
 30
0.0
 11
3.049995320911647
 21
202.673817892894
 31
0.0
  0
LINE
  5
6E0
330
1F
100
AcDbEntity
  8
0
100
AcDbLine
 10
1.949995320912874
 20
202.3738178928943
 30
0.0
 11
3.049995320911647
 21
202.3738178928943
 31
0.0
  0
ARC
  5
6E1
330
1F
100
AcDbEntity
  8
0
100
AcDbCircle
 10
1.949995320912874
 20
202.5238178928943
 30
0.0
 40
0.15
100
AcDbArc
 50
90.0
 51
270.0
  0
ARC
  5
6E2
330
1F
100
AcDbEntity
  8
0
100
AcDbCircle
 10
3.049995320911647
 20
202.5238178928943
 30
0.0
 40
0.15
100
AcDbArc
 50
270.0
 51
90.0
  0
ARC
  5
6E3
330
1F
100
AcDbEntity
  8
0
100
AcDbCircle
 10
1.549995320912785
 20
203.1738178928941
 30
0.0
 40
0.15
100
AcDbArc
 50
90.0
 51
270.0
  0
ARC
  5
6E4
330
1F
100
AcDbEntity
  8
0
100
AcDbCircle
 10
3.449995320911738
 20
203.1738178928941
 30
0.0
 40
0.15
100
AcDbArc
 50
270.0
 51
90.0
  0
LINE
  5
6E5
330
1F
100
AcDbEntity
  8
0
100
AcDbLine
 10
49.09999532091183
 20
241.5738178928939
 30
0.0
 11
41.84999532091183
 21
241.5738178928939
 31
0.0
  0
CIRCLE
  5
6E6
330
1F
100
AcDbEntity
  8
0
100
AcDbCircle
 10
45.59999532091183
 20
235.6238178928943
 30
0.0
 40
1.0
  0
CIRCLE
  5
6E7
330
1F
100
AcDbEntity
  8
0
100
AcDbCircle
 10
45.59999532091183
 20
239.1238178928943
 30
0.0
 40
1.0
  0
LINE
  5
6E8
330
1F
100
AcDbEntity
  8
0
100
AcDbLine
 10
41.84999532091183
 20
241.5738178928939
 30
0.0
 11
41.84999532091183
 21
233.1738178928941
 31
0.0
  0
LINE
  5
6E9
330
1F
100
AcDbEntity
  8
0
100
AcDbLine
 10
41.84999532091183
 20
233.1738178928941
 30
0.0
 11
49.09999532091183
 21
233.1738178928941
 31
0.0
  0
LINE
  5
6EA
330
1F
100
AcDbEntity
  8
0
100
AcDbLine
 10
49.09999532091183
 20
233.1738178928941
 30
0.0
 11
49.09999532091183
 21
241.5738178928939
 31
0.0
  0
LINE
  5
6EB
330
1F
100
AcDbEntity
  8
0
100
AcDbLine
 10
41.19999532091195
 20
262.0738178928941
 30
0.0
 11
49.09999532091183
 21
262.0738178928941
 31
0.0
  0
LINE
  5
6EC
330
1F
100
AcDbEntity
  8
0
100
AcDbLine
 10
42.14999532091065
 20
263.0738178928943
 30
0.0
 11
48.14999532091178
 21
263.0738178928943
 31
0.0
  0
LINE
  5
6ED
330
1F
100
AcDbEntity
  8
0
100
AcDbLine
 10
43.14999532091177
 20
263.0738178928943
 30
0.0
 11
44.14999532091065
 21
263.0738178928943
 31
0.0
  0
LINE
  5
6EE
330
1F
100
AcDbEntity
  8
0
100
AcDbLine
 10
44.94999532091195
 20
263.0738178928943
 30
0.0
 11
44.94999532091195
 21
266.0738178928941
 31
0.0
  0
LINE
  5
6EF
330
1F
100
AcDbEntity
  8
0
100
AcDbLine
 10
49.09999532091183
 20
262.0738178928941
 30
0.0
 11
49.09999532091183
 21
267.0738178928943
 31
0.0
  0
LINE
  5
6F0
330
1F
100
AcDbEntity
  8
0
100
AcDbLine
 10
49.09999532091183
 20
267.0738178928943
 30
0.0
 11
41.19999532091195
 21
267.0738178928943
 31
0.0
  0
LINE
  5
6F1
330
1F
100
AcDbEntity
  8
0
100
AcDbLine
 10
41.19999532091195
 20
267.0738178928943
 30
0.0
 11
41.19999532091195
 21
262.0738178928941
 31
0.0
  0
LINE
  5
6F2
330
1F
100
AcDbEntity
  8
0
100
AcDbLine
 10
44.14999532091065
 20
263.0738178928943
 30
0.0
 11
44.14999532091065
 21
266.0738178928941
 31
0.0
  0
LINE
  5
6F3
330
1F
100
AcDbEntity
  8
0
100
AcDbLine
 10
44.14999532091065
 20
266.0738178928941
 30
0.0
 11
43.14999532091177
 21
266.0738178928941
 31
0.0
  0
LINE
  5
6F4
330
1F
100
AcDbEntity
  8
0
100
AcDbLine
 10
43.14999532091177
 20
266.0738178928941
 30
0.0
 11
43.14999532091177
 21
263.0738178928943
 31
0.0
  0
LINE
  5
6F5
330
1F
100
AcDbEntity
  8
0
100
AcDbLine
 10
48.14999532091178
 20
263.0738178928943
 30
0.0
 11
48.14999532091178
 21
266.0738178928941
 31
0.0
  0
LINE
  5
6F6
330
1F
100
AcDbEntity
  8
0
100
AcDbLine
 10
48.14999532091178
 20
266.0738178928941
 30
0.0
 11
42.14999532091065
 21
266.0738178928941
 31
0.0
  0
LINE
  5
6F7
330
1F
100
AcDbEntity
  8
0
100
AcDbLine
 10
42.14999532091065
 20
266.0738178928941
 30
0.0
 11
42.14999532091065
 21
263.0738178928943
 31
0.0
  0
CIRCLE
  5
6F8
330
1F
100
AcDbEntity
  8
0
100
AcDbCircle
 10
42.59999532091272
 20
254.5738178928943
 30
0.0
 40
5.5
  0
LINE
  5
6F9
330
1F
100
AcDbEntity
  8
0
100
AcDbLine
 10
36.29999532091186
 20
247.5738178928938
 30
0.0
 11
36.29999532091186
 21
261.5738178928941
 31
0.0
  0
LINE
  5
6FA
330
1F
100
AcDbEntity
  8
0
100
AcDbLine
 10
49.09999532091274
 20
247.5738178928938
 30
0.0
 11
49.09999532091274
 21
253.4738178928943
 31
0.0
  0
LINE
  5
6FB
330
1F
100
AcDbEntity
  8
0
100
AcDbLine
 10
49.09999532091274
 20
247.5738178928938
 30
0.0
 11
36.29999532091186
 21
247.5738178928938
 31
0.0
  0
LINE
  5
6FC
330
1F
100
AcDbEntity
  8
0
100
AcDbLine
 10
49.09999532091274
 20
261.5738178928941
 30
0.0
 11
36.29999532091186
 21
261.5738178928941
 31
0.0
  0
LINE
  5
6FD
330
1F
100
AcDbEntity
  8
0
100
AcDbLine
 10
49.09999532091274
 20
255.6738178928941
 30
0.0
 11
49.09999532091274
 21
261.5738178928941
 31
0.0
  0
LINE
  5
6FE
330
1F
100
AcDbEntity
  8
0
100
AcDbLine
 10
14.09999532091274
 20
306.0738177335502
 30
0.0
 11
14.09999532091274
 21
339.0738177335502
 31
0.0
  0
LINE
  5
6FF
330
1F
100
AcDbEntity
  8
0
100
AcDbLine
 10
14.09999532091274
 20
275.9738177335504
 30
0.0
 11
14.09999532091274
 21
302.1738177335503
 31
0.0
  0
LINE
  5
700
330
1F
100
AcDbEntity
  8
0
100
AcDbLine
 10
49.09999532091274
 20
267.5738177335503
 30
0.0
 11
49.09999532091274
 21
232.6738177335504
 31
0.0
  0
LINE
  5
701
330
1F
100
AcDbEntity
  8
0
100
AcDbLine
 10
49.09999532091274
 20
230.6738177335501
 30
0.0
 11
49.09999532091274
 21
185.1738177335504
 31
0.0
  0
ARC
  5
702
330
1F
100
AcDbEntity
  8
0
100
AcDbCircle
 10
28.99999532091282
 20
359.9738178928942
 30
0.0
 40
5.5
100
AcDbArc
 50
294.6199773286481
 51
0.0
  0
ARC
  5
703
330
1F
100
AcDbEntity
  8
0
100
AcDbCircle
 10
28.99999532091282
 20
175.9738178928943
 30
0.0
 40
5.5
100
AcDbArc
 50
114.6199773286481
 51
180.0
  0
LINE
  5
704
330
1F
100
AcDbEntity
  8
0
100
AcDbLine
 10
31.09999532091272
 20
170.9738178928942
 30
0.0
 11
56.99999532091283
 21
170.9738178928943
 31
0.0
  0
INSERT
  5
705
330
1F
100
AcDbEntity
  8
0
100
AcDbBlockReference
  2
A$C3E87127B
 10
28.99999532091169
 20
359.9738178928942
 30
0.0
  0
TEXT
  5
7CE
330
1F
100
AcDbEntity
  8
0
100
AcDbText
 10
-6.158105895806682
 20
406.9720302240114
 30
0.0
 40
10.0
  1
SCON-CA-20~300SI-DV-*-1/2
100
AcDbText
  0
LINE
  5
803
330
1F
100
AcDbEntity
  8
0
100
AcDbLine
 10
26.70870747343399
 20
4.379169337531718
 30
0.0
 11
26.70870747343399
 21
21.97381789289578
 31
0.0
  0
LINE
  5
804
330
1F
100
AcDbEntity
  8
0
100
AcDbLine
 10
31.29128316838903
 20
4.259170369798765
 30
0.0
 11
31.29128316838903
 21
21.97381789289476
 31
0.0
  0
LINE
  5
805
330
1F
100
AcDbEntity
  8
0
100
AcDbLine
 10
5.999995320912035
 20
4.921446049756751
 30
0.0
 11
5.999995320912035
 21
20.97381789289476
 31
0.0
  0
LINE
  5
806
330
1F
100
AcDbEntity
  8
0
100
AcDbLine
 10
4.999995320912034
 20
21.00000381446374
 30
0.0
 11
4.999995320912034
 21
4.973817892893745
 31
0.0
  0
LINE
  5
807
330
1F
100
AcDbEntity
  8
0
100
AcDbLine
 10
-0.000004679087965
 20
21.41967057367071
 30
0.0
 11
-0.000004679087965
 21
0.0000038144637529
 31
0.0
  0
LINE
  5
808
330
1F
100
AcDbEntity
  8
0
100
AcDbLine
 10
57.99999532091202
 20
3.585964049726725
 30
0.0
 11
57.99999532091202
 21
120.9738178928944
 31
0.0
  0
ARC
  5
80C
330
1F
100
AcDbEntity
  8
0
100
AcDbCircle
 10
2.399995320912009
 20
89.31967057367073
 30
0.0
 40
0.6
100
AcDbArc
 50
0.0
 51
88.09084756699943
  0
LINE
  5
80D
330
1F
100
AcDbEntity
  8
0
100
AcDbLine
 10
5.999995320912035
 20
82.97381789289573
 30
0.0
 11
5.999995320912035
 21
109.6057373195927
 31
0.0
  0
LINE
  5
80E
330
1F
100
AcDbEntity
  8
0
100
AcDbLine
 10
4.999995320912034
 20
110.4710228723374
 30
0.0
 11
4.999995320912034
 21
83.00000381446377
 31
0.0
  0
LINE
  5
80F
330
1F
100
AcDbEntity
  8
0
100
AcDbLine
 10
56.99999532091203
 20
21.97381789289476
 30
0.0
 11
56.99999532091203
 21
103.9738178928945
 31
0.0
  0
LINE
  5
810
330
1F
100
AcDbEntity
  8
0
100
AcDbLine
 10
15.99999532091202
 20
103.9738178928945
 30
0.0
 11
15.99999532091202
 21
21.97381789289476
 31
0.0
  0
LINE
  5
811
330
1F
100
AcDbEntity
  8
0
100
AcDbLine
 10
28.19999532091201
 20
105.4738178928944
 30
0.0
 11
19.99999532091202
 21
105.4738178928944
 31
0.0
  0
LINE
  5
812
330
1F
100
AcDbEntity
  8
0
100
AcDbLine
 10
19.99999532091202
 20
117.4738178928945
 30
0.0
 11
28.19999532091201
 21
117.4738178928945
 31
0.0
  0
LINE
  5
813
330
1F
100
AcDbEntity
  8
0
100
AcDbLine
 10
19.99999532091202
 20
109.4738178928944
 30
0.0
 11
23.19999532091201
 21
109.4738178928944
 31
0.0
  0
LINE
  5
814
330
1F
100
AcDbEntity
  8
0
100
AcDbLine
 10
19.99999532091202
 20
113.4738178928945
 30
0.0
 11
23.19999532091201
 21
113.4738178928945
 31
0.0
  0
LINE
  5
81A
330
1F
100
AcDbEntity
  8
0
100
AcDbLine
 10
5.999995320912035
 20
120.9738178928944
 30
0.0
 11
57.99999532091202
 21
120.9738178928944
 31
0.0
  0
LINE
  5
81B
330
1F
100
AcDbEntity
  8
0
100
AcDbLine
 10
19.99999532091202
 20
109.4738178928944
 30
0.0
 11
19.99999532091202
 21
105.4738178928944
 31
0.0
  0
LINE
  5
81C
330
1F
100
AcDbEntity
  8
0
100
AcDbLine
 10
-0.000004679087965
 20
90.58033705525579
 30
0.0
 11
-0.000004679087965
 21
120.8952601281863
 31
0.0
  0
LINE
  5
81D
330
1F
100
AcDbEntity
  8
0
100
AcDbLine
 10
7.999995320912035
 20
120.4738178928947
 30
0.0
 11
7.999995320912035
 21
110.9738178928956
 31
0.0
  0
LINE
  5
81E
330
1F
100
AcDbEntity
  8
0
100
AcDbLine
 10
8.999995320912033
 20
120.9738178928944
 30
0.0
 11
8.999995320912033
 21
110.1347182617175
 31
0.0
  0
LINE
  5
81F
330
1F
100
AcDbEntity
  8
0
100
AcDbLine
 10
7.999995320912035
 20
111.0000038144637
 30
0.0
 11
7.999995320912035
 21
120.8952601281863
 31
0.0
  0
LINE
  5
820
330
1F
100
AcDbEntity
  8
0
100
AcDbLine
 10
5.999995320912035
 20
120.9738178928944
 30
0.0
 11
5.999995320912035
 21
120.9476319713252
 31
0.0
  0
LINE
  5
821
330
1F
100
AcDbEntity
  8
0
100
AcDbLine
 10
5.999995320912035
 20
120.9738178928944
 30
0.0
 11
5.999995320912035
 21
120.9476319713253
 31
0.0
  0
LINE
  5
822
330
1F
100
AcDbEntity
  8
0
100
AcDbLine
 10
7.999995320912035
 20
120.4738178928947
 30
0.0
 11
8.999995320912033
 21
120.4738178928947
 31
0.0
  0
LINE
  5
823
330
1F
100
AcDbEntity
  8
0
100
AcDbLine
 10
3.999995320912034
 20
121.0000038144636
 30
0.0
 11
7.999995320912035
 21
120.8952601281863
 31
0.0
  0
LINE
  5
824
330
1F
100
AcDbEntity
  8
0
100
AcDbLine
 10
-0.000004679087965
 20
120.8952601281863
 30
0.0
 11
3.999995320912034
 21
121.0000038144636
 31
0.0
  0
LINE
  5
825
330
1F
100
AcDbEntity
  8
0
100
AcDbLine
 10
4.999995320912034
 20
110.4448369507697
 30
0.0
 11
7.999995320912035
 21
110.9738178928956
 31
0.0
  0
LINE
  5
826
330
1F
100
AcDbEntity
  8
0
100
AcDbLine
 10
8.999995320912033
 20
110.1347182617175
 30
0.0
 11
5.999995320912035
 21
109.6057373195927
 31
0.0
  0
LINE
  5
827
330
1F
100
AcDbEntity
  8
0
100
AcDbLine
 10
7.999995320912035
 20
111.0000038144637
 30
0.0
 11
4.999995320912034
 21
110.4710228723374
 31
0.0
  0
LINE
  5
828
330
1F
100
AcDbEntity
  8
0
100
AcDbLine
 10
19.99999532091202
 20
113.4738178928945
 30
0.0
 11
19.99999532091202
 21
117.4738178928945
 31
0.0
  0
LINE
  5
829
330
1F
100
AcDbEntity
  8
0
100
AcDbLine
 10
-0.000004679087965
 20
98.41967057367078
 30
0.0
 11
-0.000004679087965
 21
97.5803370552558
 31
0.0
  0
POINT
  5
82A
330
1F
100
AcDbEntity
  8
0
100
AcDbPoint
 10
-0.000004679087965
 20
99.00000381446275
 30
0.0
  0
POINT
  5
82B
330
1F
100
AcDbEntity
  8
0
100
AcDbPoint
 10
2.999995320912034
 20
99.10000381446275
 30
0.0
  0
ARC
  5
82C
330
1F
100
AcDbEntity
  8
0
100
AcDbCircle
 10
2.399995320912009
 20
99.68033705525478
 30
0.0
 40
0.6
100
AcDbArc
 50
271.909152432994
 51
0.0
  0
ARC
  5
82D
330
1F
100
AcDbEntity
  8
0
100
AcDbCircle
 10
0.5999953209120577
 20
98.41967057367078
 30
0.0
 40
0.6
100
AcDbArc
 50
91.90915243299405
 51
180.0
  0
LINE
  5
82E
330
1F
100
AcDbEntity
  8
0
100
AcDbLine
 10
2.419984219051003
 20
99.0806701110678
 30
0.0
 11
0.5800064227720441
 21
99.01933751785872
 31
0.0
  0
LINE
  5
82F
330
1F
100
AcDbEntity
  8
0
100
AcDbLine
 10
2.999995320912034
 20
103.3196705736707
 30
0.0
 11
2.999995320912034
 21
99.68033705525478
 31
0.0
  0
POINT
  5
830
330
1F
100
AcDbEntity
  8
0
100
AcDbPoint
 10
2.999995320912034
 20
103.9000038144625
 30
0.0
  0
ARC
  5
831
330
1F
100
AcDbEntity
  8
0
100
AcDbCircle
 10
0.5999953209120577
 20
104.5803370552555
 30
0.0
 40
0.6
100
AcDbArc
 50
180.0
 51
268.0908475670059
  0
LINE
  5
832
330
1F
100
AcDbEntity
  8
0
100
AcDbLine
 10
0.5800064227720441
 20
103.9806701110677
 30
0.0
 11
2.419984219051003
 21
103.9193375178586
 31
0.0
  0
ARC
  5
833
330
1F
100
AcDbEntity
  8
0
100
AcDbCircle
 10
2.399995320912009
 20
103.3196705736707
 30
0.0
 40
0.6
100
AcDbArc
 50
0.0
 51
88.09084756699943
  0
POINT
  5
834
330
1F
100
AcDbEntity
  8
0
100
AcDbPoint
 10
-0.000004679087965
 20
90.00000381446373
 30
0.0
  0
ARC
  5
835
330
1F
100
AcDbEntity
  8
0
100
AcDbCircle
 10
2.399995320912009
 20
92.68033705525477
 30
0.0
 40
0.6
100
AcDbArc
 50
271.909152432994
 51
0.0
  0
ARC
  5
836
330
1F
100
AcDbEntity
  8
0
100
AcDbCircle
 10
0.5999953209120577
 20
91.41967057367077
 30
0.0
 40
0.6
100
AcDbArc
 50
91.90915243299405
 51
180.0
  0
ARC
  5
837
330
1F
100
AcDbEntity
  8
0
100
AcDbCircle
 10
0.5999953209110345
 20
90.58033705525579
 30
0.0
 40
0.6
100
AcDbArc
 50
180.0
 51
268.0908475670059
  0
LINE
  5
838
330
1F
100
AcDbEntity
  8
0
100
AcDbLine
 10
-0.000004679087965
 20
91.41967057367077
 30
0.0
 11
-0.000004679087965
 21
90.58033705525579
 31
0.0
  0
LINE
  5
839
330
1F
100
AcDbEntity
  8
0
100
AcDbLine
 10
0.5800064227720441
 20
89.98067011106774
 30
0.0
 11
2.419984219051003
 21
89.91933751785877
 31
0.0
  0
LINE
  5
83A
330
1F
100
AcDbEntity
  8
0
100
AcDbLine
 10
2.419984219051003
 20
92.08067011106777
 30
0.0
 11
0.5800064227720441
 21
92.01933751785871
 31
0.0
  0
POINT
  5
83B
330
1F
100
AcDbEntity
  8
0
100
AcDbPoint
 10
2.999995320912034
 20
96.90000381446273
 30
0.0
  0
POINT
  5
83C
330
1F
100
AcDbEntity
  8
0
100
AcDbPoint
 10
-0.000004679087965
 20
97.00000381446276
 30
0.0
  0
ARC
  5
83D
330
1F
100
AcDbEntity
  8
0
100
AcDbCircle
 10
2.399995320912009
 20
96.31967057367077
 30
0.0
 40
0.6
100
AcDbArc
 50
0.0
 51
88.09084756699943
  0
ARC
  5
83E
330
1F
100
AcDbEntity
  8
0
100
AcDbCircle
 10
0.5999953209120577
 20
97.5803370552558
 30
0.0
 40
0.6
100
AcDbArc
 50
180.0
 51
268.0908475670059
  0
LINE
  5
83F
330
1F
100
AcDbEntity
  8
0
100
AcDbLine
 10
0.5800064227720441
 20
96.98067011106777
 30
0.0
 11
2.419984219051003
 21
96.91933751785878
 31
0.0
  0
LINE
  5
840
330
1F
100
AcDbEntity
  8
0
100
AcDbLine
 10
2.999995320912034
 20
96.31967057367077
 30
0.0
 11
2.999995320912034
 21
92.68033705525477
 31
0.0
  0
LINE
  5
841
330
1F
100
AcDbEntity
  8
0
100
AcDbLine
 10
28.19999532091201
 20
105.4738178928944
 30
0.0
 11
28.19999532091201
 21
117.4738178928945
 31
0.0
  0
LINE
  5
842
330
1F
100
AcDbEntity
  8
0
100
AcDbLine
 10
23.19999532091201
 20
107.4738178928944
 30
0.0
 11
25.19999532091201
 21
107.4738178928944
 31
0.0
  0
LINE
  5
843
330
1F
100
AcDbEntity
  8
0
100
AcDbLine
 10
23.19999532091201
 20
109.4738178928944
 30
0.0
 11
23.19999532091201
 21
107.4738178928944
 31
0.0
  0
LINE
  5
844
330
1F
100
AcDbEntity
  8
0
100
AcDbLine
 10
23.19999532091201
 20
115.4738178928945
 30
0.0
 11
25.19999532091201
 21
115.4738178928945
 31
0.0
  0
LINE
  5
845
330
1F
100
AcDbEntity
  8
0
100
AcDbLine
 10
23.19999532091201
 20
113.4738178928945
 30
0.0
 11
23.19999532091201
 21
115.4738178928945
 31
0.0
  0
LINE
  5
846
330
1F
100
AcDbEntity
  8
0
100
AcDbLine
 10
25.19999532091201
 20
107.4738178928944
 30
0.0
 11
25.19999532091201
 21
115.4738178928945
 31
0.0
  0
LINE
  5
853
330
1F
100
AcDbEntity
  8
0
100
AcDbLine
 10
56.99999532091203
 20
26.97381789289476
 30
0.0
 11
15.99999532091202
 21
26.97381789289476
 31
0.0
  0
LINE
  5
854
330
1F
100
AcDbEntity
  8
0
100
AcDbLine
 10
56.99999532091203
 20
28.97381789289477
 30
0.0
 11
15.99999532091202
 21
28.97381789289477
 31
0.0
  0
LINE
  5
855
330
1F
100
AcDbEntity
  8
0
100
AcDbLine
 10
56.99999532091203
 20
33.97381789289476
 30
0.0
 11
15.99999532091202
 21
33.97381789289476
 31
0.0
  0
LINE
  5
856
330
1F
100
AcDbEntity
  8
0
100
AcDbLine
 10
56.99999532091203
 20
35.97381789289477
 30
0.0
 11
15.99999532091202
 21
35.97381789289477
 31
0.0
  0
LINE
  5
857
330
1F
100
AcDbEntity
  8
0
100
AcDbLine
 10
56.99999532091203
 20
40.97381789289477
 30
0.0
 11
15.99999532091202
 21
40.97381789289477
 31
0.0
  0
LINE
  5
858
330
1F
100
AcDbEntity
  8
0
100
AcDbLine
 10
56.99999532091203
 20
42.97381789289477
 30
0.0
 11
15.99999532091202
 21
42.97381789289477
 31
0.0
  0
LINE
  5
85C
330
1F
100
AcDbEntity
  8
0
100
AcDbLine
 10
15.99999532091202
 20
21.97381789289476
 30
0.0
 11
57.99999532091202
 21
21.97381789289476
 31
0.0
  0
LINE
  5
864
330
1F
100
AcDbEntity
  8
0
100
AcDbLine
 10
2.999995320912034
 20
54.31967057367074
 30
0.0
 11
2.999995320912034
 21
50.68033705525477
 31
0.0
  0
LINE
  5
865
330
1F
100
AcDbEntity
  8
0
100
AcDbLine
 10
5.999995320912035
 20
32.97381789289573
 30
0.0
 11
5.999995320912035
 21
70.97381789289475
 31
0.0
  0
LINE
  5
866
330
1F
100
AcDbEntity
  8
0
100
AcDbLine
 10
4.999995320912034
 20
71.00000381446377
 30
0.0
 11
4.999995320912034
 21
33.00000381446373
 31
0.0
  0
LINE
  5
867
330
1F
100
AcDbEntity
  8
0
100
AcDbLine
 10
2.999995320912034
 20
75.31967057367075
 30
0.0
 11
2.999995320912034
 21
71.68033705525478
 31
0.0
  0
LINE
  5
868
330
1F
100
AcDbEntity
  8
0
100
AcDbLine
 10
4.999995320912034
 20
71.00000381446275
 30
0.0
 11
4.999995320912034
 21
83.00000381446377
 31
0.0
  0
LINE
  5
869
330
1F
100
AcDbEntity
  8
0
100
AcDbLine
 10
4.499995320912034
 20
83.00000381446377
 30
0.0
 11
4.499995320912034
 21
71.00000381446377
 31
0.0
  0
LINE
  5
86A
330
1F
100
AcDbEntity
  8
0
100
AcDbLine
 10
3.699995320911963
 20
83.00000381446377
 30
0.0
 11
3.699995320911963
 21
71.10000381446276
 31
0.0
  0
LINE
  5
86B
330
1F
100
AcDbEntity
  8
0
100
AcDbLine
 10
9.699995320911057
 20
81.47381789289475
 30
0.0
 11
9.699995320911057
 21
72.47381789289476
 31
0.0
  0
LINE
  5
86C
330
1F
100
AcDbEntity
  8
0
100
AcDbLine
 10
7.999995320911011
 20
81.47381789289475
 30
0.0
 11
7.999995320911011
 21
72.47381789289476
 31
0.0
  0
LINE
  5
86D
330
1F
100
AcDbEntity
  8
0
100
AcDbLine
 10
9.499995320912033
 20
81.00000381446376
 30
0.0
 11
9.499995320912033
 21
73.00000381446377
 31
0.0
  0
LINE
  5
86E
330
1F
100
AcDbEntity
  8
0
100
AcDbLine
 10
8.699995320911964
 20
81.00000381446376
 30
0.0
 11
8.699995320911964
 21
73.00000381446377
 31
0.0
  0
LINE
  5
86F
330
1F
100
AcDbEntity
  8
0
100
AcDbLine
 10
8.099995320912057
 20
81.00000381446376
 30
0.0
 11
8.099995320912057
 21
73.00000381446377
 31
0.0
  0
LINE
  5
870
330
1F
100
AcDbEntity
  8
0
100
AcDbLine
 10
2.999995320912034
 20
82.31967057367075
 30
0.0
 11
2.999995320912034
 21
78.68033705525478
 31
0.0
  0
LINE
  5
871
330
1F
100
AcDbEntity
  8
0
100
AcDbLine
 10
5.999995320912035
 20
82.97381789289573
 30
0.0
 11
4.999995320912034
 21
82.97381789289573
 31
0.0
  0
LINE
  5
872
330
1F
100
AcDbEntity
  8
0
100
AcDbLine
 10
9.699995320911057
 20
81.47381789289475
 30
0.0
 11
7.999995320911011
 21
81.47381789289475
 31
0.0
  0
LINE
  5
873
330
1F
100
AcDbEntity
  8
0
100
AcDbLine
 10
4.999995320912034
 20
83.00000381446377
 30
0.0
 11
3.699995320911963
 21
83.00000381446377
 31
0.0
  0
POINT
  5
874
330
1F
100
AcDbEntity
  8
0
100
AcDbPoint
 10
-0.000004679087965
 20
83.00000381446377
 30
0.0
  0
ARC
  5
875
330
1F
100
AcDbEntity
  8
0
100
AcDbCircle
 10
2.399995320912009
 20
82.31967057367075
 30
0.0
 40
0.6
100
AcDbArc
 50
0.0
 51
88.09084756699943
  0
ARC
  5
876
330
1F
100
AcDbEntity
  8
0
100
AcDbCircle
 10
2.399995320912009
 20
85.68033705525477
 30
0.0
 40
0.6
100
AcDbArc
 50
271.909152432994
 51
0.0
  0
LINE
  5
877
330
1F
100
AcDbEntity
  8
0
100
AcDbLine
 10
9.499995320912033
 20
81.00000381446376
 30
0.0
 11
7.999995320911011
 21
81.00000381446376
 31
0.0
  0
ARC
  5
878
330
1F
100
AcDbEntity
  8
0
100
AcDbCircle
 10
0.5999953209120577
 20
84.41967057367078
 30
0.0
 40
0.6
100
AcDbArc
 50
91.90915243299405
 51
180.0
  0
ARC
  5
879
330
1F
100
AcDbEntity
  8
0
100
AcDbCircle
 10
0.5999953209120577
 20
83.58033705525576
 30
0.0
 40
0.6
100
AcDbArc
 50
180.0
 51
268.0908475670059
  0
LINE
  5
87A
330
1F
100
AcDbEntity
  8
0
100
AcDbLine
 10
-0.000004679087965
 20
84.41967057367078
 30
0.0
 11
-0.000004679087965
 21
83.58033705525576
 31
0.0
  0
LINE
  5
87B
330
1F
100
AcDbEntity
  8
0
100
AcDbLine
 10
0.5800064227720441
 20
82.98067011106775
 30
0.0
 11
2.419984219051003
 21
82.91933751785876
 31
0.0
  0
LINE
  5
87C
330
1F
100
AcDbEntity
  8
0
100
AcDbLine
 10
2.419984219051003
 20
85.08067011106778
 30
0.0
 11
0.5800064227720441
 21
85.01933751785873
 31
0.0
  0
LINE
  5
87D
330
1F
100
AcDbEntity
  8
0
100
AcDbLine
 10
2.999995320912034
 20
89.31967057367073
 30
0.0
 11
2.999995320912034
 21
85.68033705525477
 31
0.0
  0
LINE
  5
87E
330
1F
100
AcDbEntity
  8
0
100
AcDbLine
 10
9.699995320911057
 20
72.47381789289476
 30
0.0
 11
7.999995320911011
 21
72.47381789289476
 31
0.0
  0
POINT
  5
87F
330
1F
100
AcDbEntity
  8
0
100
AcDbPoint
 10
-0.000004679087965
 20
76.00000381446377
 30
0.0
  0
ARC
  5
880
330
1F
100
AcDbEntity
  8
0
100
AcDbCircle
 10
2.399995320912009
 20
75.31967057367075
 30
0.0
 40
0.6
100
AcDbArc
 50
0.0
 51
88.09084756699943
  0
ARC
  5
881
330
1F
100
AcDbEntity
  8
0
100
AcDbCircle
 10
2.399995320912009
 20
78.68033705525478
 30
0.0
 40
0.6
100
AcDbArc
 50
271.909152432994
 51
0.0
  0
LINE
  5
882
330
1F
100
AcDbEntity
  8
0
100
AcDbLine
 10
9.499995320912033
 20
73.00000381446377
 30
0.0
 11
7.999995320911011
 21
73.00000381446377
 31
0.0
  0
ARC
  5
883
330
1F
100
AcDbEntity
  8
0
100
AcDbCircle
 10
0.5999953209120577
 20
77.41967057367077
 30
0.0
 40
0.6
100
AcDbArc
 50
91.90915243299405
 51
180.0
  0
ARC
  5
884
330
1F
100
AcDbEntity
  8
0
100
AcDbCircle
 10
0.5999953209120577
 20
76.58033705525575
 30
0.0
 40
0.6
100
AcDbArc
 50
180.0
 51
268.0908475670059
  0
LINE
  5
885
330
1F
100
AcDbEntity
  8
0
100
AcDbLine
 10
-0.000004679087965
 20
77.41967057367077
 30
0.0
 11
-0.000004679087965
 21
76.58033705525575
 31
0.0
  0
LINE
  5
886
330
1F
100
AcDbEntity
  8
0
100
AcDbLine
 10
0.5800064227720441
 20
75.98067011106775
 30
0.0
 11
2.419984219051003
 21
75.91933751785877
 31
0.0
  0
LINE
  5
887
330
1F
100
AcDbEntity
  8
0
100
AcDbLine
 10
2.419984219051003
 20
78.08067011106778
 30
0.0
 11
0.5800064227720441
 21
78.01933751785873
 31
0.0
  0
LINE
  5
888
330
1F
100
AcDbEntity
  8
0
100
AcDbLine
 10
-0.000004679087965
 20
64.61967057367179
 30
0.0
 11
-0.000004679087965
 21
59.58033705525473
 31
0.0
  0
ARC
  5
889
330
1F
100
AcDbEntity
  8
0
100
AcDbCircle
 10
0.5999953209110345
 20
64.41967057367077
 30
0.0
 40
0.6
100
AcDbArc
 50
91.90915243299405
 51
180.0
  0
LINE
  5
88A
330
1F
100
AcDbEntity
  8
0
100
AcDbLine
 10
0.5800064227720441
 20
65.01933751785874
 30
0.0
 11
2.999995320911008
 21
65.10000381446275
 31
0.0
  0
ARC
  5
88B
330
1F
100
AcDbEntity
  8
0
100
AcDbCircle
 10
0.5999953209110345
 20
64.61967057367179
 30
0.0
 40
0.6
100
AcDbArc
 50
91.90915243299405
 51
180.0
  0
LINE
  5
88C
330
1F
100
AcDbEntity
  8
0
100
AcDbLine
 10
0.5800064227720441
 20
65.21933751785879
 30
0.0
 11
2.999995320911008
 21
65.30000381446376
 31
0.0
  0
POINT
  5
88D
330
1F
100
AcDbEntity
  8
0
100
AcDbPoint
 10
-0.000004679087965
 20
69.00000381446375
 30
0.0
  0
ARC
  5
88E
330
1F
100
AcDbEntity
  8
0
100
AcDbCircle
 10
2.399995320912009
 20
64.68033705525474
 30
0.0
 40
0.6
100
AcDbArc
 50
271.9091524329875
 51
0.0
  0
ARC
  5
88F
330
1F
100
AcDbEntity
  8
0
100
AcDbCircle
 10
2.399995320912009
 20
68.31967057367075
 30
0.0
 40
0.6
100
AcDbArc
 50
0.0
 51
88.09084756699943
  0
ARC
  5
890
330
1F
100
AcDbEntity
  8
0
100
AcDbCircle
 10
0.5999953209120577
 20
69.58033705525576
 30
0.0
 40
0.6
100
AcDbArc
 50
180.0
 51
268.0908475670059
  0
ARC
  5
891
330
1F
100
AcDbEntity
  8
0
100
AcDbCircle
 10
0.5999953209120577
 20
63.41967057367077
 30
0.0
 40
0.6
100
AcDbArc
 50
91.90915243299405
 51
180.0
  0
LINE
  5
892
330
1F
100
AcDbEntity
  8
0
100
AcDbLine
 10
-0.000004679087965
 20
70.41967057367077
 30
0.0
 11
-0.000004679087965
 21
69.58033705525576
 31
0.0
  0
LINE
  5
893
330
1F
100
AcDbEntity
  8
0
100
AcDbLine
 10
2.419984219051003
 20
64.08067011106779
 30
0.0
 11
0.5800064227720441
 21
64.01933751785874
 31
0.0
  0
LINE
  5
894
330
1F
100
AcDbEntity
  8
0
100
AcDbLine
 10
2.999995320912034
 20
68.31967057367075
 30
0.0
 11
2.999995320912034
 21
64.68033705525474
 31
0.0
  0
LINE
  5
895
330
1F
100
AcDbEntity
  8
0
100
AcDbLine
 10
0.5800064227720441
 20
68.98067011106775
 30
0.0
 11
2.419984219051003
 21
68.91933751785875
 31
0.0
  0
LINE
  5
896
330
1F
100
AcDbEntity
  8
0
100
AcDbLine
 10
5.999995320912035
 20
70.97381789289475
 30
0.0
 11
4.999995320912034
 21
70.97381789289475
 31
0.0
  0
LINE
  5
897
330
1F
100
AcDbEntity
  8
0
100
AcDbLine
 10
4.999995320912034
 20
71.00000381446377
 30
0.0
 11
3.699995320911963
 21
71.00000381446377
 31
0.0
  0
ARC
  5
898
330
1F
100
AcDbEntity
  8
0
100
AcDbCircle
 10
2.399995320912009
 20
71.68033705525478
 30
0.0
 40
0.6
100
AcDbArc
 50
271.909152432994
 51
0.0
  0
LINE
  5
899
330
1F
100
AcDbEntity
  8
0
100
AcDbLine
 10
2.419984219051003
 20
71.08067011106776
 30
0.0
 11
0.5800064227720441
 21
71.01933751785873
 31
0.0
  0
ARC
  5
89A
330
1F
100
AcDbEntity
  8
0
100
AcDbCircle
 10
0.5999953209110345
 20
70.41967057367077
 30
0.0
 40
0.6
100
AcDbArc
 50
91.90915243299405
 51
180.0
  0
ARC
  5
89B
330
1F
100
AcDbEntity
  8
0
100
AcDbCircle
 10
0.5999953209110345
 20
59.58033705525473
 30
0.0
 40
0.6
100
AcDbArc
 50
180.0
 51
268.0908475670059
  0
LINE
  5
89C
330
1F
100
AcDbEntity
  8
0
100
AcDbLine
 10
0.5800064227720441
 20
58.98067011106775
 30
0.0
 11
2.999995320911008
 21
58.90000381446276
 31
0.0
  0
POINT
  5
89D
330
1F
100
AcDbEntity
  8
0
100
AcDbPoint
 10
-0.000004679087965
 20
55.00000381446273
 30
0.0
  0
POINT
  5
89E
330
1F
100
AcDbEntity
  8
0
100
AcDbPoint
 10
-0.000004679087965
 20
62.00000381446272
 30
0.0
  0
ARC
  5
89F
330
1F
100
AcDbEntity
  8
0
100
AcDbCircle
 10
2.399995320912009
 20
57.68033705525475
 30
0.0
 40
0.6
100
AcDbArc
 50
271.909152432994
 51
0.0
  0
ARC
  5
8A0
330
1F
100
AcDbEntity
  8
0
100
AcDbCircle
 10
2.399995320912009
 20
61.31967057367075
 30
0.0
 40
0.6
100
AcDbArc
 50
0.0
 51
88.09084756699943
  0
ARC
  5
8A1
330
1F
100
AcDbEntity
  8
0
100
AcDbCircle
 10
0.5999953209120577
 20
62.58033705525575
 30
0.0
 40
0.6
100
AcDbArc
 50
180.0
 51
268.0908475670059
  0
ARC
  5
8A2
330
1F
100
AcDbEntity
  8
0
100
AcDbCircle
 10
0.5999953209120577
 20
56.41967057367077
 30
0.0
 40
0.6
100
AcDbArc
 50
91.90915243299405
 51
180.0
  0
ARC
  5
8A3
330
1F
100
AcDbEntity
  8
0
100
AcDbCircle
 10
0.5999953209120577
 20
55.58033705525577
 30
0.0
 40
0.6
100
AcDbArc
 50
180.0
 51
268.0908475670059
  0
LINE
  5
8A4
330
1F
100
AcDbEntity
  8
0
100
AcDbLine
 10
-0.000004679087965
 20
56.41967057367077
 30
0.0
 11
-0.000004679087965
 21
55.58033705525577
 31
0.0
  0
LINE
  5
8A5
330
1F
100
AcDbEntity
  8
0
100
AcDbLine
 10
0.5800064227720441
 20
54.98067011106773
 30
0.0
 11
2.419984219051003
 21
54.91933751785878
 31
0.0
  0
LINE
  5
8A6
330
1F
100
AcDbEntity
  8
0
100
AcDbLine
 10
2.419984219051003
 20
57.08067011106777
 30
0.0
 11
0.5800064227720441
 21
57.01933751785873
 31
0.0
  0
LINE
  5
8A7
330
1F
100
AcDbEntity
  8
0
100
AcDbLine
 10
2.999995320912034
 20
61.31967057367075
 30
0.0
 11
2.999995320912034
 21
57.68033705525475
 31
0.0
  0
LINE
  5
8A8
330
1F
100
AcDbEntity
  8
0
100
AcDbLine
 10
0.5800064227720441
 20
61.98067011106775
 30
0.0
 11
2.419984219051003
 21
61.91933751785875
 31
0.0
  0
ARC
  5
8A9
330
1F
100
AcDbEntity
  8
0
100
AcDbCircle
 10
2.399995320912009
 20
54.31967057367074
 30
0.0
 40
0.6
100
AcDbArc
 50
0.0
 51
88.09084756699943
  0
ARC
  5
8AA
330
1F
100
AcDbEntity
  8
0
100
AcDbCircle
 10
2.399995320912009
 20
36.68033705525477
 30
0.0
 40
0.6
100
AcDbArc
 50
271.909152432994
 51
0.0
  0
LINE
  5
8AB
330
1F
100
AcDbEntity
  8
0
100
AcDbLine
 10
2.999995320912034
 20
47.31967057367074
 30
0.0
 11
2.999995320912034
 21
43.68033705525477
 31
0.0
  0
POINT
  5
8AC
330
1F
100
AcDbEntity
  8
0
100
AcDbPoint
 10
-0.000004679087965
 20
48.00000381446373
 30
0.0
  0
ARC
  5
8AD
330
1F
100
AcDbEntity
  8
0
100
AcDbCircle
 10
2.399995320912009
 20
47.31967057367074
 30
0.0
 40
0.6
100
AcDbArc
 50
0.0
 51
88.09084756699943
  0
ARC
  5
8AE
330
1F
100
AcDbEntity
  8
0
100
AcDbCircle
 10
2.399995320912009
 20
50.68033705525477
 30
0.0
 40
0.6
100
AcDbArc
 50
271.909152432994
 51
0.0
  0
ARC
  5
8AF
330
1F
100
AcDbEntity
  8
0
100
AcDbCircle
 10
0.5999953209110345
 20
49.41967057367077
 30
0.0
 40
0.6
100
AcDbArc
 50
91.90915243299405
 51
180.0
  0
ARC
  5
8B0
330
1F
100
AcDbEntity
  8
0
100
AcDbCircle
 10
0.5999953209120577
 20
48.58033705525574
 30
0.0
 40
0.6
100
AcDbArc
 50
180.0
 51
268.0908475670059
  0
LINE
  5
8B1
330
1F
100
AcDbEntity
  8
0
100
AcDbLine
 10
-0.000004679087965
 20
49.41967057367077
 30
0.0
 11
-0.000004679087965
 21
48.58033705525574
 31
0.0
  0
LINE
  5
8B2
330
1F
100
AcDbEntity
  8
0
100
AcDbLine
 10
0.5800064227720441
 20
47.98067011106772
 30
0.0
 11
2.419984219051003
 21
47.91933751785875
 31
0.0
  0
LINE
  5
8B3
330
1F
100
AcDbEntity
  8
0
100
AcDbLine
 10
2.419984219051003
 20
50.08067011106778
 30
0.0
 11
0.5800064227720441
 21
50.01933751785871
 31
0.0
  0
POINT
  5
8B4
330
1F
100
AcDbEntity
  8
0
100
AcDbPoint
 10
-0.000004679087965
 20
41.0000038144627
 30
0.0
  0
ARC
  5
8B5
330
1F
100
AcDbEntity
  8
0
100
AcDbCircle
 10
2.399995320912009
 20
40.31967057367074
 30
0.0
 40
0.6
100
AcDbArc
 50
0.0
 51
88.09084756699943
  0
ARC
  5
8B6
330
1F
100
AcDbEntity
  8
0
100
AcDbCircle
 10
2.399995320912009
 20
43.68033705525477
 30
0.0
 40
0.6
100
AcDbArc
 50
271.909152432994
 51
0.0
  0
ARC
  5
8B7
330
1F
100
AcDbEntity
  8
0
100
AcDbCircle
 10
0.5999953209110345
 20
42.41967057367077
 30
0.0
 40
0.6
100
AcDbArc
 50
91.90915243299405
 51
180.0
  0
ARC
  5
8B8
330
1F
100
AcDbEntity
  8
0
100
AcDbCircle
 10
0.5999953209110345
 20
41.58033705525575
 30
0.0
 40
0.6
100
AcDbArc
 50
180.0
 51
268.0908475670059
  0
LINE
  5
8B9
330
1F
100
AcDbEntity
  8
0
100
AcDbLine
 10
-0.000004679087965
 20
42.41967057367077
 30
0.0
 11
-0.000004679087965
 21
41.58033705525575
 31
0.0
  0
LINE
  5
8BA
330
1F
100
AcDbEntity
  8
0
100
AcDbLine
 10
0.5800064227720441
 20
40.98067011106774
 30
0.0
 11
2.419984219051003
 21
40.91933751785875
 31
0.0
  0
LINE
  5
8BB
330
1F
100
AcDbEntity
  8
0
100
AcDbLine
 10
2.419984219051003
 20
43.08067011106778
 30
0.0
 11
0.5800064227720441
 21
43.01933751785871
 31
0.0
  0
LINE
  5
8BC
330
1F
100
AcDbEntity
  8
0
100
AcDbLine
 10
2.999995320912034
 20
40.31967057367074
 30
0.0
 11
2.999995320912034
 21
36.68033705525477
 31
0.0
  0
ARC
  5
8BD
330
1F
100
AcDbEntity
  8
0
100
AcDbCircle
 10
0.5999953209110345
 20
27.58033705525576
 30
0.0
 40
0.6
100
AcDbArc
 50
180.0
 51
268.0908475670059
  0
LINE
  5
8BE
330
1F
100
AcDbEntity
  8
0
100
AcDbLine
 10
9.699995320911057
 20
31.47381789289477
 30
0.0
 11
9.699995320911057
 21
22.47381789289476
 31
0.0
  0
LINE
  5
8BF
330
1F
100
AcDbEntity
  8
0
100
AcDbLine
 10
7.999995320911011
 20
31.47381789289477
 30
0.0
 11
7.999995320911011
 21
22.47381789289476
 31
0.0
  0
LINE
  5
8C0
330
1F
100
AcDbEntity
  8
0
100
AcDbLine
 10
4.999995320912034
 20
33.00000381446373
 30
0.0
 11
4.999995320912034
 21
21.00000381446271
 31
0.0
  0
LINE
  5
8C1
330
1F
100
AcDbEntity
  8
0
100
AcDbLine
 10
4.499995320912034
 20
33.00000381446373
 30
0.0
 11
4.499995320912034
 21
21.00000381446374
 31
0.0
  0
LINE
  5
8C2
330
1F
100
AcDbEntity
  8
0
100
AcDbLine
 10
3.699995320911963
 20
33.00000381446373
 30
0.0
 11
3.699995320911963
 21
21.10000381446273
 31
0.0
  0
LINE
  5
8C3
330
1F
100
AcDbEntity
  8
0
100
AcDbLine
 10
9.499995320912033
 20
31.00000381446374
 30
0.0
 11
9.499995320912033
 21
23.00000381446373
 31
0.0
  0
LINE
  5
8C4
330
1F
100
AcDbEntity
  8
0
100
AcDbLine
 10
8.699995320911964
 20
31.00000381446374
 30
0.0
 11
8.699995320911964
 21
23.00000381446373
 31
0.0
  0
LINE
  5
8C5
330
1F
100
AcDbEntity
  8
0
100
AcDbLine
 10
8.099995320912057
 20
31.00000381446374
 30
0.0
 11
8.099995320912057
 21
23.00000381446373
 31
0.0
  0
ARC
  5
8C6
330
1F
100
AcDbEntity
  8
0
100
AcDbCircle
 10
2.399995320912009
 20
29.68033705525476
 30
0.0
 40
0.6
100
AcDbArc
 50
271.909152432994
 51
0.0
  0
ARC
  5
8C7
330
1F
100
AcDbEntity
  8
0
100
AcDbCircle
 10
0.5999953209120577
 20
28.41967057367069
 30
0.0
 40
0.6
100
AcDbArc
 50
91.90915243299405
 51
180.0
  0
LINE
  5
8C8
330
1F
100
AcDbEntity
  8
0
100
AcDbLine
 10
-0.000004679087965
 20
28.41967057367069
 30
0.0
 11
-0.000004679087965
 21
27.58033705525576
 31
0.0
  0
LINE
  5
8C9
330
1F
100
AcDbEntity
  8
0
100
AcDbLine
 10
2.419984219051003
 20
29.08067011106777
 30
0.0
 11
0.5800064227720441
 21
29.01933751785873
 31
0.0
  0
LINE
  5
8CA
330
1F
100
AcDbEntity
  8
0
100
AcDbLine
 10
5.999995320912035
 20
32.97381789289573
 30
0.0
 11
4.999995320912034
 21
32.97381789289573
 31
0.0
  0
LINE
  5
8CB
330
1F
100
AcDbEntity
  8
0
100
AcDbLine
 10
9.699995320911057
 20
31.47381789289477
 30
0.0
 11
7.999995320911011
 21
31.47381789289477
 31
0.0
  0
LINE
  5
8CC
330
1F
100
AcDbEntity
  8
0
100
AcDbLine
 10
4.999995320912034
 20
33.00000381446373
 30
0.0
 11
3.699995320911963
 21
33.00000381446373
 31
0.0
  0
POINT
  5
8CD
330
1F
100
AcDbEntity
  8
0
100
AcDbPoint
 10
-0.000004679087965
 20
34.00000381446373
 30
0.0
  0
ARC
  5
8CE
330
1F
100
AcDbEntity
  8
0
100
AcDbCircle
 10
2.399995320912009
 20
33.31967057367074
 30
0.0
 40
0.6
100
AcDbArc
 50
0.0
 51
88.09084756699943
  0
LINE
  5
8CF
330
1F
100
AcDbEntity
  8
0
100
AcDbLine
 10
9.499995320912033
 20
31.00000381446374
 30
0.0
 11
7.999995320911011
 21
31.00000381446374
 31
0.0
  0
ARC
  5
8D0
330
1F
100
AcDbEntity
  8
0
100
AcDbCircle
 10
0.5999953209110345
 20
35.41967057367077
 30
0.0
 40
0.6
100
AcDbArc
 50
91.90915243299405
 51
180.0
  0
ARC
  5
8D1
330
1F
100
AcDbEntity
  8
0
100
AcDbCircle
 10
0.5999953209120577
 20
34.58033705525576
 30
0.0
 40
0.6
100
AcDbArc
 50
180.0
 51
268.0908475670059
  0
LINE
  5
8D2
330
1F
100
AcDbEntity
  8
0
100
AcDbLine
 10
-0.000004679087965
 20
35.41967057367077
 30
0.0
 11
-0.000004679087965
 21
34.58033705525576
 31
0.0
  0
LINE
  5
8D3
330
1F
100
AcDbEntity
  8
0
100
AcDbLine
 10
0.5800064227720441
 20
33.98067011106773
 30
0.0
 11
2.419984219051003
 21
33.91933751785876
 31
0.0
  0
LINE
  5
8D4
330
1F
100
AcDbEntity
  8
0
100
AcDbLine
 10
2.419984219051003
 20
36.08067011106777
 30
0.0
 11
0.5800064227720441
 21
36.01933751785871
 31
0.0
  0
LINE
  5
8D5
330
1F
100
AcDbEntity
  8
0
100
AcDbLine
 10
2.999995320912034
 20
33.31967057367074
 30
0.0
 11
2.999995320912034
 21
29.68033705525476
 31
0.0
  0
LINE
  5
8D6
330
1F
100
AcDbEntity
  8
0
100
AcDbLine
 10
5.999995320912035
 20
20.97381789289476
 30
0.0
 11
4.999995320912034
 21
20.97381789289476
 31
0.0
  0
LINE
  5
8D7
330
1F
100
AcDbEntity
  8
0
100
AcDbLine
 10
4.999995320912034
 20
21.00000381446374
 30
0.0
 11
3.699995320911963
 21
21.00000381446374
 31
0.0
  0
LINE
  5
8D8
330
1F
100
AcDbEntity
  8
0
100
AcDbLine
 10
9.699995320911057
 20
22.47381789289476
 30
0.0
 11
7.999995320911011
 21
22.47381789289476
 31
0.0
  0
POINT
  5
8D9
330
1F
100
AcDbEntity
  8
0
100
AcDbPoint
 10
-0.000004679087965
 20
22.00000381446272
 30
0.0
  0
POINT
  5
8DA
330
1F
100
AcDbEntity
  8
0
100
AcDbPoint
 10
-0.000004679087965
 20
27.00000381446272
 30
0.0
  0
ARC
  5
8DB
330
1F
100
AcDbEntity
  8
0
100
AcDbCircle
 10
2.499995320912033
 20
22.58361484845675
 30
0.0
 40
0.5
100
AcDbArc
 50
271.909152432994
 51
0.0
  0
ARC
  5
8DC
330
1F
100
AcDbEntity
  8
0
100
AcDbCircle
 10
2.399995320912009
 20
26.31967057367075
 30
0.0
 40
0.6
100
AcDbArc
 50
0.0
 51
88.09084756699943
  0
LINE
  5
8DD
330
1F
100
AcDbEntity
  8
0
100
AcDbLine
 10
9.499995320912033
 20
23.00000381446373
 30
0.0
 11
7.999995320911011
 21
23.00000381446373
 31
0.0
  0
LINE
  5
8DE
330
1F
100
AcDbEntity
  8
0
100
AcDbLine
 10
2.516652736028048
 20
22.08389239496676
 30
0.0
 11
0.5800064227720441
 21
22.01933751785873
 31
0.0
  0
LINE
  5
8DF
330
1F
100
AcDbEntity
  8
0
100
AcDbLine
 10
2.999995320912034
 20
26.31967057367075
 30
0.0
 11
2.999995320912034
 21
22.58361484845675
 31
0.0
  0
LINE
  5
8E0
330
1F
100
AcDbEntity
  8
0
100
AcDbLine
 10
0.5800064227720441
 20
26.98067011106775
 30
0.0
 11
2.419984219051003
 21
26.91933751785876
 31
0.0
  0
ARC
  5
8E1
330
1F
100
AcDbEntity
  8
0
100
AcDbCircle
 10
0.5999953209120577
 20
21.41967057367071
 30
0.0
 40
0.6
100
AcDbArc
 50
91.90915243299405
 51
180.0
  0
LINE
  5
901
330
1F
100
AcDbEntity
  8
0
100
AcDbLine
 10
55.99999532091203
 20
40.97381789289477
 30
0.0
 11
55.99999532091203
 21
42.97381789289477
 31
0.0
  0
LINE
  5
902
330
1F
100
AcDbEntity
  8
0
100
AcDbLine
 10
54.99999532091202
 20
40.97381789289477
 30
0.0
 11
54.99999532091202
 21
42.97381789289477
 31
0.0
  0
LINE
  5
903
330
1F
100
AcDbEntity
  8
0
100
AcDbLine
 10
55.99999532091203
 20
26.97381789289476
 30
0.0
 11
55.99999532091203
 21
28.97381789289477
 31
0.0
  0
LINE
  5
904
330
1F
100
AcDbEntity
  8
0
100
AcDbLine
 10
54.99999532091202
 20
26.97381789289476
 30
0.0
 11
54.99999532091202
 21
28.97381789289477
 31
0.0
  0
LINE
  5
905
330
1F
100
AcDbEntity
  8
0
100
AcDbLine
 10
55.99999532091203
 20
33.97381789289476
 30
0.0
 11
55.99999532091203
 21
35.97381789289477
 31
0.0
  0
LINE
  5
906
330
1F
100
AcDbEntity
  8
0
100
AcDbLine
 10
54.99999532091202
 20
33.97381789289476
 30
0.0
 11
54.99999532091202
 21
35.97381789289477
 31
0.0
  0
LINE
  5
907
330
1F
100
AcDbEntity
  8
0
100
AcDbLine
 10
57.99999532091202
 20
3.585964049726725
 30
0.0
 11
4.999995320912034
 21
4.973817892894768
 31
0.0
  0
LINE
  5
908
330
1F
100
AcDbEntity
  8
0
100
AcDbLine
 10
3.999995320912034
 20
5.000003814463751
 30
0.0
 11
57.99999532091202
 21
3.585964049726725
 31
0.0
  0
LINE
  5
909
330
1F
100
AcDbEntity
  8
0
100
AcDbLine
 10
-0.000004679087965
 20
0.0000038144637529
 30
0.0
 11
57.99999532091202
 21
0.0000038144637529
 31
0.0
  0
LINE
  5
90A
330
1F
100
AcDbEntity
  8
0
100
AcDbLine
 10
3.999995320912034
 20
5.000003814463751
 30
0.0
 11
-0.000004679087965
 21
4.895260128186746
 31
0.0
  0
LINE
  5
90B
330
1F
100
AcDbEntity
  8
0
100
AcDbLine
 10
31.09999532091199
 20
3.800003814462737
 30
0.0
 11
31.09999532091199
 21
0.0000038144637529
 31
0.0
  0
LINE
  5
90C
330
1F
100
AcDbEntity
  8
0
100
AcDbLine
 10
26.89999532091105
 20
3.800003814462737
 30
0.0
 11
26.89999532091105
 21
0.0000038144637529
 31
0.0
  0
LINE
  5
90D
330
1F
100
AcDbEntity
  8
0
100
AcDbLine
 10
23.49999532091201
 20
3.800003814462737
 30
0.0
 11
34.49999532091203
 21
3.800003814462737
 31
0.0
  0
LINE
  5
90E
330
1F
100
AcDbEntity
  8
0
100
AcDbLine
 10
23.49999532091201
 20
4.48937834386379
 30
0.0
 11
23.49999532091201
 21
3.800003814462737
 31
0.0
  0
LINE
  5
90F
330
1F
100
AcDbEntity
  8
0
100
AcDbLine
 10
34.49999532091203
 20
4.201333206603749
 30
0.0
 11
34.49999532091203
 21
3.800003814462737
 31
0.0
  0
LINE
  5
910
330
1F
100
AcDbEntity
  8
0
100
AcDbLine
 10
57.99999532091202
 20
0.0000038144637529
 30
0.0
 11
57.99999532091202
 21
3.585964049726725
 31
0.0
  0
LINE
  5
911
330
1F
100
AcDbEntity
  8
0
100
AcDbLine
 10
41.14999532091206
 20
120.9738178928944
 30
0.0
 11
41.14999532091206
 21
124.3738178928945
 31
0.0
  0
LINE
  5
912
330
1F
100
AcDbEntity
  8
0
100
AcDbLine
 10
41.14999532091206
 20
124.3738178928945
 30
0.0
 11
47.44999532091206
 21
124.3738178928945
 31
0.0
  0
LINE
  5
913
330
1F
100
AcDbEntity
  8
0
100
AcDbLine
 10
47.44999532091206
 20
124.3738178928945
 30
0.0
 11
47.44999532091206
 21
120.9738178928944
 31
0.0
  0
LINE
  5
914
330
1F
100
AcDbEntity
  8
0
100
AcDbLine
 10
15.59999532091102
 20
126.2738178928947
 30
0.0
 11
15.59999532091102
 21
127.5738178928945
 31
0.0
  0
LINE
  5
915
330
1F
100
AcDbEntity
  8
0
100
AcDbLine
 10
15.59999532091102
 20
127.5738178928945
 30
0.0
 11
24.9449953209111
 21
127.5738178928945
 31
0.0
  0
LINE
  5
916
330
1F
100
AcDbEntity
  8
0
100
AcDbLine
 10
24.9449953209111
 20
127.5738178928945
 30
0.0
 11
24.9449953209111
 21
120.9738178928944
 31
0.0
  0
LINE
  5
917
330
1F
100
AcDbEntity
  8
0
100
AcDbLine
 10
15.19999532091105
 20
121.9738178928944
 30
0.0
 11
15.19999532091105
 21
126.2738178928947
 31
0.0
  0
LINE
  5
918
330
1F
100
AcDbEntity
  8
0
100
AcDbLine
 10
15.19999532091105
 20
126.2738178928947
 30
0.0
 11
21.09999532091106
 21
126.2738178928947
 31
0.0
  0
LINE
  5
919
330
1F
100
AcDbEntity
  8
0
100
AcDbLine
 10
21.09999532091106
 20
126.2738178928947
 30
0.0
 11
21.09999532091106
 21
121.9738178928944
 31
0.0
  0
LINE
  5
91A
330
1F
100
AcDbEntity
  8
0
100
AcDbLine
 10
14.09999532091205
 20
120.9738178928944
 30
0.0
 11
14.09999532091205
 21
121.9738178928944
 31
0.0
  0
LINE
  5
91B
330
1F
100
AcDbEntity
  8
0
100
AcDbLine
 10
14.09999532091205
 20
121.9738178928944
 30
0.0
 11
22.69999532091107
 21
121.9738178928944
 31
0.0
  0
LINE
  5
91C
330
1F
100
AcDbEntity
  8
0
100
AcDbLine
 10
22.69999532091107
 20
121.9738178928944
 30
0.0
 11
22.69999532091107
 21
120.9738178928944
 31
0.0
  0
LINE
  5
987
330
1F
100
AcDbEntity
  8
2_カバ_
  6
CONTINUOUS
100
AcDbLine
 10
54.49999532091204
 20
68.97381789289473
 30
0.0
 11
54.49999532091204
 21
63.97381789289473
 31
0.0
  0
LINE
  5
988
330
1F
100
AcDbEntity
  8
2_カバ_
  6
CONTINUOUS
100
AcDbLine
 10
33.49999532091203
 20
63.97381789289473
 30
0.0
 11
33.49999532091203
 21
68.97381789289473
 31
0.0
  0
LINE
  5
989
330
1F
100
AcDbEntity
  8
2_カバ_
  6
CONTINUOUS
100
AcDbLine
 10
56.99999532091204
 20
63.97381789289473
 30
0.0
 11
15.99999532091203
 21
63.97381789289569
 31
0.0
  0
LINE
  5
98A
330
1F
100
AcDbEntity
  8
2_カバ_
  6
CONTINUOUS
100
AcDbLine
 10
56.99999532091204
 20
61.97381789289472
 30
0.0
 11
15.99999532091203
 21
61.97381789289472
 31
0.0
  0
LINE
  5
98B
330
1F
100
AcDbEntity
  8
2_カバ_
  6
CONTINUOUS
100
AcDbLine
 10
56.99999532091204
 20
56.97381789289472
 30
0.0
 11
15.99999532091203
 21
56.97381789289472
 31
0.0
  0
LINE
  5
98C
330
1F
100
AcDbEntity
  8
2_カバ_
  6
CONTINUOUS
100
AcDbLine
 10
56.99999532091204
 20
54.97381789289473
 30
0.0
 11
15.99999532091203
 21
54.97381789289473
 31
0.0
  0
LINE
  5
98D
330
1F
100
AcDbEntity
  8
2_カバ_
  6
CONTINUOUS
100
AcDbLine
 10
54.49999532091204
 20
48.97381789289473
 30
0.0
 11
33.49999532091203
 21
48.97381789289473
 31
0.0
  0
LINE
  5
98E
330
1F
100
AcDbEntity
  8
2_カバ_
  6
CONTINUOUS
100
AcDbLine
 10
48.99999532091204
 20
53.47381789289471
 30
0.0
 11
38.99999532091202
 21
53.47381789289471
 31
0.0
  0
LINE
  5
98F
330
1F
100
AcDbEntity
  8
2_カバ_
  6
CONTINUOUS
100
AcDbLine
 10
38.99999532091202
 20
49.97381789289473
 30
0.0
 11
48.99999532091204
 21
49.97381789289473
 31
0.0
  0
LINE
  5
990
330
1F
100
AcDbEntity
  8
2_カバ_
  6
CONTINUOUS
100
AcDbLine
 10
32.99999532091202
 20
49.97381789289473
 30
0.0
 11
15.99999532091203
 21
49.97381789289473
 31
0.0
  0
LINE
  5
991
330
1F
100
AcDbEntity
  8
2_カバ_
  6
CONTINUOUS
100
AcDbLine
 10
32.99999532091202
 20
47.97381789289473
 30
0.0
 11
15.99999532091203
 21
47.97381789289473
 31
0.0
  0
LINE
  5
992
330
1F
100
AcDbEntity
  8
2_カバ_
  6
CONTINUOUS
100
AcDbLine
 10
33.49999532091203
 20
48.97381789289473
 30
0.0
 11
33.49999532091203
 21
54.97381789289473
 31
0.0
  0
LINE
  5
993
330
1F
100
AcDbEntity
  8
2_カバ_
  6
CONTINUOUS
100
AcDbLine
 10
32.99999532091202
 20
47.97381789289473
 30
0.0
 11
32.99999532091202
 21
49.97381789289473
 31
0.0
  0
ARC
  5
994
330
1F
100
AcDbEntity
  8
2_カバ_
  6
CONTINUOUS
100
AcDbCircle
 10
38.99999532091202
 20
52.9738178928957
 30
0.0
 40
0.5
100
AcDbArc
 50
90.0
 51
180.0
  0
ARC
  5
995
330
1F
100
AcDbEntity
  8
2_カバ_
  6
CONTINUOUS
100
AcDbCircle
 10
38.99999532091202
 20
50.47381789289473
 30
0.0
 40
0.5
100
AcDbArc
 50
180.0
 51
270.0
  0
LINE
  5
996
330
1F
100
AcDbEntity
  8
2_カバ_
  6
CONTINUOUS
100
AcDbLine
 10
38.49999532091203
 20
52.9738178928957
 30
0.0
 11
38.49999532091203
 21
50.47381789289473
 31
0.0
  0
LINE
  5
997
330
1F
100
AcDbEntity
  8
2_カバ_
  6
CONTINUOUS
100
AcDbLine
 10
33.49999532091203
 20
56.97381789289472
 30
0.0
 11
33.49999532091203
 21
61.97381789289472
 31
0.0
  0
LINE
  5
998
330
1F
100
AcDbEntity
  8
2_カバ_
  6
CONTINUOUS
100
AcDbLine
 10
54.49999532091204
 20
54.97381789289473
 30
0.0
 11
54.49999532091204
 21
48.97381789289473
 31
0.0
  0
ARC
  5
999
330
1F
100
AcDbEntity
  8
2_カバ_
  6
CONTINUOUS
100
AcDbCircle
 10
48.99999532091204
 20
52.97381789289473
 30
0.0
 40
0.5
100
AcDbArc
 50
0.0
 51
90.0
  0
ARC
  5
99A
330
1F
100
AcDbEntity
  8
2_カバ_
  6
CONTINUOUS
100
AcDbCircle
 10
48.99999532091204
 20
50.47381789289473
 30
0.0
 40
0.5
100
AcDbArc
 50
270.0
 51
0.0
  0
LINE
  5
99B
330
1F
100
AcDbEntity
  8
2_カバ_
  6
CONTINUOUS
100
AcDbLine
 10
49.49999532091204
 20
50.47381789289473
 30
0.0
 11
49.49999532091204
 21
52.97381789289473
 31
0.0
  0
LINE
  5
99C
330
1F
100
AcDbEntity
  8
2_カバ_
  6
CONTINUOUS
100
AcDbLine
 10
55.99999532091203
 20
47.97381789289473
 30
0.0
 11
55.99999532091203
 21
49.97381789289473
 31
0.0
  0
LINE
  5
99D
330
1F
100
AcDbEntity
  8
2_カバ_
  6
CONTINUOUS
100
AcDbLine
 10
54.99999532091202
 20
47.97381789289473
 30
0.0
 11
54.99999532091202
 21
49.97381789289473
 31
0.0
  0
LINE
  5
99E
330
1F
100
AcDbEntity
  8
2_カバ_
  6
CONTINUOUS
100
AcDbLine
 10
56.99999532091204
 20
49.97381789289473
 30
0.0
 11
54.99999532091202
 21
49.97381789289473
 31
0.0
  0
LINE
  5
99F
330
1F
100
AcDbEntity
  8
2_カバ_
  6
CONTINUOUS
100
AcDbLine
 10
56.99999532091204
 20
47.97381789289473
 30
0.0
 11
54.99999532091202
 21
47.97381789289473
 31
0.0
  0
LINE
  5
9A0
330
1F
100
AcDbEntity
  8
2_カバ_
  6
CONTINUOUS
100
AcDbLine
 10
54.49999532091204
 20
61.97381789289472
 30
0.0
 11
54.49999532091204
 21
56.97381789289568
 31
0.0
  0
LINE
  5
9A1
330
1F
100
AcDbEntity
  8
2_カバ_
  6
CONTINUOUS
100
AcDbLine
 10
55.99999532091203
 20
54.97381789289473
 30
0.0
 11
55.99999532091203
 21
56.97381789289472
 31
0.0
  0
LINE
  5
9A2
330
1F
100
AcDbEntity
  8
2_カバ_
  6
CONTINUOUS
100
AcDbLine
 10
54.99999532091202
 20
54.97381789289473
 30
0.0
 11
54.99999532091202
 21
56.97381789289472
 31
0.0
  0
LINE
  5
9A3
330
1F
100
AcDbEntity
  8
2_カバ_
  6
CONTINUOUS
100
AcDbLine
 10
55.99999532091203
 20
61.97381789289472
 30
0.0
 11
55.99999532091203
 21
63.97381789289473
 31
0.0
  0
LINE
  5
9A4
330
1F
100
AcDbEntity
  8
2_カバ_
  6
CONTINUOUS
100
AcDbLine
 10
54.99999532091202
 20
61.97381789289472
 30
0.0
 11
54.99999532091202
 21
63.97381789289473
 31
0.0
  0
LINE
  5
9A5
330
1F
100
AcDbEntity
  8
2_カバ_
  6
CONTINUOUS
100
AcDbLine
 10
15.99999532091203
 20
103.9738178928947
 30
0.0
 11
57.99999532091202
 21
103.9738178928947
 31
0.0
  0
LINE
  5
9A6
330
1F
100
AcDbEntity
  8
2_カバ_
  6
CONTINUOUS
100
AcDbLine
 10
56.99999532091204
 20
98.97381789289473
 30
0.0
 11
15.99999532091203
 21
98.97381789289473
 31
0.0
  0
LINE
  5
9A7
330
1F
100
AcDbEntity
  8
2_カバ_
  6
CONTINUOUS
100
AcDbLine
 10
56.99999532091204
 20
96.97381789289472
 30
0.0
 11
15.99999532091203
 21
96.97381789289472
 31
0.0
  0
LINE
  5
9A8
330
1F
100
AcDbEntity
  8
2_カバ_
  6
CONTINUOUS
100
AcDbLine
 10
56.99999532091204
 20
70.9738178928947
 30
0.0
 11
15.99999532091203
 21
70.9738178928947
 31
0.0
  0
LINE
  5
9A9
330
1F
100
AcDbEntity
  8
2_カバ_
  6
CONTINUOUS
100
AcDbLine
 10
56.99999532091204
 20
68.97381789289473
 30
0.0
 11
15.99999532091203
 21
68.97381789289473
 31
0.0
  0
LINE
  5
9AA
330
1F
100
AcDbEntity
  8
2_カバ_
  6
CONTINUOUS
100
AcDbLine
 10
32.99999532091202
 20
91.97381789289472
 30
0.0
 11
15.99999532091203
 21
91.97381789289472
 31
0.0
  0
LINE
  5
9AB
330
1F
100
AcDbEntity
  8
2_カバ_
  6
CONTINUOUS
100
AcDbLine
 10
32.99999532091202
 20
89.97381789289475
 30
0.0
 11
15.99999532091203
 21
89.97381789289475
 31
0.0
  0
LINE
  5
9AC
330
1F
100
AcDbEntity
  8
2_カバ_
  6
CONTINUOUS
100
AcDbLine
 10
32.99999532091202
 20
84.97381789289475
 30
0.0
 11
15.99999532091203
 21
84.97381789289475
 31
0.0
  0
LINE
  5
9AD
330
1F
100
AcDbEntity
  8
2_カバ_
  6
CONTINUOUS
100
AcDbLine
 10
32.99999532091202
 20
82.97381789289472
 30
0.0
 11
15.99999532091203
 21
82.97381789289472
 31
0.0
  0
LINE
  5
9AE
330
1F
100
AcDbEntity
  8
2_カバ_
  6
DASHDOT
100
AcDbLine
 10
38.16146831285804
 20
81.9738178928957
 30
0.0
 11
27.60032233982705
 21
81.9738178928957
 31
0.0
  0
LINE
  5
9AF
330
1F
100
AcDbEntity
  8
2_カバ_
  6
CONTINUOUS
100
AcDbLine
 10
32.99999532091202
 20
77.97381789289473
 30
0.0
 11
15.99999532091203
 21
77.97381789289473
 31
0.0
  0
LINE
  5
9B0
330
1F
100
AcDbEntity
  8
2_カバ_
  6
CONTINUOUS
100
AcDbLine
 10
32.99999532091202
 20
75.9738178928947
 30
0.0
 11
15.99999532091203
 21
75.9738178928947
 31
0.0
  0
LINE
  5
9B1
330
1F
100
AcDbEntity
  8
2_カバ_
  6
CONTINUOUS
100
AcDbLine
 10
32.99999532091202
 20
82.97381789289472
 30
0.0
 11
32.99999532091202
 21
84.97381789289475
 31
0.0
  0
LINE
  5
9B2
330
1F
100
AcDbEntity
  8
2_カバ_
  6
CONTINUOUS
100
AcDbLine
 10
33.49999532091203
 20
70.9738178928947
 30
0.0
 11
33.49999532091203
 21
96.97381789289472
 31
0.0
  0
LINE
  5
9B3
330
1F
100
AcDbEntity
  8
2_カバ_
  6
DASHDOT
100
AcDbLine
 10
35.49999532091202
 20
85.10321846928373
 30
0.0
 11
35.49999532091202
 21
79.01837713556368
 31
0.0
  0
LINE
  5
9B4
330
1F
100
AcDbEntity
  8
2_カバ_
  6
CONTINUOUS
100
AcDbLine
 10
32.99999532091202
 20
75.9738178928947
 30
0.0
 11
32.99999532091202
 21
77.97381789289473
 31
0.0
  0
CIRCLE
  5
9B5
330
1F
100
AcDbEntity
  8
2_カバ_
  6
CONTINUOUS
100
AcDbCircle
 10
35.49999532091202
 20
81.9738178928957
 30
0.0
 40
1.25
  0
LINE
  5
9B6
330
1F
100
AcDbEntity
  8
2_カバ_
  6
CONTINUOUS
100
AcDbLine
 10
32.99999532091202
 20
89.97381789289475
 30
0.0
 11
32.99999532091202
 21
91.97381789289472
 31
0.0
  0
LINE
  5
9B7
330
1F
100
AcDbEntity
  8
2_カバ_
  6
CONTINUOUS
100
AcDbLine
 10
33.49999532091203
 20
98.97381789289473
 30
0.0
 11
33.49999532091203
 21
103.9738178928947
 31
0.0
  0
LINE
  5
9B8
330
1F
100
AcDbEntity
  8
2_カバ_
  6
CONTINUOUS
100
AcDbLine
 10
55.99999532091203
 20
96.97381789289472
 30
0.0
 11
55.99999532091203
 21
98.97381789289473
 31
0.0
  0
LINE
  5
9B9
330
1F
100
AcDbEntity
  8
2_カバ_
  6
CONTINUOUS
100
AcDbLine
 10
54.99999532091202
 20
96.97381789289472
 30
0.0
 11
54.99999532091202
 21
98.97381789289473
 31
0.0
  0
LINE
  5
9BA
330
1F
100
AcDbEntity
  8
2_カバ_
  6
CONTINUOUS
100
AcDbLine
 10
55.99999532091203
 20
82.97381789289472
 30
0.0
 11
55.99999532091203
 21
84.97381789289475
 31
0.0
  0
LINE
  5
9BB
330
1F
100
AcDbEntity
  8
2_カバ_
  6
CONTINUOUS
100
AcDbLine
 10
54.99999532091202
 20
82.97381789289472
 30
0.0
 11
54.99999532091202
 21
84.97381789289475
 31
0.0
  0
LINE
  5
9BC
330
1F
100
AcDbEntity
  8
2_カバ_
  6
CONTINUOUS
100
AcDbLine
 10
54.49999532091204
 20
96.97381789289472
 30
0.0
 11
54.49999532091204
 21
70.9738178928957
 31
0.0
  0
LINE
  5
9BD
330
1F
100
AcDbEntity
  8
2_カバ_
  6
CONTINUOUS
100
AcDbLine
 10
55.99999532091203
 20
75.9738178928947
 30
0.0
 11
55.99999532091203
 21
77.9738178928957
 31
0.0
  0
LINE
  5
9BE
330
1F
100
AcDbEntity
  8
2_カバ_
  6
CONTINUOUS
100
AcDbLine
 10
54.99999532091202
 20
75.9738178928947
 30
0.0
 11
54.99999532091202
 21
77.9738178928957
 31
0.0
  0
LINE
  5
9BF
330
1F
100
AcDbEntity
  8
2_カバ_
  6
CONTINUOUS
100
AcDbLine
 10
56.99999532091204
 20
75.9738178928947
 30
0.0
 11
54.99999532091202
 21
75.9738178928947
 31
0.0
  0
LINE
  5
9C0
330
1F
100
AcDbEntity
  8
2_カバ_
  6
CONTINUOUS
100
AcDbLine
 10
55.99999532091203
 20
68.97381789289473
 30
0.0
 11
55.99999532091203
 21
70.9738178928947
 31
0.0
  0
LINE
  5
9C1
330
1F
100
AcDbEntity
  8
2_カバ_
  6
CONTINUOUS
100
AcDbLine
 10
54.99999532091202
 20
68.97381789289473
 30
0.0
 11
54.99999532091202
 21
70.9738178928947
 31
0.0
  0
LINE
  5
9C2
330
1F
100
AcDbEntity
  8
2_カバ_
  6
CONTINUOUS
100
AcDbLine
 10
56.99999532091204
 20
82.97381789289472
 30
0.0
 11
54.99999532091202
 21
82.97381789289472
 31
0.0
  0
LINE
  5
9C3
330
1F
100
AcDbEntity
  8
2_カバ_
  6
CONTINUOUS
100
AcDbLine
 10
56.99999532091204
 20
77.97381789289473
 30
0.0
 11
54.99999532091202
 21
77.97381789289473
 31
0.0
  0
LINE
  5
9C4
330
1F
100
AcDbEntity
  8
2_カバ_
  6
DASHDOT
100
AcDbLine
 10
48.92110543886103
 20
89.47381789289471
 30
0.0
 11
55.66961344491606
 21
89.47381789289471
 31
0.0
  0
LINE
  5
9C5
330
1F
100
AcDbEntity
  8
2_カバ_
  6
CONTINUOUS
100
AcDbLine
 10
53.49999532091203
 20
86.97381789289471
 30
0.0
 11
53.49999532091203
 21
91.97381789289472
 31
0.0
  0
LINE
  5
9C6
330
1F
100
AcDbEntity
  8
2_カバ_
  6
CONTINUOUS
100
AcDbLine
 10
49.99999532091202
 20
91.9738178928957
 30
0.0
 11
49.99999532091202
 21
86.97381789289471
 31
0.0
  0
LINE
  5
9C7
330
1F
100
AcDbEntity
  8
2_カバ_
  6
CONTINUOUS
100
AcDbLine
 10
52.99999532091202
 20
86.47381789289473
 30
0.0
 11
50.49999532091202
 21
86.47381789289473
 31
0.0
  0
ARC
  5
9C8
330
1F
100
AcDbEntity
  8
2_カバ_
  6
CONTINUOUS
100
AcDbCircle
 10
50.49999532091202
 20
86.97381789289471
 30
0.0
 40
0.5
100
AcDbArc
 50
180.0
 51
270.0
  0
ARC
  5
9C9
330
1F
100
AcDbEntity
  8
2_カバ_
  6
CONTINUOUS
100
AcDbCircle
 10
52.99999532091202
 20
86.97381789289471
 30
0.0
 40
0.5
100
AcDbArc
 50
270.0
 51
0.0
  0
ARC
  5
9CA
330
1F
100
AcDbEntity
  8
2_カバ_
  6
CONTINUOUS
100
AcDbCircle
 10
52.99999532091202
 20
91.97381789289472
 30
0.0
 40
0.5
100
AcDbArc
 50
0.0
 51
90.0
  0
ARC
  5
9CB
330
1F
100
AcDbEntity
  8
2_カバ_
  6
CONTINUOUS
100
AcDbCircle
 10
50.49999532091202
 20
91.9738178928957
 30
0.0
 40
0.5
100
AcDbArc
 50
89.99999999999673
 51
180.0
  0
LINE
  5
9CC
330
1F
100
AcDbEntity
  8
2_カバ_
  6
CONTINUOUS
100
AcDbLine
 10
52.99999532091202
 20
92.47381789289473
 30
0.0
 11
50.49999532091202
 21
92.47381789289567
 31
0.0
  0
LINE
  5
9CD
330
1F
100
AcDbEntity
  8
2_カバ_
  6
CONTINUOUS
100
AcDbLine
 10
55.99999532091203
 20
89.97381789289475
 30
0.0
 11
55.99999532091203
 21
91.97381789289472
 31
0.0
  0
LINE
  5
9CE
330
1F
100
AcDbEntity
  8
2_カバ_
  6
CONTINUOUS
100
AcDbLine
 10
54.99999532091202
 20
89.97381789289475
 30
0.0
 11
54.99999532091202
 21
91.97381789289472
 31
0.0
  0
LINE
  5
9CF
330
1F
100
AcDbEntity
  8
2_カバ_
  6
CONTINUOUS
100
AcDbLine
 10
56.99999532091204
 20
84.97381789289475
 30
0.0
 11
54.99999532091202
 21
84.97381789289475
 31
0.0
  0
LINE
  5
9D0
330
1F
100
AcDbEntity
  8
2_カバ_
  6
CONTINUOUS
100
AcDbLine
 10
56.99999532091204
 20
89.97381789289475
 30
0.0
 11
54.99999532091202
 21
89.97381789289475
 31
0.0
  0
LINE
  5
9D1
330
1F
100
AcDbEntity
  8
2_カバ_
  6
CONTINUOUS
100
AcDbLine
 10
56.99999532091204
 20
91.97381789289472
 30
0.0
 11
54.99999532091202
 21
91.97381789289472
 31
0.0
  0
LINE
  5
9D2
330
1F
100
AcDbEntity
  8
2_カバ_
  6
CONTINUOUS
100
AcDbLine
 10
54.49999532091204
 20
103.9738178928947
 30
0.0
 11
54.49999532091204
 21
98.97381789289473
 31
0.0
  0
LINE
  5
9FD
330
1F
100
AcDbEntity
  8
0
100
AcDbLine
 10
278.9999953209118
 20
364.8428882850482
 30
0.0
 11
278.9999953209118
 21
171.1047475007404
 31
0.0
  0
LINE
  5
9FE
330
1F
100
AcDbEntity
  8
0
100
AcDbLine
 10
273.9999953209117
 20
170.9738178928944
 30
0.0
 11
273.9999953209117
 21
180.9738178928943
 31
0.0
  0
LINE
  5
9FF
330
1F
100
AcDbEntity
  8
0
100
AcDbLine
 10
157.9999953209128
 20
180.9738178928943
 30
0.0
 11
157.9999953209128
 21
354.9738178928941
 31
0.0
  0
LINE
  5
A00
330
1F
100
AcDbEntity
  8
0
100
AcDbLine
 10
157.9999953209128
 20
354.9738178928941
 30
0.0
 11
273.9999953209117
 21
354.9738178928941
 31
0.0
  0
LINE
  5
A01
330
1F
100
AcDbEntity
  8
0
100
AcDbLine
 10
157.9999953209128
 20
180.9738178928943
 30
0.0
 11
273.9999953209117
 21
180.9738178928943
 31
0.0
  0
LINE
  5
A02
330
1F
100
AcDbEntity
  8
0
100
AcDbLine
 10
273.9999953209117
 20
364.9738178928942
 30
0.0
 11
278.9999953209118
 21
364.8428882850482
 31
0.0
  0
LINE
  5
A03
330
1F
100
AcDbEntity
  8
0
100
AcDbLine
 10
275.4140350856484
 20
364.9367899585192
 30
0.0
 11
275.4140350856477
 21
171.0108458272691
 31
0.0
  0
LINE
  5
A04
330
1F
100
AcDbEntity
  8
0
100
AcDbLine
 10
273.9999953209117
 20
170.9738178928944
 30
0.0
 11
278.9999953209118
 21
171.1047475007404
 31
0.0
  0
LINE
  5
A05
330
1F
100
AcDbEntity
  8
0
100
AcDbLine
 10
157.9999953209128
 20
180.9738178928943
 30
0.0
 11
157.9999953209128
 21
354.9738178928941
 31
0.0
  0
LINE
  5
A06
330
1F
100
AcDbEntity
  8
0
100
AcDbLine
 10
157.9999953209128
 20
354.9738178928941
 30
0.0
 11
275.3878491640807
 21
354.9738178928941
 31
0.0
  0
LINE
  5
A07
330
1F
100
AcDbEntity
  8
0
100
AcDbLine
 10
174.9999953209128
 20
180.9738178928943
 30
0.0
 11
174.9999953209128
 21
354.9738178928941
 31
0.0
  0
LINE
  5
A08
330
1F
100
AcDbEntity
  8
0
100
AcDbLine
 10
256.9999953209125
 20
180.9738178928943
 30
0.0
 11
256.9999953209125
 21
354.9738178928941
 31
0.0
  0
LINE
  5
A09
330
1F
100
AcDbEntity
  8
0
100
AcDbLine
 10
174.9999953209128
 20
353.9738178928942
 30
0.0
 11
256.9999953209125
 21
353.9738178928942
 31
0.0
  0
LINE
  5
A0A
330
1F
100
AcDbEntity
  8
0
100
AcDbLine
 10
179.9999953209128
 20
351.9738178928942
 30
0.0
 11
181.9999953209128
 21
351.9738178928942
 31
0.0
  0
LINE
  5
A0B
330
1F
100
AcDbEntity
  8
0
100
AcDbLine
 10
179.9999953209128
 20
181.9738178928943
 30
0.0
 11
179.9999953209128
 21
235.2238178928943
 31
0.0
  0
LINE
  5
A0C
330
1F
100
AcDbEntity
  8
0
100
AcDbLine
 10
181.9999953209128
 20
181.9738178928943
 30
0.0
 11
181.9999953209128
 21
235.2238178928943
 31
0.0
  0
LINE
  5
A0D
330
1F
100
AcDbEntity
  8
0
100
AcDbLine
 10
179.9999953209128
 20
300.7238178928941
 30
0.0
 11
181.9999953209128
 21
300.7238178928941
 31
0.0
  0
LINE
  5
A0E
330
1F
100
AcDbEntity
  8
0
100
AcDbLine
 10
179.9999953209128
 20
235.2238178928943
 30
0.0
 11
181.9999953209128
 21
235.2238178928943
 31
0.0
  0
LINE
  5
A0F
330
1F
100
AcDbEntity
  8
0
100
AcDbLine
 10
174.9999953209128
 20
181.9738178928943
 30
0.0
 11
256.9999953209125
 21
181.9738178928943
 31
0.0
  0
LINE
  5
A10
330
1F
100
AcDbEntity
  8
0
100
AcDbLine
 10
179.9999953209128
 20
183.9738178928944
 30
0.0
 11
181.9999953209128
 21
183.9738178928944
 31
0.0
  0
LINE
  5
A11
330
1F
100
AcDbEntity
  8
0
100
AcDbLine
 10
179.9999953209128
 20
300.7238178928941
 30
0.0
 11
179.9999953209128
 21
353.9738178928942
 31
0.0
  0
LINE
  5
A12
330
1F
100
AcDbEntity
  8
0
100
AcDbLine
 10
181.9999953209128
 20
300.7238178928941
 30
0.0
 11
181.9999953209128
 21
353.9738178928942
 31
0.0
  0
LINE
  5
A13
330
1F
100
AcDbEntity
  8
0
100
AcDbLine
 10
186.9999953209128
 20
351.9738178928942
 30
0.0
 11
188.9999953209128
 21
351.9738178928942
 31
0.0
  0
LINE
  5
A14
330
1F
100
AcDbEntity
  8
0
100
AcDbLine
 10
186.9999953209128
 20
181.9738178928943
 30
0.0
 11
186.9999953209128
 21
235.2238178928943
 31
0.0
  0
LINE
  5
A15
330
1F
100
AcDbEntity
  8
0
100
AcDbLine
 10
188.9999953209128
 20
181.9738178928943
 30
0.0
 11
188.9999953209128
 21
235.2238178928943
 31
0.0
  0
LINE
  5
A16
330
1F
100
AcDbEntity
  8
0
100
AcDbLine
 10
186.9999953209128
 20
300.7238178928941
 30
0.0
 11
188.9999953209128
 21
300.7238178928941
 31
0.0
  0
LINE
  5
A17
330
1F
100
AcDbEntity
  8
0
100
AcDbLine
 10
186.9999953209128
 20
235.2238178928943
 30
0.0
 11
188.9999953209128
 21
235.2238178928943
 31
0.0
  0
LINE
  5
A18
330
1F
100
AcDbEntity
  8
0
100
AcDbLine
 10
186.9999953209128
 20
183.9738178928944
 30
0.0
 11
188.9999953209128
 21
183.9738178928944
 31
0.0
  0
LINE
  5
A19
330
1F
100
AcDbEntity
  8
0
100
AcDbLine
 10
186.9999953209128
 20
300.7238178928941
 30
0.0
 11
186.9999953209128
 21
353.9738178928942
 31
0.0
  0
LINE
  5
A1A
330
1F
100
AcDbEntity
  8
0
100
AcDbLine
 10
188.9999953209128
 20
300.7238178928941
 30
0.0
 11
188.9999953209128
 21
353.9738178928942
 31
0.0
  0
LINE
  5
A1B
330
1F
100
AcDbEntity
  8
0
100
AcDbLine
 10
193.9999953209128
 20
351.9738178928942
 30
0.0
 11
195.9999953209128
 21
351.9738178928942
 31
0.0
  0
LINE
  5
A1C
330
1F
100
AcDbEntity
  8
0
100
AcDbLine
 10
193.9999953209128
 20
181.9738178928943
 30
0.0
 11
193.9999953209128
 21
235.2238178928943
 31
0.0
  0
LINE
  5
A1D
330
1F
100
AcDbEntity
  8
0
100
AcDbLine
 10
195.9999953209128
 20
181.9738178928943
 30
0.0
 11
195.9999953209128
 21
235.2238178928943
 31
0.0
  0
LINE
  5
A1E
330
1F
100
AcDbEntity
  8
0
100
AcDbLine
 10
193.9999953209128
 20
300.7238178928941
 30
0.0
 11
195.9999953209128
 21
300.7238178928941
 31
0.0
  0
LINE
  5
A1F
330
1F
100
AcDbEntity
  8
0
100
AcDbLine
 10
193.9999953209128
 20
235.2238178928943
 30
0.0
 11
195.9999953209128
 21
235.2238178928943
 31
0.0
  0
LINE
  5
A20
330
1F
100
AcDbEntity
  8
0
100
AcDbLine
 10
193.9999953209128
 20
183.9738178928944
 30
0.0
 11
195.9999953209128
 21
183.9738178928944
 31
0.0
  0
LINE
  5
A21
330
1F
100
AcDbEntity
  8
0
100
AcDbLine
 10
193.9999953209128
 20
300.7238178928941
 30
0.0
 11
193.9999953209128
 21
353.9738178928942
 31
0.0
  0
LINE
  5
A22
330
1F
100
AcDbEntity
  8
0
100
AcDbLine
 10
195.9999953209128
 20
300.7238178928941
 30
0.0
 11
195.9999953209128
 21
353.9738178928942
 31
0.0
  0
LINE
  5
A23
330
1F
100
AcDbEntity
  8
0
100
AcDbLine
 10
200.9999953209128
 20
181.9738178928943
 30
0.0
 11
200.9999953209128
 21
235.2238178928943
 31
0.0
  0
LINE
  5
A24
330
1F
100
AcDbEntity
  8
0
100
AcDbLine
 10
202.9999953209128
 20
181.9738178928943
 30
0.0
 11
202.9999953209128
 21
235.2238178928943
 31
0.0
  0
LINE
  5
A25
330
1F
100
AcDbEntity
  8
0
100
AcDbLine
 10
200.9999953209128
 20
300.7238178928941
 30
0.0
 11
202.9999953209128
 21
300.7238178928941
 31
0.0
  0
LINE
  5
A26
330
1F
100
AcDbEntity
  8
0
100
AcDbLine
 10
200.9999953209128
 20
235.2238178928943
 30
0.0
 11
202.9999953209128
 21
235.2238178928943
 31
0.0
  0
LINE
  5
A27
330
1F
100
AcDbEntity
  8
0
100
AcDbLine
 10
200.9999953209128
 20
183.9738178928944
 30
0.0
 11
202.9999953209128
 21
183.9738178928944
 31
0.0
  0
LINE
  5
A28
330
1F
100
AcDbEntity
  8
0
100
AcDbLine
 10
200.9999953209128
 20
300.7238178928941
 30
0.0
 11
200.9999953209128
 21
353.9738178928942
 31
0.0
  0
LINE
  5
A29
330
1F
100
AcDbEntity
  8
0
100
AcDbLine
 10
202.9999953209128
 20
300.7238178928941
 30
0.0
 11
202.9999953209128
 21
353.9738178928942
 31
0.0
  0
LINE
  5
A2A
330
1F
100
AcDbEntity
  8
0
100
AcDbLine
 10
207.9999953209128
 20
351.9738178928942
 30
0.0
 11
209.9999953209128
 21
351.9738178928942
 31
0.0
  0
LINE
  5
A2B
330
1F
100
AcDbEntity
  8
0
100
AcDbLine
 10
207.9999953209128
 20
181.9738178928943
 30
0.0
 11
207.9999953209128
 21
235.2238178928943
 31
0.0
  0
LINE
  5
A2C
330
1F
100
AcDbEntity
  8
0
100
AcDbLine
 10
209.9999953209128
 20
181.9738178928943
 30
0.0
 11
209.9999953209128
 21
235.2238178928943
 31
0.0
  0
LINE
  5
A2D
330
1F
100
AcDbEntity
  8
0
100
AcDbLine
 10
207.9999953209128
 20
300.7238178928941
 30
0.0
 11
209.9999953209128
 21
300.7238178928941
 31
0.0
  0
LINE
  5
A2E
330
1F
100
AcDbEntity
  8
0
100
AcDbLine
 10
207.9999953209128
 20
235.2238178928943
 30
0.0
 11
209.9999953209128
 21
235.2238178928943
 31
0.0
  0
LINE
  5
A2F
330
1F
100
AcDbEntity
  8
0
100
AcDbLine
 10
207.9999953209128
 20
183.9738178928944
 30
0.0
 11
209.9999953209128
 21
183.9738178928944
 31
0.0
  0
LINE
  5
A30
330
1F
100
AcDbEntity
  8
0
100
AcDbLine
 10
207.9999953209128
 20
300.7238178928941
 30
0.0
 11
207.9999953209128
 21
353.9738178928942
 31
0.0
  0
LINE
  5
A31
330
1F
100
AcDbEntity
  8
0
100
AcDbLine
 10
209.9999953209128
 20
300.7238178928941
 30
0.0
 11
209.9999953209128
 21
353.9738178928942
 31
0.0
  0
LINE
  5
A32
330
1F
100
AcDbEntity
  8
0
100
AcDbLine
 10
214.9999953209128
 20
351.9738178928942
 30
0.0
 11
216.9999953209128
 21
351.9738178928942
 31
0.0
  0
LINE
  5
A33
330
1F
100
AcDbEntity
  8
0
100
AcDbLine
 10
214.9999953209128
 20
181.9738178928943
 30
0.0
 11
214.9999953209128
 21
235.2238178928943
 31
0.0
  0
LINE
  5
A34
330
1F
100
AcDbEntity
  8
0
100
AcDbLine
 10
216.9999953209128
 20
181.9738178928943
 30
0.0
 11
216.9999953209128
 21
235.2238178928943
 31
0.0
  0
LINE
  5
A35
330
1F
100
AcDbEntity
  8
0
100
AcDbLine
 10
214.9999953209128
 20
300.7238178928941
 30
0.0
 11
216.9999953209128
 21
300.7238178928941
 31
0.0
  0
LINE
  5
A36
330
1F
100
AcDbEntity
  8
0
100
AcDbLine
 10
214.9999953209128
 20
235.2238178928943
 30
0.0
 11
216.9999953209128
 21
235.2238178928943
 31
0.0
  0
LINE
  5
A37
330
1F
100
AcDbEntity
  8
0
100
AcDbLine
 10
214.9999953209128
 20
183.9738178928944
 30
0.0
 11
216.9999953209128
 21
183.9738178928944
 31
0.0
  0
LINE
  5
A38
330
1F
100
AcDbEntity
  8
0
100
AcDbLine
 10
214.9999953209128
 20
300.7238178928941
 30
0.0
 11
214.9999953209128
 21
353.9738178928942
 31
0.0
  0
LINE
  5
A39
330
1F
100
AcDbEntity
  8
0
100
AcDbLine
 10
216.9999953209128
 20
300.7238178928941
 30
0.0
 11
216.9999953209128
 21
353.9738178928942
 31
0.0
  0
LINE
  5
A3A
330
1F
100
AcDbEntity
  8
0
100
AcDbLine
 10
221.9999953209128
 20
351.9738178928942
 30
0.0
 11
223.9999953209128
 21
351.9738178928942
 31
0.0
  0
LINE
  5
A3B
330
1F
100
AcDbEntity
  8
0
100
AcDbLine
 10
221.9999953209128
 20
181.9738178928943
 30
0.0
 11
221.9999953209128
 21
235.2238178928943
 31
0.0
  0
LINE
  5
A3C
330
1F
100
AcDbEntity
  8
0
100
AcDbLine
 10
223.9999953209128
 20
181.9738178928943
 30
0.0
 11
223.9999953209128
 21
235.2238178928943
 31
0.0
  0
LINE
  5
A3D
330
1F
100
AcDbEntity
  8
0
100
AcDbLine
 10
221.9999953209128
 20
300.7238178928941
 30
0.0
 11
223.9999953209128
 21
300.7238178928941
 31
0.0
  0
LINE
  5
A3E
330
1F
100
AcDbEntity
  8
0
100
AcDbLine
 10
221.9999953209128
 20
235.2238178928943
 30
0.0
 11
223.9999953209128
 21
235.2238178928943
 31
0.0
  0
LINE
  5
A3F
330
1F
100
AcDbEntity
  8
0
100
AcDbLine
 10
221.9999953209128
 20
183.9738178928944
 30
0.0
 11
223.9999953209128
 21
183.9738178928944
 31
0.0
  0
LINE
  5
A40
330
1F
100
AcDbEntity
  8
0
100
AcDbLine
 10
221.9999953209128
 20
300.7238178928941
 30
0.0
 11
221.9999953209128
 21
353.9738178928942
 31
0.0
  0
LINE
  5
A41
330
1F
100
AcDbEntity
  8
0
100
AcDbLine
 10
223.9999953209128
 20
300.7238178928941
 30
0.0
 11
223.9999953209128
 21
353.9738178928942
 31
0.0
  0
LINE
  5
A42
330
1F
100
AcDbEntity
  8
0
100
AcDbLine
 10
228.9999953209128
 20
351.9738178928942
 30
0.0
 11
230.9999953209128
 21
351.9738178928942
 31
0.0
  0
LINE
  5
A43
330
1F
100
AcDbEntity
  8
0
100
AcDbLine
 10
228.9999953209128
 20
181.9738178928943
 30
0.0
 11
228.9999953209128
 21
235.2238178928943
 31
0.0
  0
LINE
  5
A44
330
1F
100
AcDbEntity
  8
0
100
AcDbLine
 10
230.9999953209128
 20
181.9738178928943
 30
0.0
 11
230.9999953209128
 21
235.2238178928943
 31
0.0
  0
LINE
  5
A45
330
1F
100
AcDbEntity
  8
0
100
AcDbLine
 10
228.9999953209128
 20
300.7238178928941
 30
0.0
 11
230.9999953209128
 21
300.7238178928941
 31
0.0
  0
LINE
  5
A46
330
1F
100
AcDbEntity
  8
0
100
AcDbLine
 10
228.9999953209128
 20
235.2238178928943
 30
0.0
 11
230.9999953209128
 21
235.2238178928943
 31
0.0
  0
LINE
  5
A47
330
1F
100
AcDbEntity
  8
0
100
AcDbLine
 10
228.9999953209128
 20
183.9738178928944
 30
0.0
 11
230.9999953209128
 21
183.9738178928944
 31
0.0
  0
LINE
  5
A48
330
1F
100
AcDbEntity
  8
0
100
AcDbLine
 10
228.9999953209128
 20
300.7238178928941
 30
0.0
 11
228.9999953209128
 21
353.9738178928942
 31
0.0
  0
LINE
  5
A49
330
1F
100
AcDbEntity
  8
0
100
AcDbLine
 10
230.9999953209128
 20
300.7238178928941
 30
0.0
 11
230.9999953209128
 21
353.9738178928942
 31
0.0
  0
LINE
  5
A4A
330
1F
100
AcDbEntity
  8
0
100
AcDbLine
 10
235.9999953209128
 20
351.9738178928942
 30
0.0
 11
237.9999953209128
 21
351.9738178928942
 31
0.0
  0
LINE
  5
A4B
330
1F
100
AcDbEntity
  8
0
100
AcDbLine
 10
235.9999953209128
 20
181.9738178928943
 30
0.0
 11
235.9999953209128
 21
235.2238178928943
 31
0.0
  0
LINE
  5
A4C
330
1F
100
AcDbEntity
  8
0
100
AcDbLine
 10
237.9999953209128
 20
181.9738178928943
 30
0.0
 11
237.9999953209128
 21
235.2238178928943
 31
0.0
  0
LINE
  5
A4D
330
1F
100
AcDbEntity
  8
0
100
AcDbLine
 10
235.9999953209128
 20
300.7238178928941
 30
0.0
 11
237.9999953209128
 21
300.7238178928941
 31
0.0
  0
LINE
  5
A4E
330
1F
100
AcDbEntity
  8
0
100
AcDbLine
 10
235.9999953209128
 20
235.2238178928943
 30
0.0
 11
237.9999953209128
 21
235.2238178928943
 31
0.0
  0
LINE
  5
A4F
330
1F
100
AcDbEntity
  8
0
100
AcDbLine
 10
235.9999953209128
 20
183.9738178928944
 30
0.0
 11
237.9999953209128
 21
183.9738178928944
 31
0.0
  0
LINE
  5
A50
330
1F
100
AcDbEntity
  8
0
100
AcDbLine
 10
235.9999953209128
 20
300.7238178928941
 30
0.0
 11
235.9999953209128
 21
353.9738178928942
 31
0.0
  0
LINE
  5
A51
330
1F
100
AcDbEntity
  8
0
100
AcDbLine
 10
237.9999953209128
 20
300.7238178928941
 30
0.0
 11
237.9999953209128
 21
353.9738178928942
 31
0.0
  0
LINE
  5
A52
330
1F
100
AcDbEntity
  8
0
100
AcDbLine
 10
242.9999953209128
 20
351.9738178928942
 30
0.0
 11
244.9999953209128
 21
351.9738178928942
 31
0.0
  0
LINE
  5
A53
330
1F
100
AcDbEntity
  8
0
100
AcDbLine
 10
242.9999953209128
 20
181.9738178928943
 30
0.0
 11
242.9999953209128
 21
235.2238178928943
 31
0.0
  0
LINE
  5
A54
330
1F
100
AcDbEntity
  8
0
100
AcDbLine
 10
244.9999953209128
 20
181.9738178928943
 30
0.0
 11
244.9999953209128
 21
235.2238178928943
 31
0.0
  0
LINE
  5
A55
330
1F
100
AcDbEntity
  8
0
100
AcDbLine
 10
242.9999953209128
 20
300.7238178928941
 30
0.0
 11
244.9999953209128
 21
300.7238178928941
 31
0.0
  0
LINE
  5
A56
330
1F
100
AcDbEntity
  8
0
100
AcDbLine
 10
242.9999953209128
 20
235.2238178928943
 30
0.0
 11
244.9999953209128
 21
235.2238178928943
 31
0.0
  0
LINE
  5
A57
330
1F
100
AcDbEntity
  8
0
100
AcDbLine
 10
242.9999953209128
 20
183.9738178928944
 30
0.0
 11
244.9999953209128
 21
183.9738178928944
 31
0.0
  0
LINE
  5
A58
330
1F
100
AcDbEntity
  8
0
100
AcDbLine
 10
242.9999953209128
 20
300.7238178928941
 30
0.0
 11
242.9999953209128
 21
353.9738178928942
 31
0.0
  0
LINE
  5
A59
330
1F
100
AcDbEntity
  8
0
100
AcDbLine
 10
244.9999953209128
 20
300.7238178928941
 30
0.0
 11
244.9999953209128
 21
353.9738178928942
 31
0.0
  0
LINE
  5
A5A
330
1F
100
AcDbEntity
  8
0
100
AcDbLine
 10
249.9999953209128
 20
351.9738178928942
 30
0.0
 11
251.9999953209125
 21
351.9738178928942
 31
0.0
  0
LINE
  5
A5B
330
1F
100
AcDbEntity
  8
0
100
AcDbLine
 10
249.9999953209128
 20
181.9738178928943
 30
0.0
 11
249.9999953209128
 21
235.2238178928943
 31
0.0
  0
LINE
  5
A5C
330
1F
100
AcDbEntity
  8
0
100
AcDbLine
 10
251.9999953209125
 20
181.9738178928943
 30
0.0
 11
251.9999953209125
 21
235.2238178928943
 31
0.0
  0
LINE
  5
A5D
330
1F
100
AcDbEntity
  8
0
100
AcDbLine
 10
249.9999953209128
 20
300.7238178928941
 30
0.0
 11
251.9999953209125
 21
300.7238178928941
 31
0.0
  0
LINE
  5
A5E
330
1F
100
AcDbEntity
  8
0
100
AcDbLine
 10
249.9999953209128
 20
235.2238178928943
 30
0.0
 11
251.9999953209125
 21
235.2238178928943
 31
0.0
  0
LINE
  5
A5F
330
1F
100
AcDbEntity
  8
0
100
AcDbLine
 10
249.9999953209128
 20
183.9738178928944
 30
0.0
 11
251.9999953209125
 21
183.9738178928944
 31
0.0
  0
LINE
  5
A60
330
1F
100
AcDbEntity
  8
0
100
AcDbLine
 10
249.9999953209128
 20
300.7238178928941
 30
0.0
 11
249.9999953209128
 21
353.9738178928942
 31
0.0
  0
LINE
  5
A61
330
1F
100
AcDbEntity
  8
0
100
AcDbLine
 10
251.9999953209125
 20
300.7238178928941
 30
0.0
 11
251.9999953209125
 21
353.9738178928942
 31
0.0
  0
LINE
  5
A62
330
1F
100
AcDbEntity
  8
0
100
AcDbLine
 10
179.9999953209128
 20
329.4738178928941
 30
0.0
 11
181.9999953209128
 21
329.4738178928941
 31
0.0
  0
LINE
  5
A63
330
1F
100
AcDbEntity
  8
0
100
AcDbLine
 10
179.9999953209128
 20
326.4738178928941
 30
0.0
 11
181.9999953209128
 21
326.4738178928941
 31
0.0
  0
LINE
  5
A64
330
1F
100
AcDbEntity
  8
0
100
AcDbLine
 10
179.9999953209128
 20
209.4738178928944
 30
0.0
 11
181.9999953209128
 21
209.4738178928944
 31
0.0
  0
LINE
  5
A65
330
1F
100
AcDbEntity
  8
0
100
AcDbLine
 10
179.9999953209128
 20
206.4738178928943
 30
0.0
 11
181.9999953209128
 21
206.4738178928943
 31
0.0
  0
LINE
  5
A66
330
1F
100
AcDbEntity
  8
0
100
AcDbLine
 10
186.9999953209128
 20
329.4738178928941
 30
0.0
 11
188.9999953209128
 21
329.4738178928941
 31
0.0
  0
LINE
  5
A67
330
1F
100
AcDbEntity
  8
0
100
AcDbLine
 10
186.9999953209128
 20
326.4738178928941
 30
0.0
 11
188.9999953209128
 21
326.4738178928941
 31
0.0
  0
LINE
  5
A68
330
1F
100
AcDbEntity
  8
0
100
AcDbLine
 10
186.9999953209128
 20
209.4738178928944
 30
0.0
 11
188.9999953209128
 21
209.4738178928944
 31
0.0
  0
LINE
  5
A69
330
1F
100
AcDbEntity
  8
0
100
AcDbLine
 10
186.9999953209128
 20
206.4738178928943
 30
0.0
 11
188.9999953209128
 21
206.4738178928943
 31
0.0
  0
LINE
  5
A6A
330
1F
100
AcDbEntity
  8
0
100
AcDbLine
 10
193.9999953209128
 20
329.4738178928941
 30
0.0
 11
195.9999953209128
 21
329.4738178928941
 31
0.0
  0
LINE
  5
A6B
330
1F
100
AcDbEntity
  8
0
100
AcDbLine
 10
193.9999953209128
 20
326.4738178928941
 30
0.0
 11
195.9999953209128
 21
326.4738178928941
 31
0.0
  0
LINE
  5
A6C
330
1F
100
AcDbEntity
  8
0
100
AcDbLine
 10
193.9999953209128
 20
209.4738178928944
 30
0.0
 11
195.9999953209128
 21
209.4738178928944
 31
0.0
  0
LINE
  5
A6D
330
1F
100
AcDbEntity
  8
0
100
AcDbLine
 10
193.9999953209128
 20
206.4738178928943
 30
0.0
 11
195.9999953209128
 21
206.4738178928943
 31
0.0
  0
LINE
  5
A6E
330
1F
100
AcDbEntity
  8
0
100
AcDbLine
 10
200.9999953209128
 20
329.4738178928941
 30
0.0
 11
202.9999953209128
 21
329.4738178928941
 31
0.0
  0
LINE
  5
A6F
330
1F
100
AcDbEntity
  8
0
100
AcDbLine
 10
200.9999953209128
 20
326.4738178928941
 30
0.0
 11
202.9999953209128
 21
326.4738178928941
 31
0.0
  0
LINE
  5
A70
330
1F
100
AcDbEntity
  8
0
100
AcDbLine
 10
200.9999953209128
 20
209.4738178928944
 30
0.0
 11
202.9999953209128
 21
209.4738178928944
 31
0.0
  0
LINE
  5
A71
330
1F
100
AcDbEntity
  8
0
100
AcDbLine
 10
200.9999953209128
 20
206.4738178928943
 30
0.0
 11
202.9999953209128
 21
206.4738178928943
 31
0.0
  0
LINE
  5
A72
330
1F
100
AcDbEntity
  8
0
100
AcDbLine
 10
207.9999953209128
 20
329.4738178928941
 30
0.0
 11
209.9999953209128
 21
329.4738178928941
 31
0.0
  0
LINE
  5
A73
330
1F
100
AcDbEntity
  8
0
100
AcDbLine
 10
207.9999953209128
 20
326.4738178928941
 30
0.0
 11
209.9999953209128
 21
326.4738178928941
 31
0.0
  0
LINE
  5
A74
330
1F
100
AcDbEntity
  8
0
100
AcDbLine
 10
207.9999953209128
 20
209.4738178928944
 30
0.0
 11
209.9999953209128
 21
209.4738178928944
 31
0.0
  0
LINE
  5
A75
330
1F
100
AcDbEntity
  8
0
100
AcDbLine
 10
207.9999953209128
 20
206.4738178928943
 30
0.0
 11
209.9999953209128
 21
206.4738178928943
 31
0.0
  0
LINE
  5
A76
330
1F
100
AcDbEntity
  8
0
100
AcDbLine
 10
214.9999953209128
 20
329.4738178928941
 30
0.0
 11
216.9999953209128
 21
329.4738178928941
 31
0.0
  0
LINE
  5
A77
330
1F
100
AcDbEntity
  8
0
100
AcDbLine
 10
214.9999953209128
 20
326.4738178928941
 30
0.0
 11
216.9999953209128
 21
326.4738178928941
 31
0.0
  0
LINE
  5
A78
330
1F
100
AcDbEntity
  8
0
100
AcDbLine
 10
214.9999953209128
 20
209.4738178928944
 30
0.0
 11
216.9999953209128
 21
209.4738178928944
 31
0.0
  0
LINE
  5
A79
330
1F
100
AcDbEntity
  8
0
100
AcDbLine
 10
214.9999953209128
 20
206.4738178928943
 30
0.0
 11
216.9999953209128
 21
206.4738178928943
 31
0.0
  0
LINE
  5
A7A
330
1F
100
AcDbEntity
  8
0
100
AcDbLine
 10
221.9999953209128
 20
329.4738178928941
 30
0.0
 11
223.9999953209128
 21
329.4738178928941
 31
0.0
  0
LINE
  5
A7B
330
1F
100
AcDbEntity
  8
0
100
AcDbLine
 10
221.9999953209128
 20
326.4738178928941
 30
0.0
 11
223.9999953209128
 21
326.4738178928941
 31
0.0
  0
LINE
  5
A7C
330
1F
100
AcDbEntity
  8
0
100
AcDbLine
 10
221.9999953209128
 20
209.4738178928944
 30
0.0
 11
223.9999953209128
 21
209.4738178928944
 31
0.0
  0
LINE
  5
A7D
330
1F
100
AcDbEntity
  8
0
100
AcDbLine
 10
221.9999953209128
 20
206.4738178928943
 30
0.0
 11
223.9999953209128
 21
206.4738178928943
 31
0.0
  0
LINE
  5
A7E
330
1F
100
AcDbEntity
  8
0
100
AcDbLine
 10
228.9999953209128
 20
329.4738178928941
 30
0.0
 11
230.9999953209128
 21
329.4738178928941
 31
0.0
  0
LINE
  5
A7F
330
1F
100
AcDbEntity
  8
0
100
AcDbLine
 10
228.9999953209128
 20
326.4738178928941
 30
0.0
 11
230.9999953209128
 21
326.4738178928941
 31
0.0
  0
LINE
  5
A80
330
1F
100
AcDbEntity
  8
0
100
AcDbLine
 10
228.9999953209128
 20
209.4738178928944
 30
0.0
 11
230.9999953209128
 21
209.4738178928944
 31
0.0
  0
LINE
  5
A81
330
1F
100
AcDbEntity
  8
0
100
AcDbLine
 10
228.9999953209128
 20
206.4738178928943
 30
0.0
 11
230.9999953209128
 21
206.4738178928943
 31
0.0
  0
LINE
  5
A82
330
1F
100
AcDbEntity
  8
0
100
AcDbLine
 10
235.9999953209128
 20
329.4738178928941
 30
0.0
 11
237.9999953209128
 21
329.4738178928941
 31
0.0
  0
LINE
  5
A83
330
1F
100
AcDbEntity
  8
0
100
AcDbLine
 10
235.9999953209128
 20
326.4738178928941
 30
0.0
 11
237.9999953209128
 21
326.4738178928941
 31
0.0
  0
LINE
  5
A84
330
1F
100
AcDbEntity
  8
0
100
AcDbLine
 10
235.9999953209128
 20
209.4738178928944
 30
0.0
 11
237.9999953209128
 21
209.4738178928944
 31
0.0
  0
LINE
  5
A85
330
1F
100
AcDbEntity
  8
0
100
AcDbLine
 10
235.9999953209128
 20
206.4738178928943
 30
0.0
 11
237.9999953209128
 21
206.4738178928943
 31
0.0
  0
LINE
  5
A86
330
1F
100
AcDbEntity
  8
0
100
AcDbLine
 10
242.9999953209128
 20
329.4738178928941
 30
0.0
 11
244.9999953209128
 21
329.4738178928941
 31
0.0
  0
LINE
  5
A87
330
1F
100
AcDbEntity
  8
0
100
AcDbLine
 10
242.9999953209128
 20
326.4738178928941
 30
0.0
 11
244.9999953209128
 21
326.4738178928941
 31
0.0
  0
LINE
  5
A88
330
1F
100
AcDbEntity
  8
0
100
AcDbLine
 10
242.9999953209128
 20
209.4738178928944
 30
0.0
 11
244.9999953209128
 21
209.4738178928944
 31
0.0
  0
LINE
  5
A89
330
1F
100
AcDbEntity
  8
0
100
AcDbLine
 10
242.9999953209128
 20
206.4738178928943
 30
0.0
 11
244.9999953209128
 21
206.4738178928943
 31
0.0
  0
LINE
  5
A8A
330
1F
100
AcDbEntity
  8
0
100
AcDbLine
 10
249.9999953209128
 20
329.4738178928941
 30
0.0
 11
251.9999953209125
 21
329.4738178928941
 31
0.0
  0
LINE
  5
A8B
330
1F
100
AcDbEntity
  8
0
100
AcDbLine
 10
249.9999953209128
 20
326.4738178928941
 30
0.0
 11
251.9999953209125
 21
326.4738178928941
 31
0.0
  0
LINE
  5
A8C
330
1F
100
AcDbEntity
  8
0
100
AcDbLine
 10
249.9999953209128
 20
209.4738178928944
 30
0.0
 11
251.9999953209125
 21
209.4738178928944
 31
0.0
  0
LINE
  5
A8D
330
1F
100
AcDbEntity
  8
0
100
AcDbLine
 10
249.9999953209128
 20
206.4738178928943
 30
0.0
 11
251.9999953209125
 21
206.4738178928943
 31
0.0
  0
LINE
  5
A8E
330
1F
100
AcDbEntity
  8
0
100
AcDbLine
 10
229.9999953209128
 20
181.9738178928943
 30
0.0
 11
229.9999953209116
 21
181.4738178928944
 31
0.0
  0
LINE
  5
A8F
330
1F
100
AcDbEntity
  8
0
100
AcDbLine
 10
174.9999953209128
 20
181.4738178928944
 30
0.0
 11
229.9999953209128
 21
181.4738178928944
 31
0.0
  0
LINE
  5
A90
330
1F
100
AcDbEntity
  8
0
100
AcDbLine
 10
275.3878491640795
 20
180.9738178928943
 30
0.0
 11
275.3878491640807
 21
354.9738178928941
 31
0.0
  0
LINE
  5
A91
330
1F
100
AcDbEntity
  8
0
100
AcDbLine
 10
154.5999953209129
 20
221.6738186265847
 30
0.0
 11
154.5999953209129
 21
201.4738186265847
 31
0.0
  0
LINE
  5
A92
330
1F
100
AcDbEntity
  8
0
100
AcDbLine
 10
155.4999953209128
 20
197.9738186265845
 30
0.0
 11
154.9999953209128
 21
198.4738186265845
 31
0.0
  0
LINE
  5
A93
330
1F
100
AcDbEntity
  8
0
100
AcDbLine
 10
154.9999953209129
 20
199.3738186265845
 30
0.0
 11
154.9999953209128
 21
198.4738186265845
 31
0.0
  0
LINE
  5
A94
330
1F
100
AcDbEntity
  8
0
100
AcDbLine
 10
156.2999953209129
 20
197.9738186265845
 30
0.0
 11
155.4999953209128
 21
197.9738186265845
 31
0.0
  0
ARC
  5
A95
330
1F
100
AcDbEntity
  8
0
100
AcDbCircle
 10
155.9999953209129
 20
199.3738186265845
 30
0.0
 40
1.0
100
AcDbArc
 50
90.0
 51
180.0
  0
LINE
  5
A96
330
1F
100
AcDbEntity
  8
0
100
AcDbLine
 10
157.9999953209128
 20
200.3738186265845
 30
0.0
 11
155.9999953209129
 21
200.3738186265845
 31
0.0
  0
LINE
  5
A97
330
1F
100
AcDbEntity
  8
0
100
AcDbLine
 10
157.9999953209128
 20
199.1738186265847
 30
0.0
 11
156.2999953209129
 21
199.1738186265847
 31
0.0
  0
LINE
  5
A98
330
1F
100
AcDbEntity
  8
0
100
AcDbLine
 10
157.9999953209128
 20
201.4738186265845
 30
0.0
 11
154.5999953209129
 21
201.4738186265847
 31
0.0
  0
LINE
  5
A99
330
1F
100
AcDbEntity
  8
0
100
AcDbLine
 10
156.2999953209129
 20
197.9738186265845
 30
0.0
 11
156.2999953209129
 21
199.1738186265847
 31
0.0
  0
LINE
  5
A9A
330
1F
100
AcDbEntity
  8
0
100
AcDbLine
 10
155.499995320913
 20
225.1738186265847
 30
0.0
 11
154.9999953209129
 21
224.6738186265847
 31
0.0
  0
LINE
  5
A9B
330
1F
100
AcDbEntity
  8
0
100
AcDbLine
 10
154.9999953209129
 20
224.6738186265847
 30
0.0
 11
154.9999953209129
 21
223.7738186265846
 31
0.0
  0
LINE
  5
A9C
330
1F
100
AcDbEntity
  8
0
100
AcDbLine
 10
156.2999953209129
 20
225.1738186265847
 30
0.0
 11
155.499995320913
 21
225.1738186265847
 31
0.0
  0
ARC
  5
A9D
330
1F
100
AcDbEntity
  8
0
100
AcDbCircle
 10
155.9999953209129
 20
223.7738186265846
 30
0.0
 40
1.0
100
AcDbArc
 50
180.0
 51
270.0
  0
LINE
  5
A9E
330
1F
100
AcDbEntity
  8
0
100
AcDbLine
 10
157.9999953209128
 20
222.7738186265847
 30
0.0
 11
155.9999953209129
 21
222.7738186265847
 31
0.0
  0
LINE
  5
A9F
330
1F
100
AcDbEntity
  8
0
100
AcDbLine
 10
154.5999953209129
 20
221.6738186265847
 30
0.0
 11
157.9999953209128
 21
221.6738186265847
 31
0.0
  0
LINE
  5
AA0
330
1F
100
AcDbEntity
  8
0
100
AcDbLine
 10
157.9999953209128
 20
223.9738186265848
 30
0.0
 11
156.2999953209128
 21
223.9738186265848
 31
0.0
  0
LINE
  5
AA1
330
1F
100
AcDbEntity
  8
0
100
AcDbLine
 10
156.2999953209129
 20
223.9738186265845
 30
0.0
 11
156.2999953209129
 21
225.1738186265847
 31
0.0
  0
LINE
  5
AA2
330
1F
100
AcDbEntity
  8
0
100
AcDbLine
 10
157.9999953209128
 20
185.9738186265845
 30
0.0
 11
155.4999953209127
 21
185.9738186265845
 31
0.0
  0
LINE
  5
AA3
330
1F
100
AcDbEntity
  8
0
100
AcDbLine
 10
155.4999953209127
 20
185.9738186265845
 30
0.0
 11
155.4999953209127
 21
191.4738186265847
 31
0.0
  0
LINE
  5
AA4
330
1F
100
AcDbEntity
  8
0
100
AcDbLine
 10
155.4999953209127
 20
191.4738186265847
 30
0.0
 11
157.9999953209128
 21
191.4738186265847
 31
0.0
  0
LINE
  5
AA5
330
1F
100
AcDbEntity
  8
0
100
AcDbLine
 10
157.9999953209128
 20
226.6138178928945
 30
0.0
 11
156.9999953209128
 21
226.6138178928945
 31
0.0
  0
LINE
  5
AA6
330
1F
100
AcDbEntity
  8
0
100
AcDbLine
 10
156.9999953209128
 20
226.6138178928945
 30
0.0
 11
156.9999953209128
 21
223.9738186265848
 31
0.0
  0
LINE
  5
AA7
330
1F
100
AcDbEntity
  8
0
100
AcDbLine
 10
151.3999953209128
 20
276.973817892894
 30
0.0
 11
157.9999953209128
 21
276.973817892894
 31
0.0
  0
LINE
  5
AA8
330
1F
100
AcDbEntity
  8
0
100
AcDbLine
 10
157.9999953209128
 20
301.1338178928943
 30
0.0
 11
151.3999953209128
 21
301.1338178928943
 31
0.0
  0
LINE
  5
AA9
330
1F
100
AcDbEntity
  8
0
100
AcDbLine
 10
151.3999953209128
 20
301.1338178928943
 30
0.0
 11
151.3999953209128
 21
276.973817892894
 31
0.0
  0
LINE
  5
AAA
330
1F
100
AcDbEntity
  8
0
100
AcDbLine
 10
152.6999953209128
 20
235.8138178928943
 30
0.0
 11
152.6999953209128
 21
264.2738178928945
 31
0.0
  0
LINE
  5
AAB
330
1F
100
AcDbEntity
  8
0
100
AcDbLine
 10
152.6999953209128
 20
239.9238178928944
 30
0.0
 11
156.9999953209125
 21
239.9238178928944
 31
0.0
  0
LINE
  5
AAC
330
1F
100
AcDbEntity
  8
0
100
AcDbLine
 10
156.9999953209128
 20
235.8138178928943
 30
0.0
 11
152.6999953209128
 21
235.8138178928943
 31
0.0
  0
LINE
  5
AAD
330
1F
100
AcDbEntity
  8
0
100
AcDbLine
 10
152.6999953209128
 20
260.1638178928944
 30
0.0
 11
157.9999953209128
 21
260.1638178928944
 31
0.0
  0
LINE
  5
AAE
330
1F
100
AcDbEntity
  8
0
100
AcDbLine
 10
152.6999953209128
 20
255.1638178928945
 30
0.0
 11
157.9999953209128
 21
255.1638178928945
 31
0.0
  0
LINE
  5
AAF
330
1F
100
AcDbEntity
  8
0
100
AcDbLine
 10
152.6999953209128
 20
247.5438178928944
 30
0.0
 11
157.9999953209128
 21
247.5438178928944
 31
0.0
  0
LINE
  5
AB0
330
1F
100
AcDbEntity
  8
0
100
AcDbLine
 10
152.6999953209128
 20
252.5438178928943
 30
0.0
 11
157.9999953209128
 21
252.5438178928943
 31
0.0
  0
LINE
  5
AB1
330
1F
100
AcDbEntity
  8
0
100
AcDbLine
 10
152.6999953209128
 20
244.9238178928943
 30
0.0
 11
157.199995320913
 21
244.9238178928943
 31
0.0
  0
LINE
  5
AB2
330
1F
100
AcDbEntity
  8
0
100
AcDbLine
 10
157.199995320913
 20
264.2738178928945
 30
0.0
 11
152.6999953209128
 21
264.2738178928945
 31
0.0
  0
LINE
  5
AB3
330
1F
100
AcDbEntity
  8
0
100
AcDbLine
 10
200.9999953209128
 20
351.9738178928942
 30
0.0
 11
202.9999953209128
 21
351.9738178928942
 31
0.0
  0
LINE
  5
AB4
330
1F
100
AcDbEntity
  8
0
100
AcDbLine
 10
273.9999953209117
 20
354.9738178928941
 30
0.0
 11
273.9999953209117
 21
364.9738178928942
 31
0.0
  0
LINE
  5
AB5
330
1F
100
AcDbEntity
  8
0
100
AcDbLine
 10
157.9999953209128
 20
180.9738178928943
 30
0.0
 11
275.3878491640807
 21
180.9738178928943
 31
0.0
  0
LINE
  5
ABD
330
1F
100
AcDbEntity
  8
0
100
AcDbLine
 10
156.9999953209128
 20
222.7738186265847
 30
0.0
 11
156.9999953209128
 21
221.6738186265847
 31
0.0
  0
LINE
  5
ABE
330
1F
100
AcDbEntity
  8
0
100
AcDbLine
 10
156.9999953209128
 20
201.4738186265847
 30
0.0
 11
156.9999953209128
 21
200.3738186265845
 31
0.0
  0
LINE
  5
ABF
330
1F
100
AcDbEntity
  8
0
100
AcDbLine
 10
156.9999953209128
 20
199.1738186265847
 30
0.0
 11
156.9999953209128
 21
191.4738186265847
 31
0.0
  0
LINE
  5
AC0
330
1F
100
AcDbEntity
  8
0
100
AcDbLine
 10
157.9999953209128
 20
322.4138178928943
 30
0.0
 11
156.9956333800618
 21
322.4138178928943
 31
0.0
  0
LINE
  5
AC1
330
1F
100
AcDbEntity
  8
0
100
AcDbLine
 10
157.9999953209128
 20
233.1738186265847
 30
0.0
 11
156.9999953209128
 21
233.1738186265847
 31
0.0
  0
LINE
  5
AC2
330
1F
100
AcDbEntity
  8
0
100
AcDbLine
 10
156.9999953209128
 20
233.1738186265847
 30
0.0
 11
156.9999953209125
 21
241.5738186265848
 31
0.0
  0
LINE
  5
AC3
330
1F
100
AcDbEntity
  8
0
100
AcDbLine
 10
156.9999953209125
 20
241.5738186265848
 30
0.0
 11
157.9999953209128
 21
241.5738186265848
 31
0.0
  0
LINE
  5
AC4
330
1F
100
AcDbEntity
  8
0
100
AcDbLine
 10
157.9999953209128
 20
243.0738186265847
 30
0.0
 11
157.199995320913
 21
243.0738186265847
 31
0.0
  0
LINE
  5
AC5
330
1F
100
AcDbEntity
  8
0
100
AcDbLine
 10
157.199995320913
 20
243.0738186265847
 30
0.0
 11
157.199995320913
 21
246.0738186265848
 31
0.0
  0
LINE
  5
AC6
330
1F
100
AcDbEntity
  8
0
100
AcDbLine
 10
157.199995320913
 20
246.0738186265848
 30
0.0
 11
157.9999953209128
 21
246.0738186265848
 31
0.0
  0
LINE
  5
AC7
330
1F
100
AcDbEntity
  8
0
100
AcDbLine
 10
157.9999953209128
 20
263.0738186265848
 30
0.0
 11
157.199995320913
 21
263.0738186265848
 31
0.0
  0
LINE
  5
AC8
330
1F
100
AcDbEntity
  8
0
100
AcDbLine
 10
157.199995320913
 20
263.0738186265848
 30
0.0
 11
157.199995320913
 21
266.0738186265847
 31
0.0
  0
LINE
  5
AC9
330
1F
100
AcDbEntity
  8
0
100
AcDbLine
 10
157.199995320913
 20
266.0738186265847
 30
0.0
 11
157.9999953209128
 21
266.0738186265847
 31
0.0
  0
LINE
  5
ACA
330
1F
100
AcDbEntity
  8
0
  6
CONTINUOUS
100
AcDbLine
 10
156.9956333800618
 20
322.4138178928943
 30
0.0
 11
156.9956333800618
 21
307.0138178928941
 31
0.0
  0
LINE
  5
ACB
330
1F
100
AcDbEntity
  8
0
  6
CONTINUOUS
100
AcDbLine
 10
156.9956333800618
 20
307.0138178928941
 30
0.0
 11
157.9999953209128
 21
307.0138178928941
 31
0.0
  0
ENDSEC
  0
SECTION
  2
OBJECTS
  0
DICTIONARY
  5
C
330
0
100
AcDbDictionary
  3
ACAD_GROUP
350
D
  3
ACAD_LAYOUT
350
1A
  3
ACAD_MLINESTYLE
350
17
  3
ACAD_PLOTSETTINGS
350
19
  3
ACAD_PLOTSTYLENAME
350
E
  3
ACDBHEADERROUNDTRIPXREC
350
B1F
  3
ACDBVARIABLEDICTIONARY
350
7D3
  0
DICTIONARY
  5
3C5
330
2
100
AcDbDictionary
280
     1
  3
ACAD_LAYERSTATES
360
3C6
  0
DICTIONARY
  5
7F9
330
1F
100
AcDbDictionary
280
     1
  3
ACAD_LAYOUTSELFREF
360
B40
  0
DICTIONARY
  5
7F7
330
1B
100
AcDbDictionary
280
     1
  3
ACAD_LAYOUTSELFREF
360
B3F
  0
DICTIONARY
  5
D
102
{ACAD_REACTORS
330
C
102
}
330
C
100
AcDbDictionary
  0
DICTIONARY
  5
1A
102
{ACAD_REACTORS
330
C
102
}
330
C
100
AcDbDictionary
  0
DICTIONARY
  5
17
102
{ACAD_REACTORS
330
C
102
}
330
C
100
AcDbDictionary
  3
STANDARD
350
18
  0
DICTIONARY
  5
19
102
{ACAD_REACTORS
330
C
102
}
330
C
100
AcDbDictionary
  0
ACDBDICTIONARYWDFLT
  5
E
102
{ACAD_REACTORS
330
C
102
}
330
C
100
AcDbDictionary
281
     1
  3
Normal
350
F
100
AcDbDictionaryWithDefault
340
F
  0
DICTIONARY
  5
B1F
102
{ACAD_REACTORS
330
C
102
}
330
C
100
AcDbDictionary
  3
CEPSNTYPE
350
B29
  3
FINGERPRINTGUID
350
B2A
  3
HYPERLINKBASE
350
B22
  3
INSUNITS
350
B28
  3
LAYOUTDICT
350
B24
  3
LWETCUNION
350
B27
  3
PLOTSETDICT
350
B25
  3
PLOTSTYLNAMDICT
350
B26
  3
PSVPSCALE
350
B2C
  3
PUCSBASE
350
B2F
  3
PUCSORGBACK
350
B35
  3
PUCSORGBOTTOM
350
B31
  3
PUCSORGFRONT
350
B34
  3
PUCSORGLEFT
350
B32
  3
PUCSORGRIGHT
350
B33
  3
PUCSORGTOP
350
B30
  3
PUCSORTHOREF
350
B2D
  3
PUCSORTHOVIEW
350
B2E
  3
STYLESHEET
350
B23
  3
TSTACKALIGN
350
B20
  3
TSTACKSIZE
350
B21
  3
UCSBASE
350
B38
  3
UCSORGBACK
350
B3E
  3
UCSORGBOTTOM
350
B3A
  3
UCSORGFRONT
350
B3D
  3
UCSORGLEFT
350
B3B
  3
UCSORGRIGHT
350
B3C
  3
UCSORGTOP
350
B39
  3
UCSORTHOREF
350
B36
  3
UCSORTHOVIEW
350
B37
  3
VERSIONGUID
350
B2B
  0
DICTIONARY
  5
7D3
102
{ACAD_REACTORS
330
C
102
}
330
C
100
AcDbDictionary
  3
DIMASSOC
350
7D5
  3
HIDETEXT
350
7D4
  0
DICTIONARY
  5
3C6
102
{ACAD_REACTORS
330
3C5
102
}
330
3C5
100
AcDbDictionary
  0
XRECORD
  5
B40
102
{ACAD_REACTORS
330
7F9
102
}
330
7F9
100
AcDbXrecord
340
1F
  0
XRECORD
  5
B3F
102
{ACAD_REACTORS
330
7F7
102
}
330
7F7
100
AcDbXrecord
340
1B
  0
MLINESTYLE
  5
18
102
{ACAD_REACTORS
330
17
102
}
330
17
100
AcDbMlineStyle
  2
STANDARD
 70
     0
  3

 62
   256
 51
90.0
 52
90.0
 71
     2
 49
0.5
 62
   256
  6
BYLAYER
 49
-0.5
 62
   256
  6
BYLAYER
  0
ACDBPLACEHOLDER
  5
F
102
{ACAD_REACTORS
330
E
102
}
330
E
100
AcDbPlaceHolder
280
     0
  0
XRECORD
  5
B29
102
{ACAD_REACTORS
330
B1F
102
}
330
B1F
100
AcDbXrecord
 90
        0
  0
XRECORD
  5
B2A
102
{ACAD_REACTORS
330
B1F
102
}
330
B1F
100
AcDbXrecord
  1
{583C6217-58FB-4863-9BF5-F82FCF1233EF}
  0
XRECORD
  5
B22
102
{ACAD_REACTORS
330
B1F
102
}
330
B1F
100
AcDbXrecord
  1

  0
XRECORD
  5
B28
102
{ACAD_REACTORS
330
B1F
102
}
330
B1F
100
AcDbXrecord
 90
        4
  0
XRECORD
  5
B24
102
{ACAD_REACTORS
330
B1F
102
}
330
B1F
100
AcDbXrecord
340
1A
  0
XRECORD
  5
B27
102
{ACAD_REACTORS
330
B1F
102
}
330
B1F
100
AcDbXrecord
 90
    10781
  0
XRECORD
  5
B25
102
{ACAD_REACTORS
330
B1F
102
}
330
B1F
100
AcDbXrecord
340
19
  0
XRECORD
  5
B26
102
{ACAD_REACTORS
330
B1F
102
}
330
B1F
100
AcDbXrecord
340
E
  0
XRECORD
  5
B2C
102
{ACAD_REACTORS
330
B1F
102
}
330
B1F
100
AcDbXrecord
 40
0.0
  0
XRECORD
  5
B2F
102
{ACAD_REACTORS
330
B1F
102
}
330
B1F
100
AcDbXrecord
340
0
  0
XRECORD
  5
B35
102
{ACAD_REACTORS
330
B1F
102
}
330
B1F
100
AcDbXrecord
 10
0.0
 20
0.0
 30
0.0
  0
XRECORD
  5
B31
102
{ACAD_REACTORS
330
B1F
102
}
330
B1F
100
AcDbXrecord
 10
0.0
 20
0.0
 30
0.0
  0
XRECORD
  5
B34
102
{ACAD_REACTORS
330
B1F
102
}
330
B1F
100
AcDbXrecord
 10
0.0
 20
0.0
 30
0.0
  0
XRECORD
  5
B32
102
{ACAD_REACTORS
330
B1F
102
}
330
B1F
100
AcDbXrecord
 10
0.0
 20
0.0
 30
0.0
  0
XRECORD
  5
B33
102
{ACAD_REACTORS
330
B1F
102
}
330
B1F
100
AcDbXrecord
 10
0.0
 20
0.0
 30
0.0
  0
XRECORD
  5
B30
102
{ACAD_REACTORS
330
B1F
102
}
330
B1F
100
AcDbXrecord
 10
0.0
 20
0.0
 30
0.0
  0
XRECORD
  5
B2D
102
{ACAD_REACTORS
330
B1F
102
}
330
B1F
100
AcDbXrecord
340
0
  0
XRECORD
  5
B2E
102
{ACAD_REACTORS
330
B1F
102
}
330
B1F
100
AcDbXrecord
 70
     0
  0
XRECORD
  5
B23
102
{ACAD_REACTORS
330
B1F
102
}
330
B1F
100
AcDbXrecord
  1

  0
XRECORD
  5
B20
102
{ACAD_REACTORS
330
B1F
102
}
330
B1F
100
AcDbXrecord
 90
        1
  0
XRECORD
  5
B21
102
{ACAD_REACTORS
330
B1F
102
}
330
B1F
100
AcDbXrecord
 90
       70
  0
XRECORD
  5
B38
102
{ACAD_REACTORS
330
B1F
102
}
330
B1F
100
AcDbXrecord
340
0
  0
XRECORD
  5
B3E
102
{ACAD_REACTORS
330
B1F
102
}
330
B1F
100
AcDbXrecord
 10
0.0
 20
0.0
 30
0.0
  0
XRECORD
  5
B3A
102
{ACAD_REACTORS
330
B1F
102
}
330
B1F
100
AcDbXrecord
 10
0.0
 20
0.0
 30
0.0
  0
XRECORD
  5
B3D
102
{ACAD_REACTORS
330
B1F
102
}
330
B1F
100
AcDbXrecord
 10
0.0
 20
0.0
 30
0.0
  0
XRECORD
  5
B3B
102
{ACAD_REACTORS
330
B1F
102
}
330
B1F
100
AcDbXrecord
 10
0.0
 20
0.0
 30
0.0
  0
XRECORD
  5
B3C
102
{ACAD_REACTORS
330
B1F
102
}
330
B1F
100
AcDbXrecord
 10
0.0
 20
0.0
 30
0.0
  0
XRECORD
  5
B39
102
{ACAD_REACTORS
330
B1F
102
}
330
B1F
100
AcDbXrecord
 10
0.0
 20
0.0
 30
0.0
  0
XRECORD
  5
B36
102
{ACAD_REACTORS
330
B1F
102
}
330
B1F
100
AcDbXrecord
340
0
  0
XRECORD
  5
B37
102
{ACAD_REACTORS
330
B1F
102
}
330
B1F
100
AcDbXrecord
 70
     0
  0
XRECORD
  5
B2B
102
{ACAD_REACTORS
330
B1F
102
}
330
B1F
100
AcDbXrecord
  1
{F1C19DC3-2198-40F4-A8A0-7A2D9C01A9E3}
  0
DICTIONARYVAR
  5
7D5
102
{ACAD_REACTORS
330
7D3
102
}
330
7D3
100
DictionaryVariables
280
     0
  1
2
  0
DICTIONARYVAR
  5
7D4
102
{ACAD_REACTORS
330
7D3
102
}
330
7D3
100
DictionaryVariables
280
     0
  1
1
  0
ENDSEC
  0
EOF
