  0
SECTION
  2
HEADER
  9
$ACADVER
  1
AC1014
  9
$ACADMAINTVER
 70
     9
  9
$DWGCODEPAGE
  3
ANSI_932
  9
$INSBASE
 10
0.0
 20
0.0
 30
0.0
  9
$EXTMIN
 10
-3.36081764916107
 20
0.0000001354038659
 30
0.0
  9
$EXTMAX
 10
279.0000012421543
 20
399.9564286977796
 30
0.0
  9
$LIMMIN
 10
0.0
 20
0.0
  9
$LIMMAX
 10
420.0
 20
297.0
  9
$ORTHOMODE
 70
     0
  9
$REGENMODE
 70
     1
  9
$FILLMODE
 70
     1
  9
$QTEXTMODE
 70
     0
  9
$MIRRTEXT
 70
     1
  9
$DRAGMODE
 70
     2
  9
$LTSCALE
 40
1.0
  9
$OSMODE
 70
    55
  9
$ATTMODE
 70
     1
  9
$TEXTSIZE
 40
2.5
  9
$TRACEWID
 40
1.0
  9
$TEXTSTYLE
  7
STANDARD
  9
$CLAYER
  8
0
  9
$CELTYPE
  6
BYLAYER
  9
$CECOLOR
 62
   256
  9
$CELTSCALE
 40
1.0
  9
$DELOBJ
 70
     1
  9
$DISPSILH
 70
     0
  9
$DIMSCALE
 40
1.0
  9
$DIMASZ
 40
2.5
  9
$DIMEXO
 40
0.625
  9
$DIMDLI
 40
3.75
  9
$DIMRND
 40
0.0
  9
$DIMDLE
 40
0.0
  9
$DIMEXE
 40
1.25
  9
$DIMTP
 40
0.0
  9
$DIMTM
 40
0.0
  9
$DIMTXT
 40
2.5
  9
$DIMCEN
 40
2.5
  9
$DIMTSZ
 40
0.0
  9
$DIMTOL
 70
     0
  9
$DIMLIM
 70
     0
  9
$DIMTIH
 70
     0
  9
$DIMTOH
 70
     0
  9
$DIMSE1
 70
     0
  9
$DIMSE2
 70
     0
  9
$DIMTAD
 70
     1
  9
$DIMZIN
 70
     8
  9
$DIMBLK
  1

  9
$DIMASO
 70
     1
  9
$DIMSHO
 70
     1
  9
$DIMPOST
  1

  9
$DIMAPOST
  1

  9
$DIMALT
 70
     0
  9
$DIMALTD
 70
     3
  9
$DIMALTF
 40
0.03937007874016
  9
$DIMLFAC
 40
1.0
  9
$DIMTOFL
 70
     1
  9
$DIMTVP
 40
0.0
  9
$DIMTIX
 70
     0
  9
$DIMSOXD
 70
     0
  9
$DIMSAH
 70
     0
  9
$DIMBLK1
  1

  9
$DIMBLK2
  1

  9
$DIMSTYLE
  2
ISO-25
  9
$DIMCLRD
 70
     0
  9
$DIMCLRE
 70
     0
  9
$DIMCLRT
 70
     0
  9
$DIMTFAC
 40
1.0
  9
$DIMGAP
 40
0.625
  9
$DIMJUST
 70
     0
  9
$DIMSD1
 70
     0
  9
$DIMSD2
 70
     0
  9
$DIMTOLJ
 70
     0
  9
$DIMTZIN
 70
     8
  9
$DIMALTZ
 70
     0
  9
$DIMALTTZ
 70
     0
  9
$DIMFIT
 70
     3
  9
$DIMUPT
 70
     0
  9
$DIMUNIT
 70
     2
  9
$DIMDEC
 70
     2
  9
$DIMTDEC
 70
     2
  9
$DIMALTU
 70
     2
  9
$DIMALTTD
 70
     3
  9
$DIMTXSTY
  7
STANDARD
  9
$DIMAUNIT
 70
     0
  9
$LUNITS
 70
     2
  9
$LUPREC
 70
     4
  9
$SKETCHINC
 40
1.0
  9
$FILLETRAD
 40
10.0
  9
$AUNITS
 70
     0
  9
$AUPREC
 70
     0
  9
$MENU
  1
.
  9
$ELEVATION
 40
0.0
  9
$PELEVATION
 40
0.0
  9
$THICKNESS
 40
0.0
  9
$LIMCHECK
 70
     0
  9
$BLIPMODE
 70
     0
  9
$CHAMFERA
 40
10.0
  9
$CHAMFERB
 40
10.0
  9
$CHAMFERC
 40
20.0
  9
$CHAMFERD
 40
0.0
  9
$SKPOLY
 70
     0
  9
$TDCREATE
 40
2455874.790112083
  9
$TDUPDATE
 40
2456013.760859386
  9
$TDINDWG
 40
0.0056446181
  9
$TDUSRTIMER
 40
0.0056442477
  9
$USRTIMER
 70
     1
  9
$ANGBASE
 50
0.0
  9
$ANGDIR
 70
     0
  9
$PDMODE
 70
     0
  9
$PDSIZE
 40
0.0
  9
$PLINEWID
 40
0.0
  9
$COORDS
 70
     1
  9
$SPLFRAME
 70
     0
  9
$SPLINETYPE
 70
     6
  9
$SPLINESEGS
 70
     8
  9
$ATTDIA
 70
     0
  9
$ATTREQ
 70
     1
  9
$HANDLING
 70
 22529
  9
$HANDSEED
  5
E56
  9
$SURFTAB1
 70
     6
  9
$SURFTAB2
 70
     6
  9
$SURFTYPE
 70
     6
  9
$SURFU
 70
     6
  9
$SURFV
 70
     6
  9
$UCSNAME
  2

  9
$UCSORG
 10
0.0
 20
0.0
 30
0.0
  9
$UCSXDIR
 10
1.0
 20
0.0
 30
0.0
  9
$UCSYDIR
 10
0.0
 20
1.0
 30
0.0
  9
$PUCSNAME
  2

  9
$PUCSORG
 10
0.0
 20
0.0
 30
0.0
  9
$PUCSXDIR
 10
1.0
 20
0.0
 30
0.0
  9
$PUCSYDIR
 10
0.0
 20
1.0
 30
0.0
  9
$USERI1
 70
     0
  9
$USERI2
 70
     0
  9
$USERI3
 70
     0
  9
$USERI4
 70
     0
  9
$USERI5
 70
     0
  9
$USERR1
 40
0.0
  9
$USERR2
 40
0.0
  9
$USERR3
 40
0.0
  9
$USERR4
 40
0.0
  9
$USERR5
 40
0.0
  9
$WORLDVIEW
 70
     1
  9
$SHADEDGE
 70
     3
  9
$SHADEDIF
 70
    70
  9
$TILEMODE
 70
     1
  9
$MAXACTVP
 70
    64
  9
$PINSBASE
 10
0.0
 20
0.0
 30
0.0
  9
$PLIMCHECK
 70
     0
  9
$PEXTMIN
 10
1.000000000000000E+20
 20
1.000000000000000E+20
 30
1.000000000000000E+20
  9
$PEXTMAX
 10
-1.000000000000000E+20
 20
-1.000000000000000E+20
 30
-1.000000000000000E+20
  9
$PLIMMIN
 10
0.0
 20
0.0
  9
$PLIMMAX
 10
420.0
 20
297.0
  9
$UNITMODE
 70
     0
  9
$VISRETAIN
 70
     1
  9
$PLINEGEN
 70
     0
  9
$PSLTSCALE
 70
     1
  9
$TREEDEPTH
 70
  3020
  9
$PICKSTYLE
 70
     1
  9
$CMLSTYLE
  2
STANDARD
  9
$CMLJUST
 70
     0
  9
$CMLSCALE
 40
20.0
  9
$PROXYGRAPHICS
 70
     1
  9
$MEASUREMENT
 70
     1
  0
ENDSEC
  0
SECTION
  2
CLASSES
  0
CLASS
  1
ACDBDICTIONARYWDFLT
  2
AcDbDictionaryWithDefault
  3
AutoCAD 2000
 90
        0
280
     0
281
     0
  0
CLASS
  1
ACDBPLACEHOLDER
  2
AcDbPlaceHolder
  3
AutoCAD 2000
 90
        0
280
     0
281
     0
  0
CLASS
  1
LAYOUT
  2
AcDbLayout
  3
AutoCAD 2000
 90
        0
280
     0
281
     0
  0
CLASS
  1
DICTIONARYVAR
  2
AcDbDictionaryVar
  3
AutoCAD 2000
 90
        0
280
     0
281
     0
  0
CLASS
  1
LONG_TRANSACTION
  2
AcDbLongTransaction
  3
AutoCAD 2000
 90
        0
280
     0
281
     0
  0
CLASS
  1
LWPOLYLINE
  2
AcDbPolyline
  3
AutoCAD 2000
 90
        0
280
     0
281
     1
  0
CLASS
  1
HATCH
  2
AcDbHatch
  3
AutoCAD 2000
 90
        0
280
     0
281
     1
  0
CLASS
  1
XRECORD
  2
AcDbXrecord
  3
AutoCAD 2000
 90
        0
280
     0
281
     0
  0
CLASS
  1
LONG_TRANSACTION
  2
AcDbLongTransaction
  3
AutoCAD 2000
 90
        0
280
     0
281
     0
  0
CLASS
  1
LWPOLYLINE
  2
AcDbPolyline
  3
AutoCAD 2000
 90
        0
280
     0
281
     1
  0
CLASS
  1
HATCH
  2
AcDbHatch
  3
AutoCAD 2000
 90
        0
280
     0
281
     1
  0
CLASS
  1
XRECORD
  2
AcDbXrecord
  3
AutoCAD 2000
 90
        0
280
     0
281
     0
  0
CLASS
  1
LONG_TRANSACTION
  2
AcDbLongTransaction
  3
AutoCAD 2000
 90
        0
280
     0
281
     0
  0
CLASS
  1
LWPOLYLINE
  2
AcDbPolyline
  3
AutoCAD 2000
 90
        0
280
     0
281
     1
  0
CLASS
  1
HATCH
  2
AcDbHatch
  3
AutoCAD 2000
 90
        0
280
     0
281
     1
  0
CLASS
  1
XRECORD
  2
AcDbXrecord
  3
AutoCAD 2000
 90
        0
280
     0
281
     0
  0
CLASS
  1
LONG_TRANSACTION
  2
AcDbLongTransaction
  3
AutoCAD 2000
 90
        0
280
     0
281
     0
  0
CLASS
  1
LWPOLYLINE
  2
AcDbPolyline
  3
AutoCAD 2000
 90
        0
280
     0
281
     1
  0
CLASS
  1
HATCH
  2
AcDbHatch
  3
AutoCAD 2000
 90
        0
280
     0
281
     1
  0
CLASS
  1
XRECORD
  2
AcDbXrecord
  3
AutoCAD 2000
 90
        0
280
     0
281
     0
  0
CLASS
  1
LONG_TRANSACTION
  2
AcDbLongTransaction
  3
AutoCAD 2000
 90
        0
280
     0
281
     0
  0
CLASS
  1
LWPOLYLINE
  2
AcDbPolyline
  3
AutoCAD 2000
 90
        0
280
     0
281
     1
  0
CLASS
  1
HATCH
  2
AcDbHatch
  3
AutoCAD 2000
 90
        0
280
     0
281
     1
  0
CLASS
  1
XRECORD
  2
AcDbXrecord
  3
AutoCAD 2000
 90
        0
280
     0
281
     0
  0
ENDSEC
  0
SECTION
  2
TABLES
  0
TABLE
  2
VPORT
  5
8
330
0
100
AcDbSymbolTable
 70
     2
  0
VPORT
  5
E33
330
8
100
AcDbSymbolTableRecord
100
AcDbViewportTableRecord
  2
*ACTIVE
 70
     0
 10
0.0
 20
0.0
 11
1.0
 21
1.0
 12
137.8140936045397
 22
199.9819352764705
 13
0.0
 23
0.0
 14
10.0
 24
10.0
 15
10.0
 25
10.0
 16
0.0
 26
0.0
 36
1.0
 17
0.0
 27
0.0
 37
0.0
 40
402.9190757296913
 41
1.46415552855407
 42
50.0
 43
0.0
 44
0.0
 50
0.0
 51
0.0
 71
     0
 72
   100
 73
     1
 74
     3
 75
     0
 76
     0
 77
     0
 78
     0
  0
ENDTAB
  0
TABLE
  2
LTYPE
  5
5
330
0
100
AcDbSymbolTable
 70
     3
  0
LTYPE
  5
14
330
5
100
AcDbSymbolTableRecord
100
AcDbLinetypeTableRecord
  2
BYBLOCK
 70
     0
  3

 72
    65
 73
     0
 40
0.0
  0
LTYPE
  5
15
330
5
100
AcDbSymbolTableRecord
100
AcDbLinetypeTableRecord
  2
BYLAYER
 70
     0
  3

 72
    65
 73
     0
 40
0.0
  0
LTYPE
  5
16
330
5
100
AcDbSymbolTableRecord
100
AcDbLinetypeTableRecord
  2
CONTINUOUS
 70
     0
  3
Solid line
 72
    65
 73
     0
 40
0.0
  0
LTYPE
  5
2AC
330
5
100
AcDbSymbolTableRecord
100
AcDbLinetypeTableRecord
  2
CENTER
 70
     0
  3
__ . __ . __ . __ . __ . __ . __ . __ . __ . __
 72
    65
 73
     4
 40
1.0
 49
0.5
 74
     0
 49
-0.25
 74
     0
 49
0.0
 74
     0
 49
-0.25
 74
     0
  0
LTYPE
  5
D1A
330
5
100
AcDbSymbolTableRecord
100
AcDbLinetypeTableRecord
  2
DASHDOT
 70
     0
  3
__ . __ . __ . __ . __ . __ . __ . __ . __ . __
 72
    65
 73
     4
 40
7.5
 49
6.0
 74
     0
 49
-0.5
 74
     0
 49
0.5
 74
     0
 49
-0.5
 74
     0
  0
ENDTAB
  0
TABLE
  2
LAYER
  5
2
102
{ACAD_XDICTIONARY
360
2B2
102
}
330
0
100
AcDbSymbolTable
 70
     4
  0
LAYER
  5
10
330
2
100
AcDbSymbolTableRecord
100
AcDbLayerTableRecord
  2
0
 70
     0
 62
     7
  6
CONTINUOUS
  0
LAYER
  5
2AE
330
2
100
AcDbSymbolTableRecord
100
AcDbLayerTableRecord
  2
DEFPOINTS
 70
     0
 62
    -7
  6
CONTINUOUS
  0
LAYER
  5
2AF
330
2
100
AcDbSymbolTableRecord
100
AcDbLayerTableRecord
  2
1
 70
     0
 62
     3
  6
CONTINUOUS
  0
LAYER
  5
D1B
330
2
100
AcDbSymbolTableRecord
100
AcDbLayerTableRecord
  2
2_カバ_
 70
     0
 62
     7
  6
CONTINUOUS
  0
ENDTAB
  0
TABLE
  2
STYLE
  5
3
330
0
100
AcDbSymbolTable
 70
     1
  0
STYLE
  5
11
330
3
100
AcDbSymbolTableRecord
100
AcDbTextStyleTableRecord
  2
STANDARD
 70
     0
 40
0.0
 41
1.0
 50
0.0
 71
     0
 42
2.5
  3
txt
  4

  0
ENDTAB
  0
TABLE
  2
VIEW
  5
6
330
0
100
AcDbSymbolTable
 70
     0
  0
ENDTAB
  0
TABLE
  2
UCS
  5
7
330
0
100
AcDbSymbolTable
 70
     0
  0
ENDTAB
  0
TABLE
  2
APPID
  5
9
330
0
100
AcDbSymbolTable
 70
     1
  0
APPID
  5
12
330
9
100
AcDbSymbolTableRecord
100
AcDbRegAppTableRecord
  2
ACAD
 70
     0
  0
ENDTAB
  0
TABLE
  2
DIMSTYLE
  5
A
330
0
100
AcDbSymbolTable
 70
     2
  0
DIMSTYLE
105
27
330
A
100
AcDbSymbolTableRecord
100
AcDbDimStyleTableRecord
  2
ISO-25
 70
     0
  3

  4

  5

  6

  7

 40
1.0
 41
2.5
 42
0.625
 43
3.75
 44
1.25
 45
0.0
 46
0.0
 47
0.0
 48
0.0
140
2.5
141
2.5
142
0.0
143
0.03937007874016
144
1.0
145
0.0
146
1.0
147
0.625
 71
     0
 72
     0
 73
     0
 74
     0
 75
     0
 76
     0
 77
     1
 78
     8
170
     0
171
     3
172
     1
173
     0
174
     0
175
     0
176
     0
177
     0
178
     0
270
     2
271
     2
272
     2
273
     2
274
     3
340
11
275
     0
280
     0
281
     0
282
     0
283
     0
284
     8
285
     0
286
     0
287
     3
288
     0
  0
DIMSTYLE
105
2B1
330
A
100
AcDbSymbolTableRecord
100
AcDbDimStyleTableRecord
  2
STANDARD
 70
     0
  3

  4

  5

  6

  7

 40
1.0
 41
2.5
 42
0.625
 43
3.75
 44
1.25
 45
0.0
 46
0.0
 47
0.0
 48
0.0
140
2.5
141
2.5
142
0.0
143
0.0394
144
1.0
145
0.0
146
1.0
147
0.625
 71
     0
 72
     0
 73
     0
 74
     0
 75
     0
 76
     0
 77
     1
 78
     8
170
     0
171
     4
172
     1
173
     0
174
     0
175
     0
176
     0
177
     0
178
     0
270
     2
271
     4
272
     4
273
     8
274
     4
340
11
275
     0
280
     0
281
     0
282
     0
283
     1
284
     0
285
     0
286
     0
287
     3
288
     0
  0
ENDTAB
  0
TABLE
  2
BLOCK_RECORD
  5
1
330
0
100
AcDbSymbolTable
 70
     1
  0
BLOCK_RECORD
  5
1F
102
{ACAD_XDICTIONARY
360
B0E
102
}
330
1
100
AcDbSymbolTableRecord
100
AcDbBlockTableRecord
  2
*MODEL_SPACE
  0
BLOCK_RECORD
  5
1B
102
{ACAD_XDICTIONARY
360
B0C
102
}
330
1
100
AcDbSymbolTableRecord
100
AcDbBlockTableRecord
  2
*PAPER_SPACE
  0
BLOCK_RECORD
  5
236
330
1
100
AcDbSymbolTableRecord
100
AcDbBlockTableRecord
  2
A$C5CFD6E8C
  0
ENDTAB
  0
ENDSEC
  0
SECTION
  2
BLOCKS
  0
BLOCK
  5
20
330
1F
100
AcDbEntity
  8
0
100
AcDbBlockBegin
  2
*MODEL_SPACE
 70
     0
 10
0.0
 20
0.0
 30
0.0
  3
*MODEL_SPACE
  1

  0
ENDBLK
  5
21
330
1F
100
AcDbEntity
  8
0
100
AcDbBlockEnd
  0
BLOCK
  5
1C
330
1B
100
AcDbEntity
 67
     1
  8
0
100
AcDbBlockBegin
  2
*PAPER_SPACE
 70
     0
 10
0.0
 20
0.0
 30
0.0
  3
*PAPER_SPACE
  1

  0
ENDBLK
  5
1D
330
1B
100
AcDbEntity
 67
     1
  8
0
100
AcDbBlockEnd
  0
BLOCK
  5
23B
330
236
100
AcDbEntity
  8
0
 48
5.0
100
AcDbBlockBegin
  2
A$C5CFD6E8C
 70
     0
 10
0.0
 20
0.0
 30
0.0
  3
A$C5CFD6E8C
  1

  0
LINE
  5
237
330
236
100
AcDbEntity
  8
0
 62
     0
100
AcDbLine
 10
1.599997211020308
 20
2.70000247964549
 30
0.0
 11
1.599997211020308
 21
0.0000024796447633
 31
0.0
  0
LINE
  5
238
330
236
100
AcDbEntity
  8
0
 62
     0
100
AcDbLine
 10
-0.0000027889800549
 20
0.0000024796447633
 30
0.0
 11
-0.0000027889800549
 21
2.70000247964549
 31
0.0
  0
LINE
  5
239
330
236
100
AcDbEntity
  8
0
  6
CENTER
 62
     0
100
AcDbLine
 10
1.599997211020308
 20
2.70000247964549
 30
0.0
 11
-0.0000027889800549
 21
2.70000247964549
 31
0.0
  0
LINE
  5
23A
330
236
100
AcDbEntity
  8
0
  6
CENTER
 62
     0
100
AcDbLine
 10
1.599997211020308
 20
0.0000024796447633
 30
0.0
 11
-0.0000027889800549
 21
0.0000024796447633
 31
0.0
  0
ENDBLK
  5
23C
330
236
100
AcDbEntity
  8
0
 48
5.0
100
AcDbBlockEnd
  0
ENDSEC
  0
SECTION
  2
ENTITIES
  0
LINE
  5
66C
330
1F
100
AcDbEntity
  8
1
100
AcDbLine
 10
21.50000124215535
 20
359.9738142138343
 30
0.0
 11
36.50000124215535
 21
359.9738142138343
 31
0.0
  0
LINE
  5
66D
330
1F
100
AcDbEntity
  8
1
100
AcDbLine
 10
21.50000124215535
 20
175.9738142138344
 30
0.0
 11
36.50000124215535
 21
175.9738142138344
 31
0.0
  0
LINE
  5
66E
330
1F
100
AcDbEntity
  8
1
100
AcDbLine
 10
29.00000124215443
 20
352.4738142138343
 30
0.0
 11
29.00000124215443
 21
367.4738142138352
 31
0.0
  0
LINE
  5
66F
330
1F
100
AcDbEntity
  8
1
100
AcDbLine
 10
29.00000124215535
 20
168.4738142138344
 30
0.0
 11
29.00000124215535
 21
183.4738142138344
 31
0.0
  0
LINE
  5
67D
330
1F
100
AcDbEntity
  8
0
100
AcDbLine
 10
50.00000136407241
 20
267.5738140544908
 30
0.0
 11
38.60000136407256
 21
267.5738140544908
 31
0.0
  0
LINE
  5
67E
330
1F
100
AcDbEntity
  8
0
100
AcDbLine
 10
0.0000012421553492
 20
363.8949136566366
 30
0.0
 11
0.0000012421553492
 21
172.0527147710335
 31
0.0
  0
LINE
  5
67F
330
1F
100
AcDbEntity
  8
0
100
AcDbLine
 10
58.00000124215443
 20
363.9738142138343
 30
0.0
 11
58.00000124215443
 21
171.9738142138344
 31
0.0
  0
LINE
  5
680
330
1F
100
AcDbEntity
  8
0
100
AcDbLine
 10
0.9738242938462915
 20
364.8945709816116
 30
0.0
 11
4.000001242154437
 21
364.9738142138343
 31
0.0
  0
LINE
  5
681
330
1F
100
AcDbEntity
  8
0
100
AcDbLine
 10
26.90000124215453
 20
175.9738142138344
 30
0.0
 11
26.90000124215453
 21
170.9738142138343
 31
0.0
  0
LINE
  5
682
330
1F
100
AcDbEntity
  8
0
100
AcDbLine
 10
0.4869127680003662
 20
354.8818207545853
 30
0.0
 11
4.000001242154437
 21
354.9738142138343
 31
0.0
  0
LINE
  5
683
330
1F
100
AcDbEntity
  8
0
100
AcDbLine
 10
0.4869127680003662
 20
181.0658076730839
 30
0.0
 11
4.000001242154437
 21
180.9738142138344
 31
0.0
  0
LINE
  5
684
330
1F
100
AcDbEntity
  8
0
100
AcDbLine
 10
5.000001242155346
 20
201.6069946387474
 30
0.0
 11
5.000001242155346
 21
354.9476282922654
 31
0.0
  0
ARC
  5
685
330
1F
100
AcDbEntity
  8
0
100
AcDbCircle
 10
4.300001242155303
 20
197.9738142138344
 30
0.0
 40
3.699999999995998
100
AcDbArc
 50
0.0
 51
79.09453000325759
  0
LINE
  5
686
330
1F
100
AcDbEntity
  8
0
100
AcDbLine
 10
8.000001242150347
 20
197.9738142138344
 30
0.0
 11
8.000001242149437
 21
181.0785579001113
 31
0.0
  0
LINE
  5
687
330
1F
100
AcDbEntity
  8
0
100
AcDbLine
 10
0.9738242938462915
 20
171.0530574460574
 30
0.0
 11
4.000001242154437
 21
170.9738142138343
 31
0.0
  0
LINE
  5
688
330
1F
100
AcDbEntity
  8
0
100
AcDbLine
 10
5.000001242155346
 20
350.9738142138343
 30
0.0
 11
5.013089716308286
 21
350.9741569475921
 31
0.0
  0
LINE
  5
689
330
1F
100
AcDbEntity
  8
0
100
AcDbLine
 10
4.000001242154437
 20
364.9738142138343
 30
0.0
 11
57.00000124215442
 21
364.9738142138343
 31
0.0
  0
LINE
  5
68A
330
1F
100
AcDbEntity
  8
0
100
AcDbLine
 10
4.000001242154437
 20
354.9738142138343
 30
0.0
 11
5.000001242155346
 21
354.9476282922654
 31
0.0
  0
LINE
  5
68B
330
1F
100
AcDbEntity
  8
0
100
AcDbLine
 10
4.000001242154437
 20
180.9738142138344
 30
0.0
 11
8.000001242149437
 21
181.0785579001113
 31
0.0
  0
LINE
  5
68C
330
1F
100
AcDbEntity
  8
0
100
AcDbLine
 10
4.000001242154437
 20
170.9738142138343
 30
0.0
 11
26.90000124215453
 21
170.9738142138343
 31
0.0
  0
CIRCLE
  5
68D
330
1F
100
AcDbEntity
  8
0
100
AcDbCircle
 10
29.00000124215443
 20
359.9738142138343
 30
0.0
 40
2.1
  0
ARC
  5
68E
330
1F
100
AcDbEntity
  8
0
100
AcDbCircle
 10
29.00000124215443
 20
359.9738142138343
 30
0.0
 40
5.5
100
AcDbArc
 50
180.0
 51
245.3800226713518
  0
ARC
  5
68F
330
1F
100
AcDbEntity
  8
0
100
AcDbCircle
 10
29.00000124215443
 20
175.9738142138344
 30
0.0
 40
5.5
100
AcDbArc
 50
0.0
 51
65.3800226713519
  0
ARC
  5
690
330
1F
100
AcDbEntity
  8
0
100
AcDbCircle
 10
29.00000124215443
 20
175.9738142138344
 30
0.0
 40
2.1
100
AcDbArc
 50
0.0
 51
180.0
  0
LINE
  5
692
330
1F
100
AcDbEntity
  8
0
100
AcDbLine
 10
34.50000124215444
 20
359.9738142138343
 30
0.0
 11
34.50000124215444
 21
364.9738142138343
 31
0.0
  0
LINE
  5
693
330
1F
100
AcDbEntity
  8
0
100
AcDbLine
 10
23.50000124215444
 20
359.9738142138343
 30
0.0
 11
23.50000124215444
 21
364.9738142138343
 31
0.0
  0
LINE
  5
694
330
1F
100
AcDbEntity
  8
0
100
AcDbLine
 10
23.50000124215444
 20
175.9738142138344
 30
0.0
 11
23.50000124215444
 21
170.9738142138343
 31
0.0
  0
LINE
  5
695
330
1F
100
AcDbEntity
  8
0
100
AcDbLine
 10
31.10000124215435
 20
175.9738142138344
 30
0.0
 11
31.10000124215435
 21
170.9738142138343
 31
0.0
  0
LINE
  5
696
330
1F
100
AcDbEntity
  8
0
100
AcDbLine
 10
34.50000124215444
 20
175.9738142138344
 30
0.0
 11
34.50000124215444
 21
170.9738142138343
 31
0.0
  0
CIRCLE
  5
697
330
1F
100
AcDbEntity
  8
0
100
AcDbCircle
 10
4.000001242154437
 20
195.9738142138344
 30
0.0
 40
2.0
  0
CIRCLE
  5
698
330
1F
100
AcDbEntity
  8
0
100
AcDbCircle
 10
4.000001242154437
 20
195.9738142138344
 30
0.0
 40
1.6
  0
CIRCLE
  5
699
330
1F
100
AcDbEntity
  8
0
100
AcDbCircle
 10
4.000001242154437
 20
185.9738142138344
 30
0.0
 40
2.0
  0
CIRCLE
  5
69A
330
1F
100
AcDbEntity
  8
0
100
AcDbCircle
 10
4.000001242154437
 20
185.9738142138344
 30
0.0
 40
1.6
  0
ARC
  5
69B
330
1F
100
AcDbEntity
  8
0
100
AcDbCircle
 10
1.000001242155349
 20
363.8949136566366
 30
0.0
 40
1.0
100
AcDbArc
 50
91.50000000000281
 51
180.0
  0
ARC
  5
69C
330
1F
100
AcDbEntity
  8
0
100
AcDbCircle
 10
57.00000124215442
 20
363.9738142138343
 30
0.0
 40
1.0
100
AcDbArc
 50
0.0
 51
90.0
  0
ARC
  5
69D
330
1F
100
AcDbEntity
  8
0
100
AcDbCircle
 10
1.000001242155349
 20
172.0527147710335
 30
0.0
 40
1.0
100
AcDbArc
 50
180.0
 51
268.4999999999971
  0
ARC
  5
69E
330
1F
100
AcDbEntity
  8
0
100
AcDbCircle
 10
57.00000124215442
 20
171.9738142138344
 30
0.0
 40
1.0
100
AcDbArc
 50
270.0
 51
0.0
  0
ARC
  5
69F
330
1F
100
AcDbEntity
  8
0
100
AcDbCircle
 10
0.5000012421553493
 20
354.3819920920973
 30
0.0
 40
0.5
100
AcDbArc
 50
91.50000000000281
 51
180.0
  0
ARC
  5
6A0
330
1F
100
AcDbEntity
  8
0
100
AcDbCircle
 10
0.5000012421553493
 20
181.5656363355724
 30
0.0
 40
0.5
100
AcDbArc
 50
180.0
 51
268.4999999999971
  0
LINE
  5
6A1
330
1F
100
AcDbEntity
  8
0
100
AcDbLine
 10
6.000001242153301
 20
180.9738142138344
 30
0.0
 11
58.00000124215443
 21
180.9738142138344
 31
0.0
  0
LINE
  5
6A2
330
1F
100
AcDbEntity
  8
0
100
AcDbLine
 10
6.000001242154437
 20
354.4738142138343
 30
0.0
 11
5.000001242155346
 21
354.4738142138343
 31
0.0
  0
LINE
  5
6A3
330
1F
100
AcDbEntity
  8
0
100
AcDbLine
 10
6.000001242154437
 20
354.9738142138343
 30
0.0
 11
6.000001242153301
 21
202.3555946738724
 31
0.0
  0
LINE
  5
6A4
330
1F
100
AcDbEntity
  8
0
100
AcDbLine
 10
6.000001242154437
 20
354.9738142138343
 30
0.0
 11
58.00000124215443
 21
354.9738142138343
 31
0.0
  0
ARC
  5
6A5
330
1F
100
AcDbEntity
  8
0
100
AcDbCircle
 10
4.300001242155303
 20
197.9738142138344
 30
0.0
 40
4.699999999995998
100
AcDbArc
 50
0.0
 51
68.79523363710617
  0
LINE
  5
6A6
330
1F
100
AcDbEntity
  8
0
100
AcDbLine
 10
9.000001242151482
 20
197.9738142138344
 30
0.0
 11
9.000001242149437
 21
180.9738142138344
 31
0.0
  0
LINE
  5
6A7
330
1F
100
AcDbEntity
  8
0
100
AcDbLine
 10
9.000001242149437
 20
181.4738142138344
 30
0.0
 11
8.000001242149437
 21
181.4738142138344
 31
0.0
  0
LINE
  5
6A8
330
1F
100
AcDbEntity
  8
0
100
AcDbLine
 10
56.00000124215442
 20
182.9738142138344
 30
0.0
 11
56.00000124215442
 21
352.9738142138343
 31
0.0
  0
LINE
  5
6A9
330
1F
100
AcDbEntity
  8
0
100
AcDbLine
 10
56.00000124215442
 20
352.9738142138343
 30
0.0
 11
8.000001242155347
 21
352.9738142138343
 31
0.0
  0
ARC
  5
6AA
330
1F
100
AcDbEntity
  8
0
100
AcDbCircle
 10
4.300001242155303
 20
197.9738142138344
 30
0.0
 40
6.699999999996
100
AcDbArc
 50
0.0
 51
56.4792596039965
  0
LINE
  5
6AB
330
1F
100
AcDbEntity
  8
0
100
AcDbLine
 10
11.00000124215148
 20
197.9738142138344
 30
0.0
 11
11.00000124214941
 21
182.9738142138344
 31
0.0
  0
LINE
  5
6AC
330
1F
100
AcDbEntity
  8
0
100
AcDbLine
 10
56.00000124215442
 20
182.9738142138344
 30
0.0
 11
11.00000124214941
 21
182.9738142138344
 31
0.0
  0
LINE
  5
6AD
330
1F
100
AcDbEntity
  8
0
100
AcDbLine
 10
8.000001242155347
 20
352.9738142138343
 30
0.0
 11
8.000001242153302
 21
203.5595102313386
 31
0.0
  0
LINE
  5
6AE
330
1F
100
AcDbEntity
  8
0
100
AcDbLine
 10
58.00000124215443
 20
180.9738142138344
 30
0.0
 11
58.00000124215443
 21
354.9738142138343
 31
0.0
  0
LINE
  5
6AF
330
1F
100
AcDbEntity
  8
0
100
AcDbLine
 10
5.000001242155346
 20
201.6069946387483
 30
0.0
 11
5.000001242155346
 21
354.4738142138343
 31
0.0
  0
LINE
  5
6B0
330
1F
100
AcDbEntity
  8
0
100
AcDbLine
 10
8.000001242150347
 20
197.9738142138344
 30
0.0
 11
8.000001242149437
 21
181.4738142138344
 31
0.0
  0
ARC
  5
6B1
330
1F
100
AcDbEntity
  8
0
100
AcDbCircle
 10
4.300001242155303
 20
197.9738142138344
 30
0.0
 40
3.699999999995998
100
AcDbArc
 50
0.0
 51
79.09453000325759
  0
LINE
  5
6B2
330
1F
100
AcDbEntity
  8
0
100
AcDbLine
 10
6.000001242152392
 20
181.0261860569735
 30
0.0
 11
6.000001242153301
 21
180.9738142138344
 31
0.0
  0
LINE
  5
6B3
330
1F
100
AcDbEntity
  8
0
100
AcDbLine
 10
35.20000136407247
 20
263.0738140544908
 30
0.0
 11
35.20000136407247
 21
247.0738140544908
 31
0.0
  0
LINE
  5
6B4
330
1F
100
AcDbEntity
  8
0
100
AcDbLine
 10
38.6000013640712
 20
247.0738140544908
 30
0.0
 11
35.20000136407247
 21
247.0738140544908
 31
0.0
  0
LINE
  5
6B5
330
1F
100
AcDbEntity
  8
0
100
AcDbLine
 10
38.6000013640712
 20
263.0738140544908
 30
0.0
 11
35.20000136407247
 21
263.0738140544908
 31
0.0
  0
LINE
  5
6B6
330
1F
100
AcDbEntity
  8
0
100
AcDbLine
 10
38.6000013640712
 20
263.0738140544908
 30
0.0
 11
38.6000013640712
 21
267.5738140544908
 31
0.0
  0
LINE
  5
6B7
330
1F
100
AcDbEntity
  8
0
100
AcDbLine
 10
50.00000136407241
 20
185.1738140544905
 30
0.0
 11
38.6000013640712
 21
185.1738140544905
 31
0.0
  0
LINE
  5
6B8
330
1F
100
AcDbEntity
  8
0
100
AcDbLine
 10
38.6000013640712
 20
247.0738140544908
 30
0.0
 11
38.6000013640712
 21
232.6738140544907
 31
0.0
  0
LINE
  5
6B9
330
1F
100
AcDbEntity
  8
0
100
AcDbLine
 10
11.1000012421493
 20
183.1738142138346
 30
0.0
 11
55.70000124215312
 21
183.1738142138346
 31
0.0
  0
LINE
  5
6BA
330
1F
100
AcDbEntity
  8
0
100
AcDbLine
 10
55.70000124215312
 20
352.7738142138346
 30
0.0
 11
55.70000124215312
 21
183.1738142138346
 31
0.0
  0
LINE
  5
6BB
330
1F
100
AcDbEntity
  8
0
100
AcDbLine
 10
11.10000124215025
 20
197.9738142138344
 30
0.0
 11
11.1000012421493
 21
183.1738142138346
 31
0.0
  0
ARC
  5
6BC
330
1F
100
AcDbEntity
  8
0
100
AcDbCircle
 10
4.200001242154485
 20
197.9738142138344
 30
0.0
 40
6.899999999996
100
AcDbArc
 50
0.0
 51
55.58261128955511
  0
LINE
  5
6BD
330
1F
100
AcDbEntity
  8
0
100
AcDbLine
 10
8.100001242154347
 20
352.7738142138346
 30
0.0
 11
8.100001242154347
 21
203.6659140021333
 31
0.0
  0
LINE
  5
6BE
330
1F
100
AcDbEntity
  8
0
100
AcDbLine
 10
55.70000124215312
 20
352.7738142138346
 30
0.0
 11
8.100001242154347
 21
352.7738142138346
 31
0.0
  0
LINE
  5
6BF
330
1F
100
AcDbEntity
  8
0
100
AcDbLine
 10
25.20000136407225
 20
260.1738140544907
 30
0.0
 11
25.20000136407225
 21
256.5738140544908
 31
0.0
  0
LINE
  5
6C0
330
1F
100
AcDbEntity
  8
0
100
AcDbLine
 10
23.60000136407143
 20
271.4738140544905
 30
0.0
 11
23.60000136407143
 21
260.1738140544907
 31
0.0
  0
LINE
  5
6C1
330
1F
100
AcDbEntity
  8
0
100
AcDbLine
 10
13.0000013640722
 20
271.4738140544905
 30
0.0
 11
23.60000136407143
 21
271.4738140544905
 31
0.0
  0
LINE
  5
6C2
330
1F
100
AcDbEntity
  8
0
100
AcDbLine
 10
23.60000136407143
 20
239.5738140544908
 30
0.0
 11
25.20000136407225
 21
239.5738140544908
 31
0.0
  0
LINE
  5
6C3
330
1F
100
AcDbEntity
  8
0
100
AcDbLine
 10
23.60000136407143
 20
256.5738140544908
 30
0.0
 11
25.20000136407225
 21
256.5738140544908
 31
0.0
  0
LINE
  5
6C4
330
1F
100
AcDbEntity
  8
0
100
AcDbLine
 10
23.60000136407143
 20
260.1738140544907
 30
0.0
 11
25.20000136407225
 21
260.1738140544907
 31
0.0
  0
LINE
  5
6C5
330
1F
100
AcDbEntity
  8
0
100
AcDbLine
 10
23.60000136407143
 20
243.1738140544907
 30
0.0
 11
25.20000136407225
 21
243.1738140544907
 31
0.0
  0
LINE
  5
6C6
330
1F
100
AcDbEntity
  8
0
100
AcDbLine
 10
25.20000136407225
 20
243.1738140544907
 30
0.0
 11
25.20000136407225
 21
239.5738140544908
 31
0.0
  0
LINE
  5
6C7
330
1F
100
AcDbEntity
  8
0
100
AcDbLine
 10
23.60000136407143
 20
256.5738140544908
 30
0.0
 11
23.60000136407143
 21
243.1738140544907
 31
0.0
  0
LINE
  5
6C8
330
1F
100
AcDbEntity
  8
0
100
AcDbLine
 10
23.60000136407143
 20
185.1738140544905
 30
0.0
 11
13.0000013640722
 21
185.1738140544905
 31
0.0
  0
LINE
  5
6C9
330
1F
100
AcDbEntity
  8
0
100
AcDbLine
 10
23.60000136407143
 20
239.5738140544908
 30
0.0
 11
23.60000136407143
 21
185.1738140544905
 31
0.0
  0
LINE
  5
6CA
330
1F
100
AcDbEntity
  8
0
100
AcDbLine
 10
13.0000013640722
 20
271.4738140544905
 30
0.0
 11
13.0000013640722
 21
185.1738140544905
 31
0.0
  0
LINE
  5
6CB
330
1F
100
AcDbEntity
  8
0
100
AcDbLine
 10
13.0000013640722
 20
275.9738140544905
 30
0.0
 11
25.40000136407138
 21
275.9738140544905
 31
0.0
  0
LINE
  5
6CC
330
1F
100
AcDbEntity
  8
0
100
AcDbLine
 10
22.90000136407138
 20
339.0738140544907
 30
0.0
 11
22.90000136407138
 21
331.0738140544908
 31
0.0
  0
LINE
  5
6CD
330
1F
100
AcDbEntity
  8
0
100
AcDbLine
 10
13.0000013640722
 20
306.0738140544908
 30
0.0
 11
22.30000136407146
 21
306.0738140544908
 31
0.0
  0
LINE
  5
6CE
330
1F
100
AcDbEntity
  8
0
100
AcDbLine
 10
22.30000136407146
 20
322.8738140544903
 30
0.0
 11
25.90000136407136
 21
322.8738140544903
 31
0.0
  0
CIRCLE
  5
6CF
330
1F
100
AcDbEntity
  8
0
100
AcDbCircle
 10
16.60000136407142
 20
342.9738140544905
 30
0.0
 40
1.399999999999999
  0
LINE
  5
6D0
330
1F
100
AcDbEntity
  8
0
100
AcDbLine
 10
13.0000013640722
 20
302.1738140544907
 30
0.0
 11
13.0000013640722
 21
275.9738140544905
 31
0.0
  0
LINE
  5
6D1
330
1F
100
AcDbEntity
  8
0
100
AcDbLine
 10
22.90000136407138
 20
331.0738140544908
 30
0.0
 11
25.90000136407136
 21
331.0738140544908
 31
0.0
  0
LINE
  5
6D2
330
1F
100
AcDbEntity
  8
0
100
AcDbLine
 10
13.0000013640722
 20
302.1738140544907
 30
0.0
 11
25.40000136407138
 21
302.1738140544907
 31
0.0
  0
CIRCLE
  5
6D3
330
1F
100
AcDbEntity
  8
0
100
AcDbCircle
 10
16.60000136407142
 20
347.7738140544906
 30
0.0
 40
1.399999999999999
  0
CIRCLE
  5
6D4
330
1F
100
AcDbEntity
  8
0
100
AcDbCircle
 10
21.70000136407223
 20
347.7738140544906
 30
0.0
 40
1.399999999999999
  0
LINE
  5
6D5
330
1F
100
AcDbEntity
  8
0
100
AcDbLine
 10
25.90000136407136
 20
331.0738140544908
 30
0.0
 11
25.90000136407136
 21
322.8738140544903
 31
0.0
  0
LINE
  5
6D6
330
1F
100
AcDbEntity
  8
0
100
AcDbLine
 10
22.90000136407138
 20
339.0738140544907
 30
0.0
 11
13.0000013640722
 21
339.0738140544907
 31
0.0
  0
LINE
  5
6D7
330
1F
100
AcDbEntity
  8
0
100
AcDbLine
 10
13.0000013640722
 20
339.0738140544907
 30
0.0
 11
13.0000013640722
 21
306.0738140544908
 31
0.0
  0
CIRCLE
  5
6D8
330
1F
100
AcDbEntity
  8
0
100
AcDbCircle
 10
21.70000136407223
 20
342.9738140544905
 30
0.0
 40
1.399999999999999
  0
LINE
  5
6D9
330
1F
100
AcDbEntity
  8
0
100
AcDbLine
 10
22.30000136407146
 20
322.8738140544903
 30
0.0
 11
22.30000136407146
 21
306.0738140544908
 31
0.0
  0
LINE
  5
6DA
330
1F
100
AcDbEntity
  8
0
100
AcDbLine
 10
50.00000136407241
 20
230.6738140544907
 30
0.0
 11
38.6000013640712
 21
230.6738140544907
 31
0.0
  0
LINE
  5
6DB
330
1F
100
AcDbEntity
  8
0
100
AcDbLine
 10
50.00000136407241
 20
232.6738140544907
 30
0.0
 11
38.6000013640712
 21
232.6738140544907
 31
0.0
  0
LINE
  5
6DC
330
1F
100
AcDbEntity
  8
0
100
AcDbLine
 10
50.00000136407241
 20
267.5738140544908
 30
0.0
 11
50.00000136407241
 21
232.6738140544907
 31
0.0
  0
LINE
  5
6DD
330
1F
100
AcDbEntity
  8
0
100
AcDbLine
 10
50.00000136407241
 20
230.6738140544907
 30
0.0
 11
50.00000136407241
 21
185.1738140544905
 31
0.0
  0
LINE
  5
6DE
330
1F
100
AcDbEntity
  8
0
100
AcDbLine
 10
38.6000013640712
 20
230.6738140544907
 30
0.0
 11
38.6000013640712
 21
185.1738140544905
 31
0.0
  0
LINE
  5
6DF
330
1F
100
AcDbEntity
  8
0
100
AcDbLine
 10
25.40000136407138
 20
302.1738140544907
 30
0.0
 11
25.40000136407138
 21
275.9738140544905
 31
0.0
  0
CIRCLE
  5
6E0
330
1F
100
AcDbEntity
  8
0
100
AcDbCircle
 10
18.2500012421533
 20
334.8038142138343
 30
0.0
 40
1.290290050200999
  0
LINE
  5
6E1
330
1F
100
AcDbEntity
  8
0
100
AcDbLine
 10
22.0000012421533
 20
338.5538142138343
 30
0.0
 11
14.10000124215434
 21
338.5538142138343
 31
0.0
  0
LINE
  5
6E2
330
1F
100
AcDbEntity
  8
0
100
AcDbLine
 10
22.0000012421533
 20
331.0538142138351
 30
0.0
 11
14.10000124215434
 21
331.0538142138351
 31
0.0
  0
LINE
  5
6E3
330
1F
100
AcDbEntity
  8
0
100
AcDbLine
 10
22.0000012421533
 20
331.0538142138351
 30
0.0
 11
22.0000012421533
 21
338.5538142138343
 31
0.0
  0
LINE
  5
6E4
330
1F
100
AcDbEntity
  8
0
100
AcDbLine
 10
14.50000124215442
 20
331.0538142138351
 30
0.0
 11
14.50000124215442
 21
338.5538142138343
 31
0.0
  0
LINE
  5
6E5
330
1F
100
AcDbEntity
  8
0
100
AcDbLine
 10
14.10000124215434
 20
337.6438142138344
 30
0.0
 11
14.10000124215434
 21
338.5538142138343
 31
0.0
  0
LINE
  5
6E6
330
1F
100
AcDbEntity
  8
0
100
AcDbLine
 10
14.10000124215434
 20
337.6438142138352
 30
0.0
 11
14.50000124215442
 21
337.6438142138352
 31
0.0
  0
LINE
  5
6E7
330
1F
100
AcDbEntity
  8
0
100
AcDbLine
 10
14.10000124215434
 20
337.0438142138354
 30
0.0
 11
14.50000124215442
 21
337.0438142138354
 31
0.0
  0
LINE
  5
6E8
330
1F
100
AcDbEntity
  8
0
100
AcDbLine
 10
14.10000124215434
 20
331.9638142138352
 30
0.0
 11
14.50000124215442
 21
331.9638142138352
 31
0.0
  0
LINE
  5
6E9
330
1F
100
AcDbEntity
  8
0
100
AcDbLine
 10
14.10000124215434
 20
332.5638142138353
 30
0.0
 11
14.50000124215442
 21
332.5638142138353
 31
0.0
  0
LINE
  5
6EA
330
1F
100
AcDbEntity
  8
0
100
AcDbLine
 10
14.10000124215434
 20
335.1038142138353
 30
0.0
 11
14.50000124215442
 21
335.1038142138353
 31
0.0
  0
LINE
  5
6EB
330
1F
100
AcDbEntity
  8
0
100
AcDbLine
 10
14.10000124215434
 20
334.5038142138355
 30
0.0
 11
14.50000124215442
 21
334.5038142138355
 31
0.0
  0
LINE
  5
6EC
330
1F
100
AcDbEntity
  8
0
100
AcDbLine
 10
14.10000124215434
 20
331.0538142138351
 30
0.0
 11
14.10000124215434
 21
331.9638142138352
 31
0.0
  0
LINE
  5
6ED
330
1F
100
AcDbEntity
  8
0
100
AcDbLine
 10
14.10000124215434
 20
307.0138142138341
 30
0.0
 11
21.35000124215435
 21
307.0138142138341
 31
0.0
  0
CIRCLE
  5
6EE
330
1F
100
AcDbEntity
  8
0
100
AcDbCircle
 10
17.60000124215435
 20
319.9638142138346
 30
0.0
 40
1.0
  0
CIRCLE
  5
6EF
330
1F
100
AcDbEntity
  8
0
100
AcDbCircle
 10
17.60000124215435
 20
316.4638142138346
 30
0.0
 40
1.0
  0
CIRCLE
  5
6F0
330
1F
100
AcDbEntity
  8
0
100
AcDbCircle
 10
17.60000124215435
 20
312.9638142138346
 30
0.0
 40
1.0
  0
CIRCLE
  5
6F1
330
1F
100
AcDbEntity
  8
0
100
AcDbCircle
 10
17.60000124215435
 20
309.4638142138346
 30
0.0
 40
1.0
  0
LINE
  5
6F2
330
1F
100
AcDbEntity
  8
0
100
AcDbLine
 10
21.35000124215435
 20
307.0138142138341
 30
0.0
 11
21.35000124215435
 21
322.4138142138345
 31
0.0
  0
LINE
  5
6F3
330
1F
100
AcDbEntity
  8
0
100
AcDbLine
 10
21.35000124215435
 20
322.4138142138345
 30
0.0
 11
14.10000124215434
 21
322.4138142138345
 31
0.0
  0
LINE
  5
6F4
330
1F
100
AcDbEntity
  8
0
100
AcDbLine
 10
14.10000124215434
 20
322.4138142138345
 30
0.0
 11
14.10000124215434
 21
307.0138142138341
 31
0.0
  0
LINE
  5
6F5
330
1F
100
AcDbEntity
  8
0
100
AcDbLine
 10
24.30000124215438
 20
324.8638142138347
 30
0.0
 11
19.52450631316333
 21
324.8638142138347
 31
0.0
  0
LINE
  5
6F6
330
1F
100
AcDbEntity
  8
0
100
AcDbLine
 10
24.30000124215438
 20
328.6038142138345
 30
0.0
 11
19.52450631316333
 21
328.6038142138345
 31
0.0
  0
LINE
  5
6F7
330
1F
100
AcDbEntity
  8
0
100
AcDbLine
 10
24.30000124215438
 20
323.4138142138354
 30
0.0
 11
14.10000124215434
 21
323.4138142138354
 31
0.0
  0
LINE
  5
6F8
330
1F
100
AcDbEntity
  8
0
100
AcDbLine
 10
24.30000124215438
 20
330.0538142138343
 30
0.0
 11
14.10000124215434
 21
330.0538142138343
 31
0.0
  0
LINE
  5
6F9
330
1F
100
AcDbEntity
  8
0
100
AcDbLine
 10
24.30000124215438
 20
327.4038142138345
 30
0.0
 11
21.3000012421553
 21
327.4038142138345
 31
0.0
  0
LINE
  5
6FA
330
1F
100
AcDbEntity
  8
0
100
AcDbLine
 10
24.30000124215438
 20
326.0638142138345
 30
0.0
 11
21.3000012421553
 21
326.0638142138345
 31
0.0
  0
LINE
  5
6FB
330
1F
100
AcDbEntity
  8
0
100
AcDbLine
 10
24.30000124215438
 20
324.8638142138347
 30
0.0
 11
21.3000012421553
 21
324.8638142138347
 31
0.0
  0
LINE
  5
6FC
330
1F
100
AcDbEntity
  8
0
100
AcDbLine
 10
21.3000012421553
 20
327.4038142138345
 30
0.0
 11
21.3000012421553
 21
328.6038142138345
 31
0.0
  0
LINE
  5
6FD
330
1F
100
AcDbEntity
  8
0
100
AcDbLine
 10
21.3000012421553
 20
324.8638142138347
 30
0.0
 11
21.3000012421553
 21
326.0638142138345
 31
0.0
  0
LINE
  5
6FE
330
1F
100
AcDbEntity
  8
0
100
AcDbLine
 10
22.8000012421553
 20
326.0638142138345
 30
0.0
 11
22.8000012421553
 21
327.4038142138345
 31
0.0
  0
LINE
  5
6FF
330
1F
100
AcDbEntity
  8
0
100
AcDbLine
 10
23.30000124215529
 20
327.4038142138345
 30
0.0
 11
23.30000124215529
 21
328.6038142138345
 31
0.0
  0
LINE
  5
700
330
1F
100
AcDbEntity
  8
0
100
AcDbLine
 10
23.30000124215529
 20
324.8638142138347
 30
0.0
 11
23.30000124215529
 21
326.0638142138345
 31
0.0
  0
LINE
  5
701
330
1F
100
AcDbEntity
  8
0
100
AcDbLine
 10
24.30000124215438
 20
323.4138142138354
 30
0.0
 11
24.30000124215438
 21
330.0538142138343
 31
0.0
  0
LINE
  5
702
330
1F
100
AcDbEntity
  8
0
100
AcDbLine
 10
19.52450631316333
 20
328.6038142138345
 30
0.0
 11
19.52450631316333
 21
324.8638142138347
 31
0.0
  0
LINE
  5
703
330
1F
100
AcDbEntity
  8
0
100
AcDbLine
 10
14.10000124215434
 20
323.4138142138354
 30
0.0
 11
14.10000124215434
 21
330.0538142138343
 31
0.0
  0
LINE
  5
704
330
1F
100
AcDbEntity
  8
0
100
AcDbLine
 10
14.10000124215434
 20
293.6338142138346
 30
0.0
 11
15.60000124215433
 21
293.6338142138346
 31
0.0
  0
LINE
  5
705
330
1F
100
AcDbEntity
  8
0
100
AcDbLine
 10
14.10000124215434
 20
288.5538142138343
 30
0.0
 11
15.60000124215433
 21
288.5538142138343
 31
0.0
  0
LINE
  5
706
330
1F
100
AcDbEntity
  8
0
100
AcDbLine
 10
14.10000124215434
 20
283.4738142138343
 30
0.0
 11
15.60000124215433
 21
283.4738142138343
 31
0.0
  0
LINE
  5
707
330
1F
100
AcDbEntity
  8
0
100
AcDbLine
 10
14.10000124215434
 20
298.1338142138346
 30
0.0
 11
15.60000124215433
 21
298.1338142138346
 31
0.0
  0
LINE
  5
708
330
1F
100
AcDbEntity
  8
0
100
AcDbLine
 10
14.10000124215434
 20
276.9738142138344
 30
0.0
 11
15.60000124215433
 21
276.9738142138344
 31
0.0
  0
LINE
  5
709
330
1F
100
AcDbEntity
  8
0
100
AcDbLine
 10
19.60000124215342
 20
293.1338142138347
 30
0.0
 11
20.60000124215342
 21
293.1338142138347
 31
0.0
  0
LINE
  5
70A
330
1F
100
AcDbEntity
  8
0
100
AcDbLine
 10
19.60000124215342
 20
288.0538142138343
 30
0.0
 11
20.60000124215342
 21
288.0538142138343
 31
0.0
  0
LINE
  5
70B
330
1F
100
AcDbEntity
  8
0
100
AcDbLine
 10
19.60000124215342
 20
282.9738142138343
 30
0.0
 11
20.60000124215342
 21
282.9738142138343
 31
0.0
  0
LINE
  5
70C
330
1F
100
AcDbEntity
  8
0
100
AcDbLine
 10
15.60000124215433
 20
301.1338142138346
 30
0.0
 11
16.60000124215434
 21
301.1338142138346
 31
0.0
  0
LINE
  5
70D
330
1F
100
AcDbEntity
  8
0
100
AcDbLine
 10
16.60000124215434
 20
301.1338142138346
 30
0.0
 11
16.60000124215434
 21
276.9738142138344
 31
0.0
  0
LINE
  5
70E
330
1F
100
AcDbEntity
  8
0
100
AcDbLine
 10
24.08500124215334
 20
301.1338142138346
 30
0.0
 11
23.58500124215447
 21
301.1338142138346
 31
0.0
  0
LINE
  5
70F
330
1F
100
AcDbEntity
  8
0
100
AcDbLine
 10
23.58500124215447
 20
301.1338142138346
 30
0.0
 11
23.58500124215447
 21
276.9738142138344
 31
0.0
  0
LINE
  5
710
330
1F
100
AcDbEntity
  8
0
100
AcDbLine
 10
24.94500124215436
 20
301.1338142138346
 30
0.0
 11
24.94500124215436
 21
276.9738142138344
 31
0.0
  0
LINE
  5
711
330
1F
100
AcDbEntity
  8
0
100
AcDbLine
 10
15.60000124215433
 20
301.1338142138346
 30
0.0
 11
15.60000124215433
 21
300.1338142138346
 31
0.0
  0
LINE
  5
712
330
1F
100
AcDbEntity
  8
0
100
AcDbLine
 10
16.60000124215434
 20
300.1338142138346
 30
0.0
 11
23.58500124215447
 21
300.1338142138346
 31
0.0
  0
LINE
  5
713
330
1F
100
AcDbEntity
  8
0
100
AcDbLine
 10
15.60000124215433
 20
276.9738142138344
 30
0.0
 11
15.60000124215433
 21
277.9738142138344
 31
0.0
  0
LINE
  5
714
330
1F
100
AcDbEntity
  8
0
100
AcDbLine
 10
16.60000124215434
 20
277.9738142138344
 30
0.0
 11
23.58500124215447
 21
277.9738142138344
 31
0.0
  0
LINE
  5
715
330
1F
100
AcDbEntity
  8
0
100
AcDbLine
 10
15.60000124215433
 20
276.9738142138344
 30
0.0
 11
24.94500124215436
 21
276.9738142138344
 31
0.0
  0
LINE
  5
716
330
1F
100
AcDbEntity
  8
0
100
AcDbLine
 10
24.94500124215436
 20
301.1338142138346
 30
0.0
 11
15.60000124215433
 21
301.1338142138346
 31
0.0
  0
LINE
  5
717
330
1F
100
AcDbEntity
  8
0
100
AcDbLine
 10
15.60000124215433
 20
301.1338142138346
 30
0.0
 11
15.60000124215433
 21
276.9738142138344
 31
0.0
  0
LINE
  5
718
330
1F
100
AcDbEntity
  8
0
100
AcDbLine
 10
20.60000124215342
 20
293.1338142138347
 30
0.0
 11
20.60000124215342
 21
295.1338142138346
 31
0.0
  0
LINE
  5
719
330
1F
100
AcDbEntity
  8
0
100
AcDbLine
 10
20.60000124215342
 20
295.1338142138346
 30
0.0
 11
19.60000124215342
 21
295.1338142138346
 31
0.0
  0
LINE
  5
71A
330
1F
100
AcDbEntity
  8
0
100
AcDbLine
 10
19.60000124215342
 20
295.1338142138346
 30
0.0
 11
19.60000124215342
 21
293.1338142138347
 31
0.0
  0
LINE
  5
71B
330
1F
100
AcDbEntity
  8
0
100
AcDbLine
 10
20.60000124215342
 20
288.0538142138343
 30
0.0
 11
20.60000124215342
 21
290.0538142138342
 31
0.0
  0
LINE
  5
71C
330
1F
100
AcDbEntity
  8
0
100
AcDbLine
 10
20.60000124215342
 20
290.0538142138342
 30
0.0
 11
19.60000124215342
 21
290.0538142138342
 31
0.0
  0
LINE
  5
71D
330
1F
100
AcDbEntity
  8
0
100
AcDbLine
 10
19.60000124215342
 20
290.0538142138342
 30
0.0
 11
19.60000124215342
 21
288.0538142138343
 31
0.0
  0
LINE
  5
71E
330
1F
100
AcDbEntity
  8
0
100
AcDbLine
 10
20.60000124215342
 20
282.9738142138343
 30
0.0
 11
20.60000124215342
 21
284.9738142138343
 31
0.0
  0
LINE
  5
71F
330
1F
100
AcDbEntity
  8
0
100
AcDbLine
 10
20.60000124215342
 20
284.9738142138343
 30
0.0
 11
19.60000124215342
 21
284.9738142138343
 31
0.0
  0
LINE
  5
720
330
1F
100
AcDbEntity
  8
0
100
AcDbLine
 10
19.60000124215342
 20
284.9738142138343
 30
0.0
 11
19.60000124215342
 21
282.9738142138343
 31
0.0
  0
LINE
  5
721
330
1F
100
AcDbEntity
  8
0
100
AcDbLine
 10
15.60000124215433
 20
276.9738142138344
 30
0.0
 11
15.60000124215433
 21
279.9738142138344
 31
0.0
  0
LINE
  5
722
330
1F
100
AcDbEntity
  8
0
100
AcDbLine
 10
15.60000124215433
 20
279.9738142138344
 30
0.0
 11
14.10000124215434
 21
279.9738142138344
 31
0.0
  0
LINE
  5
723
330
1F
100
AcDbEntity
  8
0
100
AcDbLine
 10
14.10000124215434
 20
279.9738142138344
 30
0.0
 11
14.10000124215434
 21
276.9738142138344
 31
0.0
  0
LINE
  5
724
330
1F
100
AcDbEntity
  8
0
100
AcDbLine
 10
15.60000124215433
 20
283.4738142138343
 30
0.0
 11
15.60000124215433
 21
284.4738142138343
 31
0.0
  0
LINE
  5
725
330
1F
100
AcDbEntity
  8
0
100
AcDbLine
 10
15.60000124215433
 20
284.4738142138343
 30
0.0
 11
14.10000124215434
 21
284.4738142138343
 31
0.0
  0
LINE
  5
726
330
1F
100
AcDbEntity
  8
0
100
AcDbLine
 10
15.60000124215433
 20
288.5538142138343
 30
0.0
 11
15.60000124215433
 21
289.5538142138343
 31
0.0
  0
LINE
  5
727
330
1F
100
AcDbEntity
  8
0
100
AcDbLine
 10
15.60000124215433
 20
289.5538142138343
 30
0.0
 11
14.10000124215434
 21
289.5538142138343
 31
0.0
  0
LINE
  5
728
330
1F
100
AcDbEntity
  8
0
100
AcDbLine
 10
15.60000124215433
 20
293.6338142138346
 30
0.0
 11
15.60000124215433
 21
294.6338142138346
 31
0.0
  0
LINE
  5
729
330
1F
100
AcDbEntity
  8
0
100
AcDbLine
 10
15.60000124215433
 20
294.6338142138346
 30
0.0
 11
14.10000124215434
 21
294.6338142138346
 31
0.0
  0
LINE
  5
72A
330
1F
100
AcDbEntity
  8
0
100
AcDbLine
 10
15.60000124215433
 20
298.1338142138346
 30
0.0
 11
15.60000124215433
 21
301.1338142138346
 31
0.0
  0
LINE
  5
72B
330
1F
100
AcDbEntity
  8
0
100
AcDbLine
 10
15.60000124215433
 20
301.1338142138346
 30
0.0
 11
14.10000124215434
 21
301.1338142138346
 31
0.0
  0
LINE
  5
72C
330
1F
100
AcDbEntity
  8
0
100
AcDbLine
 10
14.10000124215434
 20
301.1338142138346
 30
0.0
 11
14.10000124215434
 21
298.1338142138346
 31
0.0
  0
LINE
  5
72D
330
1F
100
AcDbEntity
  8
0
100
AcDbLine
 10
14.10000124215434
 20
185.9738142138344
 30
0.0
 11
22.70000124215447
 21
185.9738142138344
 31
0.0
  0
CIRCLE
  5
72E
330
1F
100
AcDbEntity
  8
0
100
AcDbCircle
 10
18.10000124215344
 20
193.5938142138343
 30
0.0
 40
2.0
  0
CIRCLE
  5
72F
330
1F
100
AcDbEntity
  8
0
100
AcDbCircle
 10
18.10000124215344
 20
198.6738142138346
 30
0.0
 40
2.0
  0
CIRCLE
  5
730
330
1F
100
AcDbEntity
  8
0
100
AcDbCircle
 10
18.10000124215344
 20
198.6738142138346
 30
0.0
 40
2.0
  0
CIRCLE
  5
731
330
1F
100
AcDbEntity
  8
0
100
AcDbCircle
 10
18.10000124215344
 20
203.7538142138354
 30
0.0
 40
2.0
  0
CIRCLE
  5
732
330
1F
100
AcDbEntity
  8
0
100
AcDbCircle
 10
18.10000124215344
 20
203.7538142138354
 30
0.0
 40
2.0
  0
CIRCLE
  5
733
330
1F
100
AcDbEntity
  8
0
100
AcDbCircle
 10
18.10000124215344
 20
213.9138142138345
 30
0.0
 40
2.0
  0
CIRCLE
  5
734
330
1F
100
AcDbEntity
  8
0
100
AcDbCircle
 10
18.10000124215344
 20
213.9138142138345
 30
0.0
 40
2.0
  0
CIRCLE
  5
735
330
1F
100
AcDbEntity
  8
0
100
AcDbCircle
 10
18.10000124215344
 20
218.9938142138351
 30
0.0
 40
2.0
  0
CIRCLE
  5
736
330
1F
100
AcDbEntity
  8
0
100
AcDbCircle
 10
18.10000124215344
 20
188.843814213834
 30
0.0
 40
1.0
  0
CIRCLE
  5
737
330
1F
100
AcDbEntity
  8
0
100
AcDbCircle
 10
18.10000124215344
 20
188.843814213834
 30
0.0
 40
1.5
  0
CIRCLE
  5
738
330
1F
100
AcDbEntity
  8
0
100
AcDbCircle
 10
18.10000124215344
 20
223.7438142138353
 30
0.0
 40
1.0
  0
CIRCLE
  5
739
330
1F
100
AcDbEntity
  8
0
100
AcDbCircle
 10
18.10000124215344
 20
223.7438142138353
 30
0.0
 40
1.5
  0
CIRCLE
  5
73A
330
1F
100
AcDbEntity
  8
0
100
AcDbCircle
 10
18.10000124215344
 20
208.8338142138344
 30
0.0
 40
2.0
  0
LINE
  5
73B
330
1F
100
AcDbEntity
  8
0
100
AcDbLine
 10
22.70000124215447
 20
185.9738142138344
 30
0.0
 11
22.70000124215447
 21
226.6138142138346
 31
0.0
  0
LINE
  5
73C
330
1F
100
AcDbEntity
  8
0
100
AcDbLine
 10
22.70000124215447
 20
226.6138142138346
 30
0.0
 11
14.10000124215434
 21
226.6138142138346
 31
0.0
  0
LINE
  5
73D
330
1F
100
AcDbEntity
  8
0
100
AcDbLine
 10
14.10000124215434
 20
226.6138142138346
 30
0.0
 11
14.10000124215434
 21
185.9738142138344
 31
0.0
  0
LINE
  5
73E
330
1F
100
AcDbEntity
  8
0
100
AcDbLine
 10
47.45000124215446
 20
204.0900973564264
 30
0.0
 11
47.45000124215446
 21
219.0575310712438
 31
0.0
  0
LINE
  5
73F
330
1F
100
AcDbEntity
  8
0
100
AcDbLine
 10
41.15000124215453
 20
219.6738142138346
 30
0.0
 11
41.15000124215453
 21
203.4738142138344
 31
0.0
  0
LINE
  5
740
330
1F
100
AcDbEntity
  8
0
100
AcDbLine
 10
42.70000124215449
 20
220.1738142138346
 30
0.0
 11
42.70000124215449
 21
202.9738142138344
 31
0.0
  0
LINE
  5
741
330
1F
100
AcDbEntity
  8
0
100
AcDbLine
 10
45.90000124215544
 20
202.9738142138344
 30
0.0
 11
45.90000124215544
 21
220.1738142138346
 31
0.0
  0
LINE
  5
742
330
1F
100
AcDbEntity
  8
0
100
AcDbLine
 10
39.70000124215538
 20
229.1738142138346
 30
0.0
 11
39.70000124215538
 21
193.9738142138344
 31
0.0
  0
LINE
  5
743
330
1F
100
AcDbEntity
  8
0
100
AcDbLine
 10
48.80000124215531
 20
192.9738142138344
 30
0.0
 11
48.80000124215531
 21
230.1738142138346
 31
0.0
  0
LINE
  5
744
330
1F
100
AcDbEntity
  8
0
100
AcDbLine
 10
49.10000124215435
 20
200.3738142138344
 30
0.0
 11
49.10000124215435
 21
193.2738142138346
 31
0.0
  0
CIRCLE
  5
745
330
1F
100
AcDbEntity
  8
0
100
AcDbCircle
 10
44.3000012421553
 20
195.9438142138344
 30
0.0
 40
1.399999999999999
  0
ARC
  5
746
330
1F
100
AcDbEntity
  8
0
100
AcDbCircle
 10
48.80000124215531
 20
193.2738142138346
 30
0.0
 40
0.3
100
AcDbArc
 50
270.0
 51
0.0
  0
LINE
  5
747
330
1F
100
AcDbEntity
  8
0
100
AcDbLine
 10
40.50000124215443
 20
192.9738142138344
 30
0.0
 11
48.80000124215531
 21
192.9738142138344
 31
0.0
  0
ARC
  5
748
330
1F
100
AcDbEntity
  8
0
100
AcDbCircle
 10
40.50000124215443
 20
193.4738142138344
 30
0.0
 40
0.5
100
AcDbArc
 50
180.0
 51
270.0
  0
LINE
  5
749
330
1F
100
AcDbEntity
  8
0
100
AcDbLine
 10
40.00000124215443
 20
193.9738142138344
 30
0.0
 11
40.00000124215443
 21
193.4738142138344
 31
0.0
  0
LINE
  5
74A
330
1F
100
AcDbEntity
  8
0
100
AcDbLine
 10
39.70000124215538
 20
193.9738142138344
 30
0.0
 11
48.80000124215531
 21
193.9738142138344
 31
0.0
  0
ARC
  5
74B
330
1F
100
AcDbEntity
  8
0
100
AcDbCircle
 10
45.45000124215446
 20
204.0900973564264
 30
0.0
 40
2.0
100
AcDbArc
 50
284.9999999999943
 51
0.0
  0
LINE
  5
74C
330
1F
100
AcDbEntity
  8
0
100
AcDbLine
 10
43.66763933236052
 20
201.5419625612566
 30
0.0
 11
45.96763933236045
 21
202.1582457038475
 31
0.0
  0
ARC
  5
74D
330
1F
100
AcDbEntity
  8
0
100
AcDbCircle
 10
43.15000124215544
 20
203.4738142138344
 30
0.0
 40
2.0
100
AcDbArc
 50
180.0
 51
284.9999999999943
  0
LINE
  5
74E
330
1F
100
AcDbEntity
  8
0
100
AcDbLine
 10
42.70000124215449
 20
202.9738142138344
 30
0.0
 11
45.90000124215544
 21
202.9738142138344
 31
0.0
  0
LINE
  5
74F
330
1F
100
AcDbEntity
  8
0
100
AcDbLine
 10
48.80000124215531
 20
200.3738142138344
 30
0.0
 11
49.10000124215435
 21
200.3738142138344
 31
0.0
  0
LINE
  5
750
330
1F
100
AcDbEntity
  8
0
100
AcDbLine
 10
47.45000124215446
 20
197.9738142138344
 30
0.0
 11
47.45000124215446
 21
200.3738142138344
 31
0.0
  0
LINE
  5
751
330
1F
100
AcDbEntity
  8
0
100
AcDbLine
 10
41.15000124215453
 20
200.3738142138344
 30
0.0
 11
41.15000124215453
 21
197.9738142138344
 31
0.0
  0
LINE
  5
752
330
1F
100
AcDbEntity
  8
0
100
AcDbLine
 10
41.15000124215453
 20
200.3738142138344
 30
0.0
 11
47.45000124215446
 21
200.3738142138344
 31
0.0
  0
LINE
  5
753
330
1F
100
AcDbEntity
  8
0
100
AcDbLine
 10
41.15000124215453
 20
198.4738142138344
 30
0.0
 11
47.45000124215446
 21
198.4738142138344
 31
0.0
  0
LINE
  5
754
330
1F
100
AcDbEntity
  8
0
100
AcDbLine
 10
41.15000124215453
 20
197.9738142138344
 30
0.0
 11
47.45000124215446
 21
197.9738142138344
 31
0.0
  0
ARC
  5
755
330
1F
100
AcDbEntity
  8
0
100
AcDbCircle
 10
48.80000124215531
 20
229.8738142138367
 30
0.0
 40
0.3
100
AcDbArc
 50
0.0
 51
90.0
  0
LINE
  5
756
330
1F
100
AcDbEntity
  8
0
100
AcDbLine
 10
49.10000124215435
 20
229.8738142138367
 30
0.0
 11
49.10000124215435
 21
222.7738142138345
 31
0.0
  0
LINE
  5
757
330
1F
100
AcDbEntity
  8
0
100
AcDbLine
 10
40.50000124215443
 20
230.1738142138346
 30
0.0
 11
48.80000124215531
 21
230.1738142138356
 31
0.0
  0
ARC
  5
758
330
1F
100
AcDbEntity
  8
0
100
AcDbCircle
 10
45.45000124215446
 20
219.0575310712438
 30
0.0
 40
2.0
100
AcDbArc
 50
0.0
 51
75.00000000000555
  0
LINE
  5
759
330
1F
100
AcDbEntity
  8
0
100
AcDbLine
 10
43.66763933236052
 20
221.6056658664129
 30
0.0
 11
45.96763933236045
 21
220.9893827238214
 31
0.0
  0
ARC
  5
75A
330
1F
100
AcDbEntity
  8
0
100
AcDbCircle
 10
43.15000124215544
 20
219.6738142138346
 30
0.0
 40
2.0
100
AcDbArc
 50
75.00000000000555
 51
180.0
  0
LINE
  5
75B
330
1F
100
AcDbEntity
  8
0
100
AcDbLine
 10
45.90000124215544
 20
220.1738142138346
 30
0.0
 11
42.70000124215449
 21
220.1738142138356
 31
0.0
  0
ARC
  5
75C
330
1F
100
AcDbEntity
  8
0
100
AcDbCircle
 10
40.50000124215443
 20
229.6738142138346
 30
0.0
 40
0.5
100
AcDbArc
 50
90.0
 51
180.0
  0
LINE
  5
75D
330
1F
100
AcDbEntity
  8
0
100
AcDbLine
 10
40.00000124215443
 20
229.6738142138346
 30
0.0
 11
40.00000124215443
 21
229.1738142138346
 31
0.0
  0
LINE
  5
75E
330
1F
100
AcDbEntity
  8
0
100
AcDbLine
 10
39.70000124215538
 20
229.1738142138346
 30
0.0
 11
48.80000124215531
 21
229.1738142138346
 31
0.0
  0
LINE
  5
75F
330
1F
100
AcDbEntity
  8
0
100
AcDbLine
 10
48.80000124215531
 20
222.7738142138345
 30
0.0
 11
49.10000124215435
 21
222.7738142138345
 31
0.0
  0
LINE
  5
760
330
1F
100
AcDbEntity
  8
0
100
AcDbLine
 10
47.45000124215446
 20
222.7738142138345
 30
0.0
 11
47.45000124215446
 21
225.1738142138356
 31
0.0
  0
LINE
  5
761
330
1F
100
AcDbEntity
  8
0
100
AcDbLine
 10
41.15000124215453
 20
225.1738142138356
 30
0.0
 11
41.15000124215453
 21
222.7738142138345
 31
0.0
  0
LINE
  5
762
330
1F
100
AcDbEntity
  8
0
100
AcDbLine
 10
41.15000124215453
 20
222.7738142138345
 30
0.0
 11
47.45000124215446
 21
222.7738142138345
 31
0.0
  0
LINE
  5
763
330
1F
100
AcDbEntity
  8
0
100
AcDbLine
 10
41.15000124215453
 20
224.6738142138346
 30
0.0
 11
47.45000124215446
 21
224.6738142138346
 31
0.0
  0
LINE
  5
764
330
1F
100
AcDbEntity
  8
0
100
AcDbLine
 10
41.15000124215453
 20
225.1738142138346
 30
0.0
 11
47.45000124215446
 21
225.1738142138346
 31
0.0
  0
CIRCLE
  5
765
330
1F
100
AcDbEntity
  8
0
100
AcDbCircle
 10
44.3000012421553
 20
227.2038142138344
 30
0.0
 40
1.399999999999999
  0
LINE
  5
766
330
1F
100
AcDbEntity
  8
0
100
AcDbLine
 10
48.80000124215531
 20
215.3838142138356
 30
0.0
 11
49.10000124215435
 21
215.3838142138356
 31
0.0
  0
LINE
  5
767
330
1F
100
AcDbEntity
  8
0
100
AcDbLine
 10
48.80000124215531
 20
214.1138142138355
 30
0.0
 11
49.10000124215435
 21
214.1138142138355
 31
0.0
  0
LINE
  5
768
330
1F
100
AcDbEntity
  8
0
100
AcDbLine
 10
48.80000124215531
 20
212.8438142138356
 30
0.0
 11
49.10000124215435
 21
212.8438142138356
 31
0.0
  0
LINE
  5
769
330
1F
100
AcDbEntity
  8
0
100
AcDbLine
 10
48.80000124215531
 20
211.5738142138352
 30
0.0
 11
49.10000124215435
 21
211.5738142138352
 31
0.0
  0
LINE
  5
76A
330
1F
100
AcDbEntity
  8
0
100
AcDbLine
 10
48.80000124215531
 20
210.3038142138351
 30
0.0
 11
49.10000124215435
 21
210.3038142138351
 31
0.0
  0
LINE
  5
76B
330
1F
100
AcDbEntity
  8
0
100
AcDbLine
 10
48.80000124215531
 20
209.0338142138351
 30
0.0
 11
49.10000124215435
 21
209.0338142138351
 31
0.0
  0
LINE
  5
76C
330
1F
100
AcDbEntity
  8
0
100
AcDbLine
 10
48.80000124215531
 20
207.7638142138352
 30
0.0
 11
49.10000124215435
 21
207.7638142138352
 31
0.0
  0
LINE
  5
76D
330
1F
100
AcDbEntity
  8
0
100
AcDbLine
 10
48.80000124215531
 20
217.9238142138355
 30
0.0
 11
49.10000124215435
 21
217.9238142138355
 31
0.0
  0
LINE
  5
76E
330
1F
100
AcDbEntity
  8
0
100
AcDbLine
 10
48.80000124215531
 20
216.6538142138356
 30
0.0
 11
49.10000124215435
 21
216.6538142138356
 31
0.0
  0
LINE
  5
76F
330
1F
100
AcDbEntity
  8
0
100
AcDbLine
 10
48.80000124215531
 20
215.3838142138356
 30
0.0
 11
49.10000124215435
 21
215.3838142138356
 31
0.0
  0
LINE
  5
770
330
1F
100
AcDbEntity
  8
0
100
AcDbLine
 10
48.80000124215531
 20
219.1938142138345
 30
0.0
 11
49.10000124215435
 21
219.1938142138345
 31
0.0
  0
LINE
  5
771
330
1F
100
AcDbEntity
  8
0
100
AcDbLine
 10
48.80000124215531
 20
217.9238142138355
 30
0.0
 11
49.10000124215435
 21
217.9238142138355
 31
0.0
  0
LINE
  5
772
330
1F
100
AcDbEntity
  8
0
100
AcDbLine
 10
48.80000124215531
 20
207.7638142138352
 30
0.0
 11
49.10000124215435
 21
207.7638142138352
 31
0.0
  0
LINE
  5
773
330
1F
100
AcDbEntity
  8
0
100
AcDbLine
 10
48.80000124215531
 20
206.4938142138351
 30
0.0
 11
49.10000124215435
 21
206.4938142138351
 31
0.0
  0
LINE
  5
774
330
1F
100
AcDbEntity
  8
0
100
AcDbLine
 10
48.80000124215531
 20
205.2238142138351
 30
0.0
 11
49.10000124215435
 21
205.2238142138351
 31
0.0
  0
LINE
  5
775
330
1F
100
AcDbEntity
  8
0
100
AcDbLine
 10
48.80000124215531
 20
203.9538142138352
 30
0.0
 11
49.10000124215435
 21
203.9538142138352
 31
0.0
  0
LINE
  5
776
330
1F
100
AcDbEntity
  8
0
100
AcDbLine
 10
14.10000124215434
 20
185.1738140544905
 30
0.0
 11
14.10000124215434
 21
271.4738140544905
 31
0.0
  0
LINE
  5
780
330
1F
100
AcDbEntity
  8
0
100
AcDbLine
 10
49.10000124215321
 20
185.9738142138344
 30
0.0
 11
49.10000124215321
 21
191.4738142138344
 31
0.0
  0
CIRCLE
  5
781
330
1F
100
AcDbEntity
  8
0
100
AcDbCircle
 10
45.67000124215314
 20
187.4738142138344
 30
0.0
 40
0.32
  0
CIRCLE
  5
782
330
1F
100
AcDbEntity
  8
0
100
AcDbCircle
 10
45.67000124215314
 20
189.9738142138344
 30
0.0
 40
0.32
  0
LINE
  5
783
330
1F
100
AcDbEntity
  8
0
100
AcDbLine
 10
42.60000124215321
 20
185.9738142138344
 30
0.0
 11
43.60000124215321
 21
185.9738142138344
 31
0.0
  0
LINE
  5
784
330
1F
100
AcDbEntity
  8
0
100
AcDbLine
 10
43.60000124215321
 20
185.9738142138344
 30
0.0
 11
43.60000124215321
 21
191.4738142138344
 31
0.0
  0
LINE
  5
785
330
1F
100
AcDbEntity
  8
0
100
AcDbLine
 10
43.60000124215321
 20
187.9738142138344
 30
0.0
 11
43.60000124215321
 21
189.4738142138344
 31
0.0
  0
LINE
  5
786
330
1F
100
AcDbEntity
  8
0
100
AcDbLine
 10
43.60000124215321
 20
189.4738142138344
 30
0.0
 11
42.60000124215321
 21
189.4738142138344
 31
0.0
  0
LINE
  5
787
330
1F
100
AcDbEntity
  8
0
100
AcDbLine
 10
42.60000124215321
 20
189.4738142138344
 30
0.0
 11
42.60000124215321
 21
187.9738142138344
 31
0.0
  0
LINE
  5
788
330
1F
100
AcDbEntity
  8
0
100
AcDbLine
 10
42.60000124215321
 20
187.9738142138344
 30
0.0
 11
43.60000124215321
 21
187.9738142138344
 31
0.0
  0
LINE
  5
789
330
1F
100
AcDbEntity
  8
0
100
AcDbLine
 10
49.10000124215321
 20
191.4738142138344
 30
0.0
 11
42.60000124215321
 21
191.4738142138344
 31
0.0
  0
LINE
  5
78A
330
1F
100
AcDbEntity
  8
0
100
AcDbLine
 10
42.60000124215321
 20
191.4738142138344
 30
0.0
 11
42.60000124215321
 21
185.9738142138344
 31
0.0
  0
LINE
  5
78B
330
1F
100
AcDbEntity
  8
0
100
AcDbLine
 10
42.60000124215321
 20
185.9738142138344
 30
0.0
 11
49.10000124215321
 21
185.9738142138344
 31
0.0
  0
CIRCLE
  5
78C
330
1F
100
AcDbEntity
  8
0
100
AcDbCircle
 10
18.10000124215344
 20
238.6138142138346
 30
0.0
 40
0.75
  0
LINE
  5
78D
330
1F
100
AcDbEntity
  8
0
100
AcDbLine
 10
22.60000124215344
 20
234.6138142138346
 30
0.0
 11
22.60000124215344
 21
265.1138142138344
 31
0.0
  0
LINE
  5
78E
330
1F
100
AcDbEntity
  8
0
100
AcDbLine
 10
14.10000124215434
 20
270.4738142138344
 30
0.0
 11
14.10000124215434
 21
229.6138142138345
 31
0.0
  0
LINE
  5
78F
330
1F
100
AcDbEntity
  8
0
100
AcDbLine
 10
20.30000124215324
 20
239.9238142138346
 30
0.0
 11
20.30000124215324
 21
237.3038142138343
 31
0.0
  0
ARC
  5
790
330
1F
100
AcDbEntity
  8
0
100
AcDbCircle
 10
18.10000124215344
 20
238.6138142138346
 30
0.0
 40
2.9
100
AcDbArc
 50
133.602818972703
 51
226.3971810272968
  0
CIRCLE
  5
791
330
1F
100
AcDbEntity
  8
0
100
AcDbCircle
 10
18.10000124215344
 20
238.6138142138346
 30
0.0
 40
1.5
  0
CIRCLE
  5
792
330
1F
100
AcDbEntity
  8
0
100
AcDbCircle
 10
18.06361518175048
 20
232.5138142138344
 30
0.0
 40
2.0
  0
LINE
  5
793
330
1F
100
AcDbEntity
  8
0
100
AcDbLine
 10
14.10000124215434
 20
229.6138142138345
 30
0.0
 11
21.10000124215344
 21
229.6138142138345
 31
0.0
  0
LINE
  5
794
330
1F
100
AcDbEntity
  8
0
100
AcDbLine
 10
16.10000124215434
 20
235.6138142138346
 30
0.0
 11
21.10000124215344
 21
235.6138142138346
 31
0.0
  0
LINE
  5
795
330
1F
100
AcDbEntity
  8
0
100
AcDbLine
 10
16.10000124215434
 20
236.5138142138344
 30
0.0
 11
16.10000124215434
 21
235.6138142138346
 31
0.0
  0
LINE
  5
796
330
1F
100
AcDbEntity
  8
0
100
AcDbLine
 10
21.10000124215344
 20
229.6138142138345
 30
0.0
 11
21.10000124215344
 21
234.6138142138346
 31
0.0
  0
CIRCLE
  5
797
330
1F
100
AcDbEntity
  8
0
100
AcDbCircle
 10
18.06361518175048
 20
232.5138142138344
 30
0.0
 40
0.9
  0
LINE
  5
798
330
1F
100
AcDbEntity
  8
0
100
AcDbLine
 10
21.10000124215344
 20
234.6138142138346
 30
0.0
 11
22.60000124215344
 21
234.6138142138346
 31
0.0
  0
LINE
  5
799
330
1F
100
AcDbEntity
  8
0
100
AcDbLine
 10
20.30000124215324
 20
237.3038142138343
 30
0.0
 11
21.10000124215344
 21
237.3038142138343
 31
0.0
  0
LINE
  5
79A
330
1F
100
AcDbEntity
  8
0
100
AcDbLine
 10
21.10000124215344
 20
237.3038142138343
 30
0.0
 11
21.10000124215344
 21
235.6138142138346
 31
0.0
  0
ARC
  5
79B
330
1F
100
AcDbEntity
  8
0
100
AcDbCircle
 10
18.10000124215344
 20
261.4738142138344
 30
0.0
 40
2.9
100
AcDbArc
 50
133.602818972703
 51
226.3971810272968
  0
LINE
  5
79C
330
1F
100
AcDbEntity
  8
0
100
AcDbLine
 10
21.10000124215344
 20
260.1638142138351
 30
0.0
 11
21.10000124215344
 21
255.1638142138344
 31
0.0
  0
LINE
  5
79D
330
1F
100
AcDbEntity
  8
0
100
AcDbLine
 10
21.10000124215344
 20
252.5438142138344
 30
0.0
 11
21.10000124215344
 21
247.5438142138346
 31
0.0
  0
LINE
  5
79E
330
1F
100
AcDbEntity
  8
0
100
AcDbLine
 10
16.10000124215434
 20
251.7538142138346
 30
0.0
 11
16.10000124215434
 21
248.3338142138344
 31
0.0
  0
ARC
  5
79F
330
1F
100
AcDbEntity
  8
0
100
AcDbCircle
 10
18.10000124215344
 20
246.2338142138346
 30
0.0
 40
2.9
100
AcDbArc
 50
133.602818972703
 51
226.3971810272968
  0
LINE
  5
7A0
330
1F
100
AcDbEntity
  8
0
100
AcDbLine
 10
16.10000124215434
 20
244.1338142138345
 30
0.0
 11
16.10000124215434
 21
240.7138142138346
 31
0.0
  0
CIRCLE
  5
7A1
330
1F
100
AcDbEntity
  8
0
100
AcDbCircle
 10
18.10000124215344
 20
246.2338142138346
 30
0.0
 40
1.5
  0
LINE
  5
7A2
330
1F
100
AcDbEntity
  8
0
100
AcDbLine
 10
21.10000124215344
 20
244.9238142138346
 30
0.0
 11
21.10000124215344
 21
239.9238142138346
 31
0.0
  0
LINE
  5
7A3
330
1F
100
AcDbEntity
  8
0
100
AcDbLine
 10
20.30000124215324
 20
239.9238142138346
 30
0.0
 11
21.10000124215344
 21
239.9238142138346
 31
0.0
  0
LINE
  5
7A4
330
1F
100
AcDbEntity
  8
0
100
AcDbLine
 10
22.60000124215344
 20
242.1638142138344
 30
0.0
 11
24.30000124215325
 21
242.1638142138344
 31
0.0
  0
LINE
  5
7A5
330
1F
100
AcDbEntity
  8
0
100
AcDbLine
 10
24.30000124215325
 20
240.5638142138343
 30
0.0
 11
22.60000124215344
 21
240.5638142138343
 31
0.0
  0
LINE
  5
7A6
330
1F
100
AcDbEntity
  8
0
100
AcDbLine
 10
24.30000124215325
 20
242.1638142138344
 30
0.0
 11
24.30000124215325
 21
240.5638142138343
 31
0.0
  0
CIRCLE
  5
7A7
330
1F
100
AcDbEntity
  8
0
100
AcDbCircle
 10
18.10000124215344
 20
246.2338142138346
 30
0.0
 40
0.75
  0
LINE
  5
7A8
330
1F
100
AcDbEntity
  8
0
100
AcDbLine
 10
20.30000124215324
 20
244.9238142138346
 30
0.0
 11
21.10000124215344
 21
244.9238142138346
 31
0.0
  0
LINE
  5
7A9
330
1F
100
AcDbEntity
  8
0
100
AcDbLine
 10
20.30000124215324
 20
247.5438142138346
 30
0.0
 11
21.10000124215344
 21
247.5438142138346
 31
0.0
  0
LINE
  5
7AA
330
1F
100
AcDbEntity
  8
0
100
AcDbLine
 10
20.30000124215324
 20
247.5438142138346
 30
0.0
 11
20.30000124215324
 21
244.9238142138346
 31
0.0
  0
ARC
  5
7AB
330
1F
100
AcDbEntity
  8
0
100
AcDbCircle
 10
18.10000124215344
 20
253.8538142138345
 30
0.0
 40
2.9
100
AcDbArc
 50
133.602818972703
 51
226.3971810272968
  0
LINE
  5
7AC
330
1F
100
AcDbEntity
  8
0
100
AcDbLine
 10
16.10000124215434
 20
259.3738142138345
 30
0.0
 11
16.10000124215434
 21
255.9538142138344
 31
0.0
  0
LINE
  5
7AD
330
1F
100
AcDbEntity
  8
0
100
AcDbLine
 10
24.30000124215325
 20
257.5638142138345
 30
0.0
 11
22.60000124215344
 21
257.5638142138345
 31
0.0
  0
LINE
  5
7AE
330
1F
100
AcDbEntity
  8
0
100
AcDbLine
 10
24.30000124215325
 20
259.1638142138344
 30
0.0
 11
22.60000124215344
 21
259.1638142138344
 31
0.0
  0
LINE
  5
7AF
330
1F
100
AcDbEntity
  8
0
100
AcDbLine
 10
24.30000124215325
 20
259.1638142138344
 30
0.0
 11
24.30000124215325
 21
257.5638142138345
 31
0.0
  0
LINE
  5
7B0
330
1F
100
AcDbEntity
  8
0
100
AcDbLine
 10
20.30000124215324
 20
255.1638142138344
 30
0.0
 11
21.10000124215344
 21
255.1638142138344
 31
0.0
  0
CIRCLE
  5
7B1
330
1F
100
AcDbEntity
  8
0
100
AcDbCircle
 10
18.10000124215344
 20
253.8538142138345
 30
0.0
 40
0.75
  0
LINE
  5
7B2
330
1F
100
AcDbEntity
  8
0
100
AcDbLine
 10
20.30000124215324
 20
252.5438142138344
 30
0.0
 11
21.10000124215344
 21
252.5438142138344
 31
0.0
  0
CIRCLE
  5
7B3
330
1F
100
AcDbEntity
  8
0
100
AcDbCircle
 10
18.10000124215344
 20
253.8538142138345
 30
0.0
 40
1.5
  0
LINE
  5
7B4
330
1F
100
AcDbEntity
  8
0
100
AcDbLine
 10
20.30000124215324
 20
255.1638142138344
 30
0.0
 11
20.30000124215324
 21
252.5438142138344
 31
0.0
  0
LINE
  5
7B5
330
1F
100
AcDbEntity
  8
0
100
AcDbLine
 10
21.10000124215344
 20
265.4738142138344
 30
0.0
 11
21.10000124215344
 21
270.4738142138344
 31
0.0
  0
CIRCLE
  5
7B6
330
1F
100
AcDbEntity
  8
0
100
AcDbCircle
 10
18.10000124215344
 20
267.573814213834
 30
0.0
 40
2.0
  0
LINE
  5
7B7
330
1F
100
AcDbEntity
  8
0
100
AcDbLine
 10
21.10000124215344
 20
264.1138142138347
 30
0.0
 11
16.10000124215434
 21
264.1138142138347
 31
0.0
  0
LINE
  5
7B8
330
1F
100
AcDbEntity
  8
0
100
AcDbLine
 10
16.10000124215434
 20
264.1138142138347
 30
0.0
 11
16.10000124215434
 21
263.573814213834
 31
0.0
  0
LINE
  5
7B9
330
1F
100
AcDbEntity
  8
0
100
AcDbLine
 10
21.10000124215344
 20
265.4738142138344
 30
0.0
 11
22.60000124215344
 21
265.4738142138344
 31
0.0
  0
CIRCLE
  5
7BA
330
1F
100
AcDbEntity
  8
0
100
AcDbCircle
 10
18.10000124215344
 20
267.573814213834
 30
0.0
 40
0.9
  0
LINE
  5
7BB
330
1F
100
AcDbEntity
  8
0
100
AcDbLine
 10
20.30000124215324
 20
262.7838142138343
 30
0.0
 11
21.10000124215344
 21
262.7838142138343
 31
0.0
  0
LINE
  5
7BC
330
1F
100
AcDbEntity
  8
0
100
AcDbLine
 10
21.10000124215344
 20
264.1138142138347
 30
0.0
 11
21.10000124215344
 21
262.7838142138343
 31
0.0
  0
LINE
  5
7BD
330
1F
100
AcDbEntity
  8
0
100
AcDbLine
 10
20.30000124215324
 20
260.1638142138351
 30
0.0
 11
21.10000124215344
 21
260.1638142138351
 31
0.0
  0
CIRCLE
  5
7BE
330
1F
100
AcDbEntity
  8
0
100
AcDbCircle
 10
18.10000124215344
 20
261.4738142138344
 30
0.0
 40
0.75
  0
LINE
  5
7BF
330
1F
100
AcDbEntity
  8
0
100
AcDbLine
 10
20.30000124215324
 20
262.7838142138343
 30
0.0
 11
20.30000124215324
 21
260.1638142138351
 31
0.0
  0
CIRCLE
  5
7C0
330
1F
100
AcDbEntity
  8
0
100
AcDbCircle
 10
18.10000124215344
 20
261.4738142138344
 30
0.0
 40
1.5
  0
LINE
  5
7C1
330
1F
100
AcDbEntity
  8
0
100
AcDbLine
 10
22.60000124215344
 20
265.4738142138344
 30
0.0
 11
22.60000124215344
 21
265.1138142138344
 31
0.0
  0
LINE
  5
7C2
330
1F
100
AcDbEntity
  8
0
100
AcDbLine
 10
14.10000124215434
 20
270.4738142138344
 30
0.0
 11
21.10000124215344
 21
270.4738142138344
 31
0.0
  0
LINE
  5
7C3
330
1F
100
AcDbEntity
  8
0
100
AcDbLine
 10
14.10000124215434
 20
265.2338142138344
 30
0.0
 11
14.10000124215434
 21
270.4738142138344
 31
0.0
  0
LINE
  5
7C4
330
1F
100
AcDbEntity
  8
0
100
AcDbLine
 10
14.10000124215434
 20
270.4738142138344
 30
0.0
 11
21.10000124215344
 21
270.4738142138344
 31
0.0
  0
LINE
  5
7C5
330
1F
100
AcDbEntity
  8
0
100
AcDbLine
 10
21.10000124215344
 20
270.4738142138344
 30
0.0
 11
21.10000124215344
 21
265.2338142138344
 31
0.0
  0
LINE
  5
7C6
330
1F
100
AcDbEntity
  8
0
100
AcDbLine
 10
14.10000124215434
 20
234.8538142138344
 30
0.0
 11
14.10000124215434
 21
229.6138142138345
 31
0.0
  0
LINE
  5
7C7
330
1F
100
AcDbEntity
  8
0
100
AcDbLine
 10
14.10000124215434
 20
229.6138142138345
 30
0.0
 11
21.10000124215344
 21
229.6138142138345
 31
0.0
  0
LINE
  5
7C8
330
1F
100
AcDbEntity
  8
0
100
AcDbLine
 10
21.10000124215344
 20
229.6138142138345
 30
0.0
 11
21.10000124215344
 21
234.8538142138344
 31
0.0
  0
LINE
  5
7C9
330
1F
100
AcDbEntity
  8
0
100
AcDbLine
 10
41.20000124215311
 20
242.0738142138343
 30
0.0
 11
49.10000124215321
 21
242.0738142138343
 31
0.0
  0
LINE
  5
7CA
330
1F
100
AcDbEntity
  8
0
100
AcDbLine
 10
42.15000124215317
 20
243.0738142138343
 30
0.0
 11
48.15000124215453
 21
243.0738142138343
 31
0.0
  0
LINE
  5
7CB
330
1F
100
AcDbEntity
  8
0
100
AcDbLine
 10
43.15000124215453
 20
243.0738142138343
 30
0.0
 11
44.15000124215317
 21
243.0738142138343
 31
0.0
  0
LINE
  5
7CC
330
1F
100
AcDbEntity
  8
0
100
AcDbLine
 10
44.95000124215311
 20
243.0738142138343
 30
0.0
 11
44.95000124215311
 21
246.0738142138342
 31
0.0
  0
LINE
  5
7CD
330
1F
100
AcDbEntity
  8
0
100
AcDbLine
 10
48.15000124215453
 20
243.0738142138343
 30
0.0
 11
48.15000124215453
 21
246.0738142138342
 31
0.0
  0
LINE
  5
7CE
330
1F
100
AcDbEntity
  8
0
100
AcDbLine
 10
48.15000124215453
 20
246.0738142138342
 30
0.0
 11
42.15000124215317
 21
246.0738142138342
 31
0.0
  0
LINE
  5
7CF
330
1F
100
AcDbEntity
  8
0
100
AcDbLine
 10
42.15000124215317
 20
246.0738142138342
 30
0.0
 11
42.15000124215317
 21
243.0738142138343
 31
0.0
  0
LINE
  5
7D0
330
1F
100
AcDbEntity
  8
0
100
AcDbLine
 10
44.15000124215317
 20
243.0738142138343
 30
0.0
 11
44.15000124215317
 21
246.0738142138342
 31
0.0
  0
LINE
  5
7D1
330
1F
100
AcDbEntity
  8
0
100
AcDbLine
 10
44.15000124215317
 20
246.0738142138342
 30
0.0
 11
43.15000124215453
 21
246.0738142138342
 31
0.0
  0
LINE
  5
7D2
330
1F
100
AcDbEntity
  8
0
100
AcDbLine
 10
43.15000124215453
 20
246.0738142138342
 30
0.0
 11
43.15000124215453
 21
243.0738142138343
 31
0.0
  0
LINE
  5
7D3
330
1F
100
AcDbEntity
  8
0
100
AcDbLine
 10
49.10000124215321
 20
242.0738142138343
 30
0.0
 11
49.10000124215321
 21
247.0738142138343
 31
0.0
  0
LINE
  5
7D4
330
1F
100
AcDbEntity
  8
0
100
AcDbLine
 10
49.10000124215321
 20
247.0738142138343
 30
0.0
 11
41.20000124215311
 21
247.0738142138343
 31
0.0
  0
LINE
  5
7D5
330
1F
100
AcDbEntity
  8
0
100
AcDbLine
 10
41.20000124215311
 20
247.0738142138343
 30
0.0
 11
41.20000124215311
 21
242.0738142138343
 31
0.0
  0
CIRCLE
  5
7D6
330
1F
100
AcDbEntity
  8
0
100
AcDbCircle
 10
2.500001242155349
 20
203.9738142138344
 30
0.0
 40
2.149999999999999
  0
CIRCLE
  5
7D7
330
1F
100
AcDbEntity
  8
0
100
AcDbCircle
 10
2.500001242155349
 20
203.9738142138344
 30
0.0
 40
1.85
  0
LINE
  5
7D8
330
1F
100
AcDbEntity
  8
0
100
AcDbLine
 10
1.15000124215453
 20
203.6738142138346
 30
0.0
 11
3.850001242155256
 21
203.6738142138346
 31
0.0
  0
LINE
  5
7D9
330
1F
100
AcDbEntity
  8
0
100
AcDbLine
 10
2.350001242155258
 20
203.9738142138344
 30
0.0
 11
2.350001242155258
 21
205.3238142138343
 31
0.0
  0
LINE
  5
7DA
330
1F
100
AcDbEntity
  8
0
100
AcDbLine
 10
2.650001242154529
 20
203.9738142138344
 30
0.0
 11
2.650001242154529
 21
205.3238142138343
 31
0.0
  0
ARC
  5
7DB
330
1F
100
AcDbEntity
  8
0
100
AcDbCircle
 10
2.500001242155349
 20
205.3238142138343
 30
0.0
 40
0.15
100
AcDbArc
 50
0.0
 51
180.0
  0
ARC
  5
7DC
330
1F
100
AcDbEntity
  8
0
100
AcDbCircle
 10
1.15000124215453
 20
203.8238142138343
 30
0.0
 40
0.15
100
AcDbArc
 50
90.0
 51
270.0
  0
ARC
  5
7DD
330
1F
100
AcDbEntity
  8
0
100
AcDbCircle
 10
3.850001242155256
 20
203.8238142138343
 30
0.0
 40
0.15
100
AcDbArc
 50
270.0
 51
90.0
  0
LINE
  5
7DE
330
1F
100
AcDbEntity
  8
0
100
AcDbLine
 10
1.15000124215453
 20
203.9738142138344
 30
0.0
 11
2.350001242155258
 21
203.9738142138344
 31
0.0
  0
LINE
  5
7DF
330
1F
100
AcDbEntity
  8
0
100
AcDbLine
 10
2.650001242154529
 20
203.9738142138344
 30
0.0
 11
3.850001242155256
 21
203.9738142138344
 31
0.0
  0
LINE
  5
7E0
330
1F
100
AcDbEntity
  8
0
100
AcDbLine
 10
1.550001242155303
 20
203.3238142138343
 30
0.0
 11
3.450001242154483
 21
203.3238142138343
 31
0.0
  0
LINE
  5
7E1
330
1F
100
AcDbEntity
  8
0
100
AcDbLine
 10
1.550001242155303
 20
203.0238142138346
 30
0.0
 11
3.450001242154483
 21
203.0238142138346
 31
0.0
  0
LINE
  5
7E2
330
1F
100
AcDbEntity
  8
0
100
AcDbLine
 10
1.950001242154485
 20
202.6738142138346
 30
0.0
 11
3.050001242153256
 21
202.6738142138346
 31
0.0
  0
LINE
  5
7E3
330
1F
100
AcDbEntity
  8
0
100
AcDbLine
 10
1.950001242154485
 20
202.3738142138344
 30
0.0
 11
3.050001242153256
 21
202.3738142138344
 31
0.0
  0
ARC
  5
7E4
330
1F
100
AcDbEntity
  8
0
100
AcDbCircle
 10
1.950001242154485
 20
202.5238142138346
 30
0.0
 40
0.15
100
AcDbArc
 50
90.0
 51
270.0
  0
ARC
  5
7E5
330
1F
100
AcDbEntity
  8
0
100
AcDbCircle
 10
3.050001242153256
 20
202.5238142138346
 30
0.0
 40
0.15
100
AcDbArc
 50
270.0
 51
90.0
  0
ARC
  5
7E6
330
1F
100
AcDbEntity
  8
0
100
AcDbCircle
 10
1.550001242155303
 20
203.1738142138346
 30
0.0
 40
0.15
100
AcDbArc
 50
90.0
 51
270.0
  0
ARC
  5
7E7
330
1F
100
AcDbEntity
  8
0
100
AcDbCircle
 10
3.450001242154483
 20
203.1738142138346
 30
0.0
 40
0.15
100
AcDbArc
 50
270.0
 51
90.0
  0
LINE
  5
7E8
330
1F
100
AcDbEntity
  8
0
100
AcDbLine
 10
49.10000124215321
 20
241.5738142138343
 30
0.0
 11
41.85000124215321
 21
241.5738142138343
 31
0.0
  0
CIRCLE
  5
7E9
330
1F
100
AcDbEntity
  8
0
100
AcDbCircle
 10
45.60000124215321
 20
235.6238142138344
 30
0.0
 40
1.0
  0
CIRCLE
  5
7EA
330
1F
100
AcDbEntity
  8
0
100
AcDbCircle
 10
45.60000124215321
 20
239.1238142138345
 30
0.0
 40
1.0
  0
LINE
  5
7EB
330
1F
100
AcDbEntity
  8
0
100
AcDbLine
 10
41.85000124215321
 20
241.5738142138343
 30
0.0
 11
41.85000124215321
 21
233.1738142138346
 31
0.0
  0
LINE
  5
7EC
330
1F
100
AcDbEntity
  8
0
100
AcDbLine
 10
41.85000124215321
 20
233.1738142138346
 30
0.0
 11
49.10000124215321
 21
233.1738142138346
 31
0.0
  0
LINE
  5
7ED
330
1F
100
AcDbEntity
  8
0
100
AcDbLine
 10
49.10000124215321
 20
233.1738142138346
 30
0.0
 11
49.10000124215321
 21
241.5738142138343
 31
0.0
  0
LINE
  5
7EE
330
1F
100
AcDbEntity
  8
0
100
AcDbLine
 10
41.20000124215311
 20
262.0738142138339
 30
0.0
 11
49.10000124215321
 21
262.0738142138339
 31
0.0
  0
LINE
  5
7EF
330
1F
100
AcDbEntity
  8
0
100
AcDbLine
 10
42.15000124215317
 20
263.073814213834
 30
0.0
 11
48.15000124215453
 21
263.073814213834
 31
0.0
  0
LINE
  5
7F0
330
1F
100
AcDbEntity
  8
0
100
AcDbLine
 10
43.15000124215453
 20
263.073814213834
 30
0.0
 11
44.15000124215317
 21
263.073814213834
 31
0.0
  0
LINE
  5
7F1
330
1F
100
AcDbEntity
  8
0
100
AcDbLine
 10
44.95000124215311
 20
263.073814213834
 30
0.0
 11
44.95000124215311
 21
266.073814213834
 31
0.0
  0
LINE
  5
7F2
330
1F
100
AcDbEntity
  8
0
100
AcDbLine
 10
49.10000124215321
 20
262.0738142138339
 30
0.0
 11
49.10000124215321
 21
267.0738142138339
 31
0.0
  0
LINE
  5
7F3
330
1F
100
AcDbEntity
  8
0
100
AcDbLine
 10
49.10000124215321
 20
267.0738142138339
 30
0.0
 11
41.20000124215311
 21
267.0738142138339
 31
0.0
  0
LINE
  5
7F4
330
1F
100
AcDbEntity
  8
0
100
AcDbLine
 10
41.20000124215311
 20
267.0738142138339
 30
0.0
 11
41.20000124215311
 21
262.0738142138339
 31
0.0
  0
LINE
  5
7F5
330
1F
100
AcDbEntity
  8
0
100
AcDbLine
 10
44.15000124215317
 20
263.073814213834
 30
0.0
 11
44.15000124215317
 21
266.073814213834
 31
0.0
  0
LINE
  5
7F6
330
1F
100
AcDbEntity
  8
0
100
AcDbLine
 10
44.15000124215317
 20
266.073814213834
 30
0.0
 11
43.15000124215453
 21
266.073814213834
 31
0.0
  0
LINE
  5
7F7
330
1F
100
AcDbEntity
  8
0
100
AcDbLine
 10
43.15000124215453
 20
266.073814213834
 30
0.0
 11
43.15000124215453
 21
263.073814213834
 31
0.0
  0
LINE
  5
7F8
330
1F
100
AcDbEntity
  8
0
100
AcDbLine
 10
48.15000124215453
 20
263.073814213834
 30
0.0
 11
48.15000124215453
 21
266.073814213834
 31
0.0
  0
LINE
  5
7F9
330
1F
100
AcDbEntity
  8
0
100
AcDbLine
 10
48.15000124215453
 20
266.073814213834
 30
0.0
 11
42.15000124215317
 21
266.073814213834
 31
0.0
  0
LINE
  5
7FA
330
1F
100
AcDbEntity
  8
0
100
AcDbLine
 10
42.15000124215317
 20
266.073814213834
 30
0.0
 11
42.15000124215317
 21
263.073814213834
 31
0.0
  0
CIRCLE
  5
7FB
330
1F
100
AcDbEntity
  8
0
100
AcDbCircle
 10
42.60000124215435
 20
254.5738142138343
 30
0.0
 40
5.5
  0
LINE
  5
7FC
330
1F
100
AcDbEntity
  8
0
100
AcDbLine
 10
36.30000124215325
 20
247.5738142138343
 30
0.0
 11
36.30000124215325
 21
261.573814213834
 31
0.0
  0
LINE
  5
7FD
330
1F
100
AcDbEntity
  8
0
100
AcDbLine
 10
49.10000124215435
 20
247.5738142138343
 30
0.0
 11
49.10000124215435
 21
253.4738142138344
 31
0.0
  0
LINE
  5
7FE
330
1F
100
AcDbEntity
  8
0
100
AcDbLine
 10
49.10000124215435
 20
247.5738142138343
 30
0.0
 11
36.30000124215325
 21
247.5738142138343
 31
0.0
  0
LINE
  5
7FF
330
1F
100
AcDbEntity
  8
0
100
AcDbLine
 10
49.10000124215435
 20
261.573814213834
 30
0.0
 11
36.30000124215325
 21
261.573814213834
 31
0.0
  0
LINE
  5
800
330
1F
100
AcDbEntity
  8
0
100
AcDbLine
 10
49.10000124215435
 20
255.6738142138346
 30
0.0
 11
49.10000124215435
 21
261.573814213834
 31
0.0
  0
LINE
  5
801
330
1F
100
AcDbEntity
  8
0
100
AcDbLine
 10
14.10000124215434
 20
306.0738140544908
 30
0.0
 11
14.10000124215434
 21
339.0738140544907
 31
0.0
  0
LINE
  5
802
330
1F
100
AcDbEntity
  8
0
100
AcDbLine
 10
14.10000124215434
 20
275.9738140544905
 30
0.0
 11
14.10000124215434
 21
302.1738140544907
 31
0.0
  0
LINE
  5
803
330
1F
100
AcDbEntity
  8
0
100
AcDbLine
 10
49.10000124215435
 20
267.5738140544908
 30
0.0
 11
49.10000124215435
 21
232.6738140544907
 31
0.0
  0
LINE
  5
804
330
1F
100
AcDbEntity
  8
0
100
AcDbLine
 10
49.10000124215435
 20
230.6738140544907
 30
0.0
 11
49.10000124215435
 21
185.1738140544905
 31
0.0
  0
ARC
  5
805
330
1F
100
AcDbEntity
  8
0
100
AcDbCircle
 10
29.00000124215443
 20
359.9738142138343
 30
0.0
 40
5.5
100
AcDbArc
 50
294.6199773286481
 51
0.0
  0
ARC
  5
806
330
1F
100
AcDbEntity
  8
0
100
AcDbCircle
 10
29.00000124215443
 20
175.9738142138344
 30
0.0
 40
5.5
100
AcDbArc
 50
114.6199773286481
 51
180.0
  0
LINE
  5
807
330
1F
100
AcDbEntity
  8
0
100
AcDbLine
 10
31.10000124215434
 20
170.9738142138343
 30
0.0
 11
57.00000124215442
 21
170.9738142138343
 31
0.0
  0
LINE
  5
808
330
1F
100
AcDbEntity
  8
0
  6
BYBLOCK
 62
     0
100
AcDbLine
 10
31.10014986725126
 20
308.2989495185356
 30
0.0
 11
46.00007555470324
 21
308.2989495185366
 31
0.0
  0
LINE
  5
809
330
1F
100
AcDbEntity
  8
0
  6
BYBLOCK
100
AcDbLine
 10
46.00007555470527
 20
275.4989459185373
 30
0.0
 11
46.00007555470324
 21
308.2989495185366
 31
0.0
  0
LINE
  5
80A
330
1F
100
AcDbEntity
  8
0
  6
BYBLOCK
 62
     0
100
AcDbLine
 10
31.10014986725126
 20
275.4989459185373
 30
0.0
 11
46.00007555470527
 21
275.4989459185373
 31
0.0
  0
INSERT
  5
80B
330
1F
100
AcDbEntity
  8
0
 62
     0
 48
5.0
100
AcDbBlockReference
  2
A$C5CFD6E8C
 10
47.50000403113427
 20
315.7488124678798
 30
0.0
  0
INSERT
  5
80C
330
1F
100
AcDbEntity
  8
0
 62
     0
 48
5.0
100
AcDbBlockReference
  2
A$C5CFD6E8C
 10
47.50000403113427
 20
310.2488124678798
 30
0.0
  0
LINE
  5
80D
330
1F
100
AcDbEntity
  8
0
 62
     0
 48
5.0
100
AcDbLine
 10
31.10014986725126
 20
308.2989495185356
 30
0.0
 11
31.10014986725126
 21
275.4989459185373
 31
0.0
  0
LWPOLYLINE
  5
80E
330
1F
100
AcDbEntity
  8
0
 62
     0
100
AcDbPolyline
 90
        4
 70
     1
 43
0.0
 10
47.50000124215442
 20
318.4488149475253
 10
49.10000124215435
 20
318.4488149475253
 10
49.10000124215435
 20
315.7488149475243
 10
47.50000124215442
 20
315.7488149475243
  0
LWPOLYLINE
  5
80F
330
1F
100
AcDbEntity
  8
0
 62
     0
100
AcDbPolyline
 90
        4
 70
     1
 43
0.0
 10
47.50000124215442
 20
312.9488149475253
 10
49.10000124215435
 20
312.9488149475253
 10
49.10000124215435
 20
310.2488149475242
 10
47.50000124215442
 20
310.2488149475242
  0
LINE
  5
810
330
1F
100
AcDbEntity
  8
0
  6
CONTINUOUS
100
AcDbLine
 10
43.27605136870738
 20
294.3600948657658
 30
0.0
 11
43.27605136870738
 21
306.5887756403353
 31
0.0
  0
LINE
  5
811
330
1F
100
AcDbEntity
  8
0
  6
CONTINUOUS
100
AcDbLine
 10
33.49920951961939
 20
306.1596501376298
 30
0.0
 11
33.49920951961939
 21
294.7892203684718
 31
0.0
  0
LINE
  5
812
330
1F
100
AcDbEntity
  8
0
  6
CONTINUOUS
100
AcDbLine
 10
33.96968760728237
 20
302.6362519468925
 30
0.0
 11
33.96968760728237
 21
298.3126185592086
 31
0.0
  0
LINE
  5
813
330
1F
100
AcDbEntity
  8
0
  6
CONTINUOUS
100
AcDbLine
 10
43.27690539150832
 20
294.3600948657658
 30
0.0
 11
43.27690539150832
 21
306.5887756403353
 31
0.0
  0
LINE
  5
814
330
1F
100
AcDbEntity
  8
0
  6
CONTINUOUS
100
AcDbLine
 10
33.50025632619348
 20
306.1596501376298
 30
0.0
 11
33.50025632619348
 21
294.7892203684718
 31
0.0
  0
LINE
  5
815
330
1F
100
AcDbEntity
  8
0
  6
CONTINUOUS
100
AcDbLine
 10
33.81689855098125
 20
298.1597536001176
 30
0.0
 11
33.81689855098125
 21
302.7891173716457
 31
0.0
  0
LINE
  5
816
330
1F
100
AcDbEntity
  8
0
  6
CONTINUOUS
100
AcDbLine
 10
43.43536759927338
 20
294.2017104234364
 30
0.0
 11
43.43536759927338
 21
306.7471600826643
 31
0.0
  0
LINE
  5
817
330
1F
100
AcDbEntity
  8
0
  6
CONTINUOUS
100
AcDbLine
 10
45.00029546409314
 20
293.2244354616662
 30
0.0
 11
45.00029546409314
 21
307.7244359757563
 31
0.0
  0
LINE
  5
818
330
1F
100
AcDbEntity
  8
0
  6
CONTINUOUS
100
AcDbLine
 10
40.80509052812542
 20
291.6977172009465
 30
0.0
 11
42.14032956599635
 21
291.6977172009465
 31
0.0
  0
LINE
  5
819
330
1F
100
AcDbEntity
  8
0
  6
CONTINUOUS
100
AcDbLine
 10
42.15023231893247
 20
291.6607543758392
 30
0.0
 11
40.79327949523325
 21
291.6607543758392
 31
0.0
  0
LINE
  5
81A
330
1F
100
AcDbEntity
  8
0
  6
CONTINUOUS
100
AcDbLine
 10
40.63683034121459
 20
290.6424048580041
 30
0.0
 11
42.28140630959956
 21
290.6424048580041
 31
0.0
  0
LINE
  5
81B
330
1F
100
AcDbEntity
  8
0
  6
CONTINUOUS
100
AcDbLine
 10
42.28140630959956
 20
276.1530291046765
 30
0.0
 11
40.63683034121459
 21
276.1530291046765
 31
0.0
  0
LINE
  5
81C
330
1F
100
AcDbEntity
  8
0
  6
CONTINUOUS
100
AcDbLine
 10
43.27690539150832
 20
289.5120577178717
 30
0.0
 11
36.48942181109828
 21
289.5120577178717
 31
0.0
  0
LINE
  5
81D
330
1F
100
AcDbEntity
  8
0
  6
CONTINUOUS
100
AcDbLine
 10
36.48942181109828
 20
277.2833762448091
 30
0.0
 11
43.27690539150832
 21
277.2833762448091
 31
0.0
  0
LINE
  5
81E
330
1F
100
AcDbEntity
  8
0
  6
CONTINUOUS
100
AcDbLine
 10
40.42399705588239
 20
290.3977171974073
 30
0.0
 11
42.49211152284738
 21
290.3977171974073
 31
0.0
  0
LINE
  5
81F
330
1F
100
AcDbEntity
  8
0
  6
CONTINUOUS
100
AcDbLine
 10
43.43536759927338
 20
289.6704421602003
 30
0.0
 11
36.33111466854234
 21
289.6704421602003
 31
0.0
  0
LINE
  5
820
330
1F
100
AcDbEntity
  8
0
  6
CONTINUOUS
100
AcDbLine
 10
36.33111466854234
 20
277.1249918024805
 30
0.0
 11
43.43536759927338
 21
277.1249918024805
 31
0.0
  0
LINE
  5
821
330
1F
100
AcDbEntity
  8
0
  6
CONTINUOUS
100
AcDbLine
 10
42.49211152284738
 20
276.3977173473504
 30
0.0
 11
40.42399705588239
 21
276.3977173473504
 31
0.0
  0
LINE
  5
822
330
1F
100
AcDbEntity
  8
0
  6
CONTINUOUS
100
AcDbLine
 10
42.14032956599635
 20
292.1744354263463
 30
0.0
 11
40.80509052812542
 21
292.1744354263463
 31
0.0
  0
LINE
  5
823
330
1F
100
AcDbEntity
  8
0
  6
CONTINUOUS
100
AcDbLine
 10
40.79327949523325
 20
292.2113982660048
 30
0.0
 11
42.15023231893247
 21
292.2113982660048
 31
0.0
  0
LINE
  5
824
330
1F
100
AcDbEntity
  8
0
  6
CONTINUOUS
100
AcDbLine
 10
42.28140630959956
 20
293.2297477256323
 30
0.0
 11
40.63683034121459
 21
293.2297477256323
 31
0.0
  0
LINE
  5
825
330
1F
100
AcDbEntity
  8
0
  6
CONTINUOUS
100
AcDbLine
 10
36.48942181109828
 20
294.3600948657658
 30
0.0
 11
43.27690539150832
 21
294.3600948657658
 31
0.0
  0
LINE
  5
826
330
1F
100
AcDbEntity
  8
0
  6
CONTINUOUS
100
AcDbLine
 10
36.33111466854234
 20
294.2017104234364
 30
0.0
 11
43.43536759927338
 21
294.2017104234364
 31
0.0
  0
LINE
  5
827
330
1F
100
AcDbEntity
  8
0
  6
CONTINUOUS
100
AcDbLine
 10
42.49211152284738
 20
293.4744353862297
 30
0.0
 11
40.42399705588239
 21
293.4744353862297
 31
0.0
  0
LINE
  5
828
330
1F
100
AcDbEntity
  8
0
  6
CONTINUOUS
100
AcDbLine
 10
43.50404751687729
 20
292.0832420515171
 30
0.0
 11
38.65404737382528
 21
292.0832420515171
 31
0.0
  0
LINE
  5
829
330
1F
100
AcDbEntity
  8
0
  6
CONTINUOUS
100
AcDbLine
 10
43.5040456542315
 20
291.7101590448101
 30
0.0
 11
38.65404551118036
 21
291.7101590448101
 31
0.0
  0
LINE
  5
82A
330
1F
100
AcDbEntity
  8
0
  6
CONTINUOUS
100
AcDbLine
 10
43.27605136870738
 20
277.2833762448091
 30
0.0
 11
43.27605136870738
 21
289.5120577178717
 31
0.0
  0
LINE
  5
82B
330
1F
100
AcDbEntity
  8
0
  6
CONTINUOUS
100
AcDbLine
 10
43.27690539150832
 20
277.2833762448091
 30
0.0
 11
43.27690539150832
 21
289.5120577178717
 31
0.0
  0
LINE
  5
82C
330
1F
100
AcDbEntity
  8
0
  6
CONTINUOUS
100
AcDbLine
 10
43.43536759927338
 20
277.1249918024805
 30
0.0
 11
43.43536759927338
 21
289.6704421602003
 31
0.0
  0
LINE
  5
82D
330
1F
100
AcDbEntity
  8
0
  6
CONTINUOUS
100
AcDbLine
 10
45.00029546409314
 20
276.1477168407103
 30
0.0
 11
45.00029546409314
 21
290.6477172383856
 31
0.0
  0
LINE
  5
82E
330
1F
100
AcDbEntity
  8
0
  6
CONTINUOUS
100
AcDbLine
 10
42.24939582138723
 20
275.8977163340714
 30
0.0
 11
42.24939582138723
 21
275.9045187141564
 31
0.0
  0
LINE
  5
82F
330
1F
100
AcDbEntity
  8
0
  6
CONTINUOUS
100
AcDbLine
 10
44.99886029600543
 20
275.5995496865174
 30
0.0
 11
44.99867403149028
 21
275.5995496865174
 31
0.0
  0
LINE
  5
830
330
1F
100
AcDbEntity
  8
0
  6
CONTINUOUS
100
AcDbLine
 10
44.72728104531234
 20
275.8977163340714
 30
0.0
 11
44.99966402738732
 21
275.8977163340714
 31
0.0
  0
LINE
  5
831
330
1F
100
AcDbEntity
  8
0
  6
CONTINUOUS
100
AcDbLine
 10
44.47791244103927
 20
275.8977163340714
 30
0.0
 11
44.72728104531234
 21
275.8977163340714
 31
0.0
  0
LINE
  5
832
330
1F
100
AcDbEntity
  8
0
  6
CONTINUOUS
100
AcDbLine
 10
44.72728104531234
 20
276.1477168407103
 30
0.0
 11
44.72728104531234
 21
275.8977163340714
 31
0.0
  0
LINE
  5
833
330
1F
100
AcDbEntity
  8
0
  6
CONTINUOUS
100
AcDbLine
 10
42.24851944684428
 20
275.8977163340714
 30
0.0
 11
42.24939582138723
 21
275.8977163340714
 31
0.0
  0
LINE
  5
834
330
1F
100
AcDbEntity
  8
0
  6
CONTINUOUS
100
AcDbLine
 10
45.57559204488415
 20
276.7277175318263
 30
0.0
 11
45.20171120032114
 21
276.7277175318263
 31
0.0
  0
LINE
  5
835
330
1F
100
AcDbEntity
  8
0
  6
CONTINUOUS
100
AcDbLine
 10
45.57559204488415
 20
278.0277171861198
 30
0.0
 11
45.20171120032114
 21
278.0277171861198
 31
0.0
  0
LINE
  5
836
330
1F
100
AcDbEntity
  8
0
  6
CONTINUOUS
100
AcDbLine
 10
45.57559204488415
 20
278.0277171861198
 30
0.0
 11
45.57559204488415
 21
276.7277175318263
 31
0.0
  0
LINE
  5
837
330
1F
100
AcDbEntity
  8
0
  6
CONTINUOUS
100
AcDbLine
 10
45.20171120032114
 20
276.7277175318263
 30
0.0
 11
45.0002703183834
 21
276.7277175318263
 31
0.0
  0
LINE
  5
838
330
1F
100
AcDbEntity
  8
0
  6
CONTINUOUS
100
AcDbLine
 10
45.20171120032114
 20
278.0277171861198
 30
0.0
 11
45.0002703183834
 21
278.0277171861198
 31
0.0
  0
LINE
  5
839
330
1F
100
AcDbEntity
  8
0
  6
CONTINUOUS
100
AcDbLine
 10
45.20171120032114
 20
276.7277175318263
 30
0.0
 11
45.20171120032114
 21
278.0277171861198
 31
0.0
  0
LINE
  5
83A
330
1F
100
AcDbEntity
  8
0
  6
CONTINUOUS
100
AcDbLine
 10
42.28140630959956
 20
276.1530291046765
 30
0.0
 11
42.19715356824417
 21
275.4989459185373
 31
0.0
  0
LINE
  5
83B
330
1F
100
AcDbEntity
  8
0
  6
CONTINUOUS
100
AcDbLine
 10
42.24939582138723
 20
275.8977163340714
 30
0.0
 11
42.49211152284738
 21
275.8977163340714
 31
0.0
  0
LINE
  5
83C
330
1F
100
AcDbEntity
  8
0
  6
CONTINUOUS
100
AcDbLine
 10
42.28072178750632
 20
276.1477168407103
 30
0.0
 11
42.47899011909452
 21
276.1477168407103
 31
0.0
  0
ELLIPSE
  5
83D
330
1F
100
AcDbEntity
  8
0
  6
CONTINUOUS
100
AcDbEllipse
 10
42.47898991080638
 20
276.3977172069516
 30
0.0
 11
0.0
 21
0.25
 31
0.0
210
0.0
220
0.0
230
1.0
 40
0.0524853924318904
 41
3.14159265358979
 42
4.71238898038469
  0
LINE
  5
83E
330
1F
100
AcDbEntity
  8
0
  6
CONTINUOUS
100
AcDbLine
 10
43.43536759927338
 20
277.1249918024805
 30
0.0
 11
43.27690539150832
 21
277.2833762448091
 31
0.0
  0
LINE
  5
83F
330
1F
100
AcDbEntity
  8
0
  6
CONTINUOUS
100
AcDbLine
 10
44.47791244103927
 20
275.8977163340714
 30
0.0
 11
42.49211152284738
 21
275.8977163340714
 31
0.0
  0
LINE
  5
840
330
1F
100
AcDbEntity
  8
0
  6
CONTINUOUS
100
AcDbLine
 10
42.49211152284738
 20
276.3977173473504
 30
0.0
 11
42.49211152284738
 21
275.8977163340714
 31
0.0
  0
LINE
  5
841
330
1F
100
AcDbEntity
  8
0
  6
CONTINUOUS
100
AcDbLine
 10
44.47791244103927
 20
275.8977163340714
 30
0.0
 11
44.47791244103927
 21
276.1477168407103
 31
0.0
  0
LINE
  5
842
330
1F
100
AcDbEntity
  8
0
  6
CONTINUOUS
100
AcDbLine
 10
45.00029546409314
 20
276.1477168407103
 30
0.0
 11
44.47791244103927
 21
276.1477168407103
 31
0.0
  0
LINE
  5
843
330
1F
100
AcDbEntity
  8
0
  6
CONTINUOUS
100
AcDbLine
 10
44.99948567911428
 20
275.5995496865174
 30
0.0
 11
44.99932875126022
 21
275.5995496865174
 31
0.0
  0
LINE
  5
844
330
1F
100
AcDbEntity
  8
0
  6
CONTINUOUS
100
AcDbLine
 10
44.99948474779126
 20
275.6535030659106
 30
0.0
 11
44.99942467748518
 21
275.6535030659106
 31
0.0
  0
LINE
  5
845
330
1F
100
AcDbEntity
  8
0
  6
CONTINUOUS
100
AcDbLine
 10
44.99953783317821
 20
275.5995496865174
 30
0.0
 11
44.99950197725934
 21
275.5995496865174
 31
0.0
  0
LINE
  5
846
330
1F
100
AcDbEntity
  8
0
  6
CONTINUOUS
100
AcDbLine
 10
44.99959184988735
 20
275.5995496865174
 30
0.0
 11
44.99955645963039
 21
275.5995496865174
 31
0.0
  0
LINE
  5
847
330
1F
100
AcDbEntity
  8
0
  6
CONTINUOUS
100
AcDbLine
 10
44.99964633225839
 20
275.5995496865174
 30
0.0
 11
44.99961094200034
 21
275.5995496865174
 31
0.0
  0
LINE
  5
848
330
1F
100
AcDbEntity
  8
0
  6
CONTINUOUS
100
AcDbLine
 10
44.99981955825728
 20
275.5995496865174
 30
0.0
 11
44.99966309606429
 21
275.5995496865174
 31
0.0
  0
LINE
  5
849
330
1F
100
AcDbEntity
  8
0
  6
CONTINUOUS
100
AcDbLine
 10
44.9998125733382
 20
275.6535030659106
 30
0.0
 11
44.99972363203233
 21
275.6535030659106
 31
0.0
  0
LWPOLYLINE
  5
84A
330
1F
100
AcDbEntity
  8
0
  6
CONTINUOUS
100
AcDbPolyline
 90
        3
 70
   128
 43
0.0
 10
44.99885703637619
 20
275.8977163340714
 10
44.99885750203723
 20
275.8867285903364
 10
44.99886029600543
 20
275.5995496865174
  0
LWPOLYLINE
  5
84B
330
1F
100
AcDbEntity
  8
0
  6
CONTINUOUS
100
AcDbPolyline
 90
        3
 70
   128
 43
0.0
 10
44.99867403149028
 20
275.5995496865174
 10
44.99867635979717
 20
275.8867285903364
 10
44.99867682545823
 20
275.8977163340714
  0
LINE
  5
84C
330
1F
100
AcDbEntity
  8
0
  6
CONTINUOUS
100
AcDbLine
 10
44.99932875126022
 20
275.5995496865174
 30
0.0
 11
44.99886029600543
 21
275.5995496865174
 31
0.0
  0
LWPOLYLINE
  5
84D
330
1F
100
AcDbEntity
  8
0
  6
CONTINUOUS
100
AcDbPolyline
 90
        9
 70
   128
 43
0.0
 10
44.99932875126022
 20
275.5995496865174
 10
44.99933946147052
 20
275.6800029184481
 10
44.99935110300225
 20
275.7406413312815
 10
44.99936367585744
 20
275.7803529258635
 10
44.99937624871154
 20
275.7984094079406
 10
44.99938882156627
 20
275.7944810893204
 10
44.99940092876022
 20
275.7686406131655
 10
44.9994130359532
 20
275.7213573660515
 10
44.99942467748518
 20
275.6535030659106
  0
LWPOLYLINE
  5
84E
330
1F
100
AcDbEntity
  8
0
  6
CONTINUOUS
100
AcDbPolyline
 90
        4
 70
   128
 43
0.0
 10
44.9994698466305
 20
275.8977163340714
 10
44.99947590022725
 20
275.8402742203144
 10
44.99948241948527
 20
275.7305253054764
 10
44.99948567911428
 20
275.5995496865174
  0
LWPOLYLINE
  5
84F
330
1F
100
AcDbEntity
  8
0
  6
CONTINUOUS
100
AcDbPolyline
 90
        4
 70
   128
 43
0.0
 10
44.99942467748518
 20
275.6535030659106
 10
44.99942933409829
 20
275.7777359094288
 10
44.99943678467935
 20
275.8752044047978
 10
44.9994395786464
 20
275.8977163340714
  0
LINE
  5
850
330
1F
100
AcDbEntity
  8
0
  6
CONTINUOUS
100
AcDbLine
 10
44.99948567911428
 20
275.5995496865174
 30
0.0
 11
44.99950197725934
 21
275.5995496865174
 31
0.0
  0
LWPOLYLINE
  5
851
330
1F
100
AcDbEntity
  8
0
  6
CONTINUOUS
100
AcDbPolyline
 90
        5
 70
   128
 43
0.0
 10
44.9995317795815
 20
275.8977163340714
 10
44.99953364222731
 20
275.8749902006055
 10
44.99953783317821
 20
275.7926072683003
 10
44.99953923016232
 20
275.6957869734435
 10
44.99953783317821
 20
275.5995496865174
  0
LWPOLYLINE
  5
852
330
1F
100
AcDbEntity
  8
0
  6
CONTINUOUS
100
AcDbPolyline
 90
        5
 70
   128
 43
0.0
 10
44.99950197725934
 20
275.5995496865174
 10
44.99950058027548
 20
275.6957869734435
 10
44.99950197725934
 20
275.7926072683003
 10
44.99950616821116
 20
275.8749902006055
 10
44.99950803085631
 20
275.8977163340714
  0
LINE
  5
853
330
1F
100
AcDbEntity
  8
0
  6
CONTINUOUS
100
AcDbLine
 10
44.99955645963039
 20
275.5995496865174
 30
0.0
 11
44.99953783317821
 21
275.5995496865174
 31
0.0
  0
LWPOLYLINE
  5
854
330
1F
100
AcDbEntity
  8
0
  6
CONTINUOUS
100
AcDbPolyline
 90
        5
 70
   128
 43
0.0
 10
44.99958579629129
 20
275.8977163340714
 10
44.99958812459725
 20
275.8749902006055
 10
44.99959231554931
 20
275.7926072683003
 10
44.99959371253337
 20
275.6957869734435
 10
44.99959184988735
 20
275.5995496865174
  0
LWPOLYLINE
  5
855
330
1F
100
AcDbEntity
  8
0
  6
CONTINUOUS
100
AcDbPolyline
 90
        5
 70
   128
 43
0.0
 10
44.99955645963039
 20
275.5995496865174
 10
44.99955459698434
 20
275.6957869734435
 10
44.99955599396844
 20
275.7926072683003
 10
44.99956018492047
 20
275.8749902006055
 10
44.99956251322625
 20
275.8977163340714
  0
LINE
  5
856
330
1F
100
AcDbEntity
  8
0
  6
CONTINUOUS
100
AcDbLine
 10
44.99961094200034
 20
275.5995496865174
 30
0.0
 11
44.99959184988735
 21
275.5995496865174
 31
0.0
  0
LWPOLYLINE
  5
857
330
1F
100
AcDbEntity
  8
0
  6
CONTINUOUS
100
AcDbPolyline
 90
        5
 70
   128
 43
0.0
 10
44.99964027866144
 20
275.8977163340714
 10
44.99964214130637
 20
275.8749902006055
 10
44.99964633225839
 20
275.7926072683003
 10
44.9996477292425
 20
275.6957869734435
 10
44.99964633225839
 20
275.5995496865174
  0
LWPOLYLINE
  5
858
330
1F
100
AcDbEntity
  8
0
  6
CONTINUOUS
100
AcDbPolyline
 90
        5
 70
   128
 43
0.0
 10
44.99961094200034
 20
275.5995496865174
 10
44.99960907935542
 20
275.6957869734435
 10
44.99961047633928
 20
275.7926072683003
 10
44.99961466729017
 20
275.8749902006055
 10
44.99961652993645
 20
275.8977163340714
  0
LINE
  5
859
330
1F
100
AcDbEntity
  8
0
  6
CONTINUOUS
100
AcDbLine
 10
44.99964633225839
 20
275.5995496865174
 30
0.0
 11
44.99966309606429
 21
275.5995496865174
 31
0.0
  0
LWPOLYLINE
  5
85A
330
1F
100
AcDbEntity
  8
0
  6
CONTINUOUS
100
AcDbPolyline
 90
        9
 70
   128
 43
0.0
 10
44.99966309606429
 20
275.5995496865174
 10
44.99966589003224
 20
275.7305253054764
 10
44.99967240929025
 20
275.8402742203144
 10
44.9996812568554
 20
275.9159255530503
 10
44.9996915014035
 20
275.9486037995484
 10
44.99970221161333
 20
275.9344774987366
 10
44.9997115248384
 20
275.8752044047978
 10
44.99971897541946
 20
275.7777359094288
 10
44.99972363203233
 20
275.6535030659106
  0
LWPOLYLINE
  5
85B
330
1F
100
AcDbEntity
  8
0
  6
CONTINUOUS
100
AcDbPolyline
 90
        9
 70
   128
 43
0.0
 10
44.99972363203233
 20
275.6535030659106
 10
44.99973527356428
 20
275.7213573660515
 10
44.99974738075729
 20
275.7686406131655
 10
44.99975948795122
 20
275.7944810893204
 10
44.9997720608064
 20
275.7984094079406
 10
44.99978463366026
 20
275.7803529258635
 10
44.99979720651549
 20
275.7406413312815
 10
44.99980884804744
 20
275.6800029184481
 10
44.99981955825728
 20
275.5995496865174
  0
LINE
  5
85C
330
1F
100
AcDbEntity
  8
0
  6
CONTINUOUS
100
AcDbLine
 10
45.00000116615932
 20
275.5995496865174
 30
0.0
 11
44.99981955825728
 21
275.5995496865174
 31
0.0
  0
LINE
  5
85D
330
1F
100
AcDbEntity
  8
0
  6
CONTINUOUS
100
AcDbLine
 10
45.00000116615932
 20
276.1477168407103
 30
0.0
 11
45.00000116615932
 21
275.5995496865174
 31
0.0
  0
LINE
  5
85E
330
1F
100
AcDbEntity
  8
0
  6
CONTINUOUS
100
AcDbLine
 10
45.00000116615932
 20
275.5995496865174
 30
0.0
 11
46.00007555470527
 21
275.5995496865174
 31
0.0
  0
LINE
  5
85F
330
1F
100
AcDbEntity
  8
0
  6
CONTINUOUS
100
AcDbLine
 10
44.29832852288927
 20
275.4989459185373
 30
0.0
 11
44.29841398462142
 21
275.8977163340714
 31
0.0
  0
LINE
  5
860
330
1F
100
AcDbEntity
  8
0
  6
CONTINUOUS
100
AcDbLine
 10
44.99842210873429
 20
275.4989459185373
 30
0.0
 11
44.99842210873429
 21
275.5811448897984
 31
0.0
  0
LINE
  5
861
330
1F
100
AcDbEntity
  8
0
  6
CONTINUOUS
100
AcDbLine
 10
44.99842210873429
 20
275.5811448897984
 30
0.0
 11
44.9984332846052
 21
275.6637252624896
 31
0.0
  0
LINE
  5
862
330
1F
100
AcDbEntity
  8
0
  6
CONTINUOUS
100
AcDbLine
 10
44.99842210873429
 20
275.5811448897984
 30
0.0
 11
44.74842206775631
 21
275.5811448897984
 31
0.0
  0
LINE
  5
863
330
1F
100
AcDbEntity
  8
0
  6
CONTINUOUS
100
AcDbLine
 10
44.9984332846052
 20
275.6637252624896
 30
0.0
 11
44.99843375026626
 21
275.8977163340714
 31
0.0
  0
LINE
  5
864
330
1F
100
AcDbEntity
  8
0
  6
CONTINUOUS
100
AcDbLine
 10
44.9984332846052
 20
275.6637252624896
 30
0.0
 11
44.74843324362629
 21
275.6637252624896
 31
0.0
  0
LINE
  5
865
330
1F
100
AcDbEntity
  8
0
  6
CONTINUOUS
100
AcDbLine
 10
44.74842206775631
 20
275.4989459185373
 30
0.0
 11
44.74842206775631
 21
275.5811448897984
 31
0.0
  0
LINE
  5
866
330
1F
100
AcDbEntity
  8
0
  6
CONTINUOUS
100
AcDbLine
 10
44.74842206775631
 20
275.5811448897984
 30
0.0
 11
44.74843324362629
 21
275.6637252624896
 31
0.0
  0
LINE
  5
867
330
1F
100
AcDbEntity
  8
0
  6
CONTINUOUS
100
AcDbLine
 10
44.74843324362629
 20
275.6637252624896
 30
0.0
 11
44.74843370928829
 21
275.8977163340714
 31
0.0
  0
LINE
  5
868
330
1F
100
AcDbEntity
  8
0
  6
CONTINUOUS
100
AcDbLine
 10
42.15023231893247
 20
291.6607543758392
 30
0.0
 11
42.28140630959956
 21
290.6424048580041
 31
0.0
  0
LINE
  5
869
330
1F
100
AcDbEntity
  8
0
  6
CONTINUOUS
100
AcDbLine
 10
44.9965473563916
 20
290.8977171629483
 30
0.0
 11
44.9965473563916
 21
292.9744354206886
 31
0.0
  0
LINE
  5
86A
330
1F
100
AcDbEntity
  8
0
  6
CONTINUOUS
100
AcDbLine
 10
45.00000116615932
 20
293.2244354616662
 30
0.0
 11
45.00000116615932
 21
290.6477172383856
 31
0.0
  0
LINE
  5
86B
330
1F
100
AcDbEntity
  8
0
  6
CONTINUOUS
100
AcDbLine
 10
44.85390738784756
 20
291.7101590448101
 30
0.0
 11
44.85390738784756
 21
290.8977171629483
 31
0.0
  0
LINE
  5
86C
330
1F
100
AcDbEntity
  8
0
  6
CONTINUOUS
100
AcDbLine
 10
43.5040456542315
 20
290.8977171629483
 30
0.0
 11
43.5040456542315
 21
291.7101590448101
 31
0.0
  0
LINE
  5
86D
330
1F
100
AcDbEntity
  8
0
  6
CONTINUOUS
100
AcDbLine
 10
42.24939582138723
 20
290.8977171629483
 30
0.0
 11
42.24939582138723
 21
290.8909147828635
 31
0.0
  0
LINE
  5
86E
330
1F
100
AcDbEntity
  8
0
  6
CONTINUOUS
100
AcDbLine
 10
44.99966402738732
 20
290.8977171629483
 30
0.0
 11
44.72728104531234
 21
290.8977171629483
 31
0.0
  0
LINE
  5
86F
330
1F
100
AcDbEntity
  8
0
  6
CONTINUOUS
100
AcDbLine
 10
44.47791244103927
 20
290.8977171629483
 30
0.0
 11
44.72728104531234
 21
290.8977171629483
 31
0.0
  0
LINE
  5
870
330
1F
100
AcDbEntity
  8
0
  6
CONTINUOUS
100
AcDbLine
 10
44.72728104531234
 20
290.8977171629483
 30
0.0
 11
44.72728104531234
 21
290.6477172383856
 31
0.0
  0
LINE
  5
871
330
1F
100
AcDbEntity
  8
0
  6
CONTINUOUS
100
AcDbLine
 10
42.24939582138723
 20
290.8977171629483
 30
0.0
 11
42.24851944684428
 21
290.8977171629483
 31
0.0
  0
LINE
  5
872
330
1F
100
AcDbEntity
  8
0
  6
CONTINUOUS
100
AcDbLine
 10
45.20171120032114
 20
288.7677172422226
 30
0.0
 11
45.57559204488415
 21
288.7677172422226
 31
0.0
  0
LINE
  5
873
330
1F
100
AcDbEntity
  8
0
  6
CONTINUOUS
100
AcDbLine
 10
45.20171120032114
 20
290.0677172457611
 30
0.0
 11
45.57559204488415
 21
290.0677172457611
 31
0.0
  0
LINE
  5
874
330
1F
100
AcDbEntity
  8
0
  6
CONTINUOUS
100
AcDbLine
 10
45.57559204488415
 20
290.0677172457611
 30
0.0
 11
45.57559204488415
 21
288.7677172422226
 31
0.0
  0
LINE
  5
875
330
1F
100
AcDbEntity
  8
0
  6
CONTINUOUS
100
AcDbLine
 10
45.0002703183834
 20
288.7677172422226
 30
0.0
 11
45.20171120032114
 21
288.7677172422226
 31
0.0
  0
LINE
  5
876
330
1F
100
AcDbEntity
  8
0
  6
CONTINUOUS
100
AcDbLine
 10
45.0002703183834
 20
290.0677172457611
 30
0.0
 11
45.20171120032114
 21
290.0677172457611
 31
0.0
  0
LINE
  5
877
330
1F
100
AcDbEntity
  8
0
  6
CONTINUOUS
100
AcDbLine
 10
45.20171120032114
 20
288.7677172422226
 30
0.0
 11
45.20171120032114
 21
290.0677172457611
 31
0.0
  0
LINE
  5
878
330
1F
100
AcDbEntity
  8
0
  6
CONTINUOUS
100
AcDbLine
 10
42.49211152284738
 20
290.8977171629483
 30
0.0
 11
42.24939582138723
 21
290.8977171629483
 31
0.0
  0
ELLIPSE
  5
879
330
1F
100
AcDbEntity
  8
0
  6
CONTINUOUS
100
AcDbEllipse
 10
42.47898991080638
 20
290.3977172069508
 30
0.0
 11
0.0
 21
0.25
 31
0.0
210
0.0
220
0.0
230
1.0
 40
0.0524853924317768
 41
4.71238898038469
 42
6.283185307179584
  0
LINE
  5
87A
330
1F
100
AcDbEntity
  8
0
  6
CONTINUOUS
100
AcDbLine
 10
42.47899011909452
 20
290.6477172383856
 30
0.0
 11
42.28072178750632
 21
290.6477172383856
 31
0.0
  0
LINE
  5
87B
330
1F
100
AcDbEntity
  8
0
  6
CONTINUOUS
100
AcDbLine
 10
43.43536759927338
 20
289.6704421602003
 30
0.0
 11
43.27690539150832
 21
289.5120577178717
 31
0.0
  0
LINE
  5
87C
330
1F
100
AcDbEntity
  8
0
  6
CONTINUOUS
100
AcDbLine
 10
42.49211152284738
 20
290.8977171629483
 30
0.0
 11
44.47791244103927
 21
290.8977171629483
 31
0.0
  0
LINE
  5
87D
330
1F
100
AcDbEntity
  8
0
  6
CONTINUOUS
100
AcDbLine
 10
44.47791244103927
 20
290.8977171629483
 30
0.0
 11
44.47791244103927
 21
290.6477172383856
 31
0.0
  0
LINE
  5
87E
330
1F
100
AcDbEntity
  8
0
  6
CONTINUOUS
100
AcDbLine
 10
42.49211152284738
 20
290.8977171629483
 30
0.0
 11
42.49211152284738
 21
290.3977171974073
 31
0.0
  0
LINE
  5
87F
330
1F
100
AcDbEntity
  8
0
  6
CONTINUOUS
100
AcDbLine
 10
45.00029546409314
 20
290.6477172383856
 30
0.0
 11
44.47791244103927
 21
290.6477172383856
 31
0.0
  0
LINE
  5
880
330
1F
100
AcDbEntity
  8
0
  6
CONTINUOUS
100
AcDbLine
 10
45.57559204488415
 20
295.1044353414145
 30
0.0
 11
45.57559204488415
 21
293.8044354542903
 31
0.0
  0
LINE
  5
881
330
1F
100
AcDbEntity
  8
0
  6
CONTINUOUS
100
AcDbLine
 10
45.20171120032114
 20
293.8044354542903
 30
0.0
 11
45.20171120032114
 21
295.1044353414145
 31
0.0
  0
LINE
  5
882
330
1F
100
AcDbEntity
  8
0
  6
CONTINUOUS
100
AcDbLine
 10
42.24939582138723
 20
292.9744354206886
 30
0.0
 11
42.24939582138723
 21
292.9812378007736
 31
0.0
  0
ELLIPSE
  5
883
330
1F
100
AcDbEntity
  8
0
  6
CONTINUOUS
100
AcDbEllipse
 10
42.1403297862962
 20
291.1977172069514
 30
0.0
 11
0.0
 21
0.5
 31
0.0
210
0.0
220
0.0
230
1.0
 40
0.0524853924318336
 41
5.896261866244925
 42
6.283185307179584
  0
LINE
  5
884
330
1F
100
AcDbEntity
  8
0
  6
CONTINUOUS
100
AcDbLine
 10
44.72728104531234
 20
292.9744354206886
 30
0.0
 11
44.99966402738732
 21
292.9744354206886
 31
0.0
  0
LINE
  5
885
330
1F
100
AcDbEntity
  8
0
  6
CONTINUOUS
100
AcDbLine
 10
44.47791244103927
 20
292.9744354206886
 30
0.0
 11
44.72728104531234
 21
292.9744354206886
 31
0.0
  0
LINE
  5
886
330
1F
100
AcDbEntity
  8
0
  6
CONTINUOUS
100
AcDbLine
 10
44.72728104531234
 20
293.2244354616662
 30
0.0
 11
44.72728104531234
 21
292.9744354206886
 31
0.0
  0
LINE
  5
887
330
1F
100
AcDbEntity
  8
0
  6
CONTINUOUS
100
AcDbLine
 10
42.24851944684428
 20
292.9744354206886
 30
0.0
 11
42.24939582138723
 21
292.9744354206886
 31
0.0
  0
ELLIPSE
  5
888
330
1F
100
AcDbEntity
  8
0
  6
CONTINUOUS
100
AcDbEllipse
 10
42.1403297862962
 20
292.6744354296646
 30
0.0
 11
0.0
 21
0.5
 31
0.0
210
0.0
220
0.0
230
1.0
 40
0.0524853924318336
 41
3.14159265358979
 42
3.528516094524923
  0
LINE
  5
889
330
1F
100
AcDbEntity
  8
0
  6
CONTINUOUS
100
AcDbLine
 10
45.57559204488415
 20
293.8044354542903
 30
0.0
 11
45.20171120032114
 21
293.8044354542903
 31
0.0
  0
LINE
  5
88A
330
1F
100
AcDbEntity
  8
0
  6
CONTINUOUS
100
AcDbLine
 10
45.20171120032114
 20
293.8044354542903
 30
0.0
 11
45.0002703183834
 21
293.8044354542903
 31
0.0
  0
LINE
  5
88B
330
1F
100
AcDbEntity
  8
0
  6
CONTINUOUS
100
AcDbLine
 10
42.28140630959956
 20
293.2297477256323
 30
0.0
 11
42.15023231893247
 21
292.2113982660048
 31
0.0
  0
LINE
  5
88C
330
1F
100
AcDbEntity
  8
0
  6
CONTINUOUS
100
AcDbLine
 10
42.24939582138723
 20
292.9744354206886
 30
0.0
 11
42.49211152284738
 21
292.9744354206886
 31
0.0
  0
LINE
  5
88D
330
1F
100
AcDbEntity
  8
0
  6
CONTINUOUS
100
AcDbLine
 10
42.28072178750632
 20
293.2244354616662
 30
0.0
 11
42.47899011909452
 21
293.2244354616662
 31
0.0
  0
ELLIPSE
  5
88E
330
1F
100
AcDbEntity
  8
0
  6
CONTINUOUS
100
AcDbEllipse
 10
42.47898991080638
 20
293.4744354296643
 30
0.0
 11
0.0
 21
0.25
 31
0.0
210
0.0
220
0.0
230
1.0
 40
0.0524853924318904
 41
3.14159265358979
 42
4.71238898038469
  0
LINE
  5
88F
330
1F
100
AcDbEntity
  8
0
  6
CONTINUOUS
100
AcDbLine
 10
43.43536759927338
 20
294.2017104234364
 30
0.0
 11
43.27690539150832
 21
294.3600948657658
 31
0.0
  0
LINE
  5
890
330
1F
100
AcDbEntity
  8
0
  6
CONTINUOUS
100
AcDbLine
 10
44.47791244103927
 20
292.9744354206886
 30
0.0
 11
42.49211152284738
 21
292.9744354206886
 31
0.0
  0
LINE
  5
891
330
1F
100
AcDbEntity
  8
0
  6
CONTINUOUS
100
AcDbLine
 10
42.49211152284738
 20
293.4744353862297
 30
0.0
 11
42.49211152284738
 21
292.9744354206886
 31
0.0
  0
LINE
  5
892
330
1F
100
AcDbEntity
  8
0
  6
CONTINUOUS
100
AcDbLine
 10
44.47791244103927
 20
292.9744354206886
 30
0.0
 11
44.47791244103927
 21
293.2244354616662
 31
0.0
  0
LINE
  5
893
330
1F
100
AcDbEntity
  8
0
  6
CONTINUOUS
100
AcDbLine
 10
45.00029546409314
 20
293.2244354616662
 30
0.0
 11
44.47791244103927
 21
293.2244354616662
 31
0.0
  0
LINE
  5
894
330
1F
100
AcDbEntity
  8
0
  6
CONTINUOUS
100
AcDbLine
 10
44.85390971615356
 20
292.9482420896923
 30
0.0
 11
44.85390971615356
 21
292.0832420515171
 31
0.0
  0
LINE
  5
895
330
1F
100
AcDbEntity
  8
0
  6
CONTINUOUS
100
AcDbLine
 10
43.50404751687729
 20
292.9482420896923
 30
0.0
 11
44.85390971615356
 21
292.9482420896923
 31
0.0
  0
LINE
  5
896
330
1F
100
AcDbEntity
  8
0
  6
CONTINUOUS
100
AcDbLine
 10
43.50404751687729
 20
292.0832420515171
 30
0.0
 11
44.85390971615356
 21
292.0832420515171
 31
0.0
  0
LINE
  5
897
330
1F
100
AcDbEntity
  8
0
  6
CONTINUOUS
100
AcDbLine
 10
43.50404751687729
 20
292.0832420515171
 30
0.0
 11
43.50404751687729
 21
292.9744354206886
 31
0.0
  0
LINE
  5
898
330
1F
100
AcDbEntity
  8
0
  6
CONTINUOUS
100
AcDbLine
 10
43.5040456542315
 20
291.7101590448101
 30
0.0
 11
44.85390738784756
 21
291.7101590448101
 31
0.0
  0
LINE
  5
899
330
1F
100
AcDbEntity
  8
0
  6
CONTINUOUS
100
AcDbLine
 10
45.57559204488415
 20
295.1044353414145
 30
0.0
 11
45.20171120032114
 21
295.1044353414145
 31
0.0
  0
LINE
  5
89A
330
1F
100
AcDbEntity
  8
0
  6
CONTINUOUS
100
AcDbLine
 10
45.20171120032114
 20
295.1044353414145
 30
0.0
 11
45.0002703183834
 21
295.1044353414145
 31
0.0
  0
LINE
  5
89B
330
1F
100
AcDbEntity
  8
0
  6
CONTINUOUS
100
AcDbLine
 10
33.49920951961939
 20
289.0829322151656
 30
0.0
 11
33.49920951961939
 21
277.7125026788376
 31
0.0
  0
LINE
  5
89C
330
1F
100
AcDbEntity
  8
0
  6
CONTINUOUS
100
AcDbLine
 10
33.96968760728237
 20
285.5595337915983
 30
0.0
 11
33.96968760728237
 21
281.2359008695743
 31
0.0
  0
LINE
  5
89D
330
1F
100
AcDbEntity
  8
0
  6
CONTINUOUS
100
AcDbLine
 10
33.50025632619348
 20
289.0829322151656
 30
0.0
 11
33.50025632619348
 21
277.7125026788376
 31
0.0
  0
LINE
  5
89E
330
1F
100
AcDbEntity
  8
0
  6
CONTINUOUS
100
AcDbLine
 10
33.81689855098125
 20
281.0830354448226
 30
0.0
 11
33.81689855098125
 21
285.7123992163506
 31
0.0
  0
LINE
  5
89F
330
1F
100
AcDbEntity
  8
0
  6
CONTINUOUS
100
AcDbLine
 10
35.75799924522061
 20
279.1506603117845
 30
0.0
 11
35.91630545645443
 21
279.3090447541146
 31
0.0
  0
LINE
  5
8A0
330
1F
100
AcDbEntity
  8
0
  6
CONTINUOUS
100
AcDbLine
 10
35.75799924522061
 20
279.9115210529233
 30
0.0
 11
35.91630545645443
 21
280.0699054952529
 31
0.0
  0
LINE
  5
8A1
330
1F
100
AcDbEntity
  8
0
  6
CONTINUOUS
100
AcDbLine
 10
35.91630545645443
 20
280.0699054952529
 30
0.0
 11
34.4242289030492
 21
280.0699054952529
 31
0.0
  0
LINE
  5
8A2
330
1F
100
AcDbEntity
  8
0
  6
CONTINUOUS
100
AcDbLine
 10
36.23998661726114
 20
275.8977163340714
 30
0.0
 11
34.00029645502036
 21
275.8977163340714
 31
0.0
  0
LINE
  5
8A3
330
1F
100
AcDbEntity
  8
0
  6
CONTINUOUS
100
AcDbLine
 10
35.82321976512139
 20
276.8413034956715
 30
0.0
 11
34.46728394567435
 21
276.8413034956715
 31
0.0
  0
LINE
  5
8A4
330
1F
100
AcDbEntity
  8
0
  6
CONTINUOUS
100
AcDbLine
 10
34.46728394567435
 20
278.6815019082096
 30
0.0
 11
35.82321976512139
 21
278.6815019082096
 31
0.0
  0
LINE
  5
8A5
330
1F
100
AcDbEntity
  8
0
  6
CONTINUOUS
100
AcDbLine
 10
35.75799924522061
 20
279.1506603117845
 30
0.0
 11
36.33111466854234
 21
279.1506603117845
 31
0.0
  0
LINE
  5
8A6
330
1F
100
AcDbEntity
  8
0
  6
CONTINUOUS
100
AcDbLine
 10
36.48942181109828
 20
279.3090447541146
 30
0.0
 11
36.48942181109828
 21
277.2833762448091
 31
0.0
  0
LINE
  5
8A7
330
1F
100
AcDbEntity
  8
0
  6
CONTINUOUS
100
AcDbLine
 10
36.33111466854234
 20
279.1506603117845
 30
0.0
 11
36.33111466854234
 21
277.1249918024805
 31
0.0
  0
LINE
  5
8A8
330
1F
100
AcDbEntity
  8
0
  6
CONTINUOUS
100
AcDbLine
 10
36.48198520034042
 20
275.8977163340714
 30
0.0
 11
36.48198520034042
 21
275.9892970081235
 31
0.0
  0
LINE
  5
8A9
330
1F
100
AcDbEntity
  8
0
  6
CONTINUOUS
100
AcDbLine
 10
36.48198520034042
 20
275.8977163340714
 30
0.0
 11
36.49605469047446
 21
275.8977163340714
 31
0.0
  0
LINE
  5
8AA
330
1F
100
AcDbEntity
  8
0
  6
CONTINUOUS
100
AcDbLine
 10
40.73731725970946
 20
275.4989459185373
 30
0.0
 11
40.63683034121459
 21
276.1530291046765
 31
0.0
  0
LINE
  5
8AB
330
1F
100
AcDbEntity
  8
0
  6
CONTINUOUS
100
AcDbLine
 10
38.10140614598434
 20
276.1530291046765
 30
0.0
 11
38.01715340462942
 21
275.4989459185373
 31
0.0
  0
LINE
  5
8AC
330
1F
100
AcDbEntity
  8
0
  6
CONTINUOUS
100
AcDbLine
 10
36.55731709609425
 20
275.4989459185373
 30
0.0
 11
36.45683017759938
 21
276.1530291046765
 31
0.0
  0
LINE
  5
8AD
330
1F
100
AcDbEntity
  8
0
  6
CONTINUOUS
100
AcDbLine
 10
40.43964700042624
 20
276.1477168407103
 30
0.0
 11
40.6376471111123
 21
276.1477168407103
 31
0.0
  0
LINE
  5
8AE
330
1F
100
AcDbEntity
  8
0
  6
CONTINUOUS
100
AcDbLine
 10
40.42399705588239
 20
275.8977163340714
 30
0.0
 11
40.67605392276639
 21
275.8977163340714
 31
0.0
  0
ELLIPSE
  5
8AF
330
1F
100
AcDbEntity
  8
0
  6
CONTINUOUS
100
AcDbEllipse
 10
40.43964715421657
 20
276.3977172069516
 30
0.0
 11
0.0
 21
0.25
 31
0.0
210
0.0
220
0.0
230
1.0
 40
0.0625986046035223
 41
1.570796326794896
 42
3.141592653587975
  0
LINE
  5
8B0
330
1F
100
AcDbEntity
  8
0
  6
CONTINUOUS
100
AcDbLine
 10
38.06851928322931
 20
275.8977163340714
 30
0.0
 11
38.30810108422634
 21
275.8977163340714
 31
0.0
  0
LINE
  5
8B1
330
1F
100
AcDbEntity
  8
0
  6
CONTINUOUS
100
AcDbLine
 10
38.10140614598434
 20
276.1530291046765
 30
0.0
 11
36.45683017759938
 21
276.1530291046765
 31
0.0
  0
LINE
  5
8B2
330
1F
100
AcDbEntity
  8
0
  6
CONTINUOUS
100
AcDbLine
 10
38.29241202413435
 20
276.1477168407103
 30
0.0
 11
38.10072162389246
 21
276.1477168407103
 31
0.0
  0
ELLIPSE
  5
8B3
330
1F
100
AcDbEntity
  8
0
  6
CONTINUOUS
100
AcDbEllipse
 10
38.29241219858317
 20
276.3977172069516
 30
0.0
 11
0.0
 21
0.25
 31
0.0
210
0.0
220
0.0
230
1.0
 40
0.0627538312166962
 41
3.14159265358979
 42
4.71238898038469
  0
LINE
  5
8B4
330
1F
100
AcDbEntity
  8
0
  6
CONTINUOUS
100
AcDbLine
 10
36.45764694749755
 20
276.1477168407103
 30
0.0
 11
36.25306983678934
 21
276.1477168407103
 31
0.0
  0
LINE
  5
8B5
330
1F
100
AcDbEntity
  8
0
  6
CONTINUOUS
100
AcDbLine
 10
35.8230642342512
 20
276.8413034956715
 30
0.0
 11
35.8230642342512
 21
278.6815019082096
 31
0.0
  0
LINE
  5
8B6
330
1F
100
AcDbEntity
  8
0
  6
CONTINUOUS
100
AcDbLine
 10
36.33111466854234
 20
277.1249918024805
 30
0.0
 11
36.48942181109828
 21
277.2833762448091
 31
0.0
  0
LINE
  5
8B7
330
1F
100
AcDbEntity
  8
0
  6
CONTINUOUS
100
AcDbLine
 10
36.23998661726114
 20
275.8977163340714
 30
0.0
 11
36.48198520034042
 21
275.8977163340714
 31
0.0
  0
ELLIPSE
  5
8B8
330
1F
100
AcDbEntity
  8
0
  6
CONTINUOUS
100
AcDbEllipse
 10
36.25306944199246
 20
276.3977172069516
 30
0.0
 11
0.0
 21
0.25
 31
0.0
210
0.0
220
0.0
230
1.0
 40
0.0523301658186028
 41
1.570796326794896
 42
3.14159265358979
  0
LINE
  5
8B9
330
1F
100
AcDbEntity
  8
0
  6
CONTINUOUS
100
AcDbLine
 10
40.42399705588239
 20
275.8977163340714
 30
0.0
 11
38.30810108422634
 21
275.8977163340714
 31
0.0
  0
LINE
  5
8BA
330
1F
100
AcDbEntity
  8
0
  6
CONTINUOUS
100
AcDbLine
 10
35.82321976512139
 20
276.8413034956715
 30
0.0
 11
35.82321976512139
 21
278.6815019082096
 31
0.0
  0
LINE
  5
8BB
330
1F
100
AcDbEntity
  8
0
  6
CONTINUOUS
100
AcDbLine
 10
36.23998661726114
 20
275.8977163340714
 30
0.0
 11
36.23998661726114
 21
276.3977173473504
 31
0.0
  0
LINE
  5
8BC
330
1F
100
AcDbEntity
  8
0
  6
CONTINUOUS
100
AcDbLine
 10
38.30810108422634
 20
276.3977173473504
 30
0.0
 11
36.23998661726114
 21
276.3977173473504
 31
0.0
  0
LINE
  5
8BD
330
1F
100
AcDbEntity
  8
0
  6
CONTINUOUS
100
AcDbLine
 10
38.30810108422634
 20
276.3977173473504
 30
0.0
 11
38.30810108422634
 21
275.8977163340714
 31
0.0
  0
LINE
  5
8BE
330
1F
100
AcDbEntity
  8
0
  6
CONTINUOUS
100
AcDbLine
 10
40.42399705588239
 20
275.8977163340714
 30
0.0
 11
40.42399705588239
 21
276.3977173473504
 31
0.0
  0
LINE
  5
8BF
330
1F
100
AcDbEntity
  8
0
  6
CONTINUOUS
100
AcDbLine
 10
35.91630545645443
 20
279.3090447541146
 30
0.0
 11
35.91630545645443
 21
280.0699054952529
 31
0.0
  0
LINE
  5
8C0
330
1F
100
AcDbEntity
  8
0
  6
CONTINUOUS
100
AcDbLine
 10
36.33111466854234
 20
279.1506603117845
 30
0.0
 11
36.48942181109828
 21
279.3090447541146
 31
0.0
  0
LINE
  5
8C1
330
1F
100
AcDbEntity
  8
0
  6
CONTINUOUS
100
AcDbLine
 10
36.48942181109828
 20
279.3090447541146
 30
0.0
 11
35.91630545645443
 21
279.3090447541146
 31
0.0
  0
LINE
  5
8C2
330
1F
100
AcDbEntity
  8
0
  6
CONTINUOUS
100
AcDbLine
 10
34.00029645502036
 20
275.8977163340714
 30
0.0
 11
34.00029645502036
 21
281.0775164272458
 31
0.0
  0
LINE
  5
8C3
330
1F
100
AcDbEntity
  8
0
  6
CONTINUOUS
100
AcDbLine
 10
33.70856897174735
 20
275.8977163340714
 30
0.0
 11
33.49984840690535
 21
275.8977163340714
 31
0.0
  0
LINE
  5
8C4
330
1F
100
AcDbEntity
  8
0
  6
CONTINUOUS
100
AcDbLine
 10
32.68515535830943
 20
276.4125020932228
 30
0.0
 11
32.68504918753524
 21
276.4125020932228
 31
0.0
  0
LINE
  5
8C5
330
1F
100
AcDbEntity
  8
0
  6
CONTINUOUS
100
AcDbLine
 10
32.68515535830943
 20
277.7125026788376
 30
0.0
 11
32.68504918753524
 21
277.7125026788376
 31
0.0
  0
LINE
  5
8C6
330
1F
100
AcDbEntity
  8
0
  6
CONTINUOUS
100
AcDbLine
 10
32.68504918753524
 20
277.7125026788376
 30
0.0
 11
32.68504918753524
 21
276.4125020932228
 31
0.0
  0
LINE
  5
8C7
330
1F
100
AcDbEntity
  8
0
  6
CONTINUOUS
100
AcDbLine
 10
32.71240958213228
 20
276.4125020932228
 30
0.0
 11
32.68515535830943
 21
276.4125020932228
 31
0.0
  0
LINE
  5
8C8
330
1F
100
AcDbEntity
  8
0
  6
CONTINUOUS
100
AcDbLine
 10
32.71240958213228
 20
277.7125026788376
 30
0.0
 11
32.68515535830943
 21
277.7125026788376
 31
0.0
  0
LINE
  5
8C9
330
1F
100
AcDbEntity
  8
0
  6
CONTINUOUS
100
AcDbLine
 10
32.68515535830943
 20
277.7125026788376
 30
0.0
 11
32.68515535830943
 21
276.4125020932228
 31
0.0
  0
LINE
  5
8CA
330
1F
100
AcDbEntity
  8
0
  6
CONTINUOUS
100
AcDbLine
 10
33.50025632619348
 20
276.1477168407103
 30
0.0
 11
33.49984840690535
 21
276.1477168407103
 31
0.0
  0
LINE
  5
8CB
330
1F
100
AcDbEntity
  8
0
  6
CONTINUOUS
100
AcDbLine
 10
33.49920951961939
 20
276.1477168407103
 30
0.0
 11
33.49922814607042
 21
276.1477168407103
 31
0.0
  0
LINE
  5
8CC
330
1F
100
AcDbEntity
  8
0
  6
CONTINUOUS
100
AcDbLine
 10
33.49920951961939
 20
276.4125020932228
 30
0.0
 11
33.49920951961939
 21
276.1477168407103
 31
0.0
  0
LINE
  5
8CD
330
1F
100
AcDbEntity
  8
0
  6
CONTINUOUS
100
AcDbLine
 10
33.49922814607042
 20
276.1477168407103
 30
0.0
 11
33.49922814607042
 21
275.8977163340714
 31
0.0
  0
LINE
  5
8CE
330
1F
100
AcDbEntity
  8
0
  6
CONTINUOUS
100
AcDbLine
 10
33.49922814607042
 20
275.8977163340714
 30
0.0
 11
33.49984840690535
 21
275.8977163340714
 31
0.0
  0
LINE
  5
8CF
330
1F
100
AcDbEntity
  8
0
  6
CONTINUOUS
100
AcDbLine
 10
33.49984840690535
 20
275.8977163340714
 30
0.0
 11
33.49984840690535
 21
276.1477168407103
 31
0.0
  0
LINE
  5
8D0
330
1F
100
AcDbEntity
  8
0
  6
CONTINUOUS
100
AcDbLine
 10
33.50483284532423
 20
276.4125020932228
 30
0.0
 11
32.71240958213228
 21
276.4125020932228
 31
0.0
  0
LINE
  5
8D1
330
1F
100
AcDbEntity
  8
0
  6
CONTINUOUS
100
AcDbLine
 10
33.50483284532423
 20
277.7125026788376
 30
0.0
 11
32.71240958213228
 21
277.7125026788376
 31
0.0
  0
LINE
  5
8D2
330
1F
100
AcDbEntity
  8
0
  6
CONTINUOUS
100
AcDbLine
 10
32.71240958213228
 20
276.4125020932228
 30
0.0
 11
32.71240958213228
 21
277.7125026788376
 31
0.0
  0
LINE
  5
8D3
330
1F
100
AcDbEntity
  8
0
  6
CONTINUOUS
100
AcDbLine
 10
33.70856897174735
 20
275.8977163340714
 30
0.0
 11
33.70899179219644
 21
275.8977163340714
 31
0.0
  0
LINE
  5
8D4
330
1F
100
AcDbEntity
  8
0
  6
CONTINUOUS
100
AcDbLine
 10
33.70856897174735
 20
275.8977163340714
 30
0.0
 11
33.70856897174735
 21
276.1477168407103
 31
0.0
  0
LINE
  5
8D5
330
1F
100
AcDbEntity
  8
0
  6
CONTINUOUS
100
AcDbLine
 10
34.56728377580132
 20
278.5815020780824
 30
0.0
 11
35.72321993499439
 21
278.5815020780824
 31
0.0
  0
LINE
  5
8D6
330
1F
100
AcDbEntity
  8
0
  6
CONTINUOUS
100
AcDbLine
 10
35.72321993499439
 20
276.9413033257988
 30
0.0
 11
34.56728377580132
 21
276.9413033257988
 31
0.0
  0
LINE
  5
8D7
330
1F
100
AcDbEntity
  8
0
  6
CONTINUOUS
100
AcDbLine
 10
35.72321993499439
 20
278.5815020780824
 30
0.0
 11
35.72321993499439
 21
276.9413033257988
 31
0.0
  0
LINE
  5
8D8
330
1F
100
AcDbEntity
  8
0
  6
CONTINUOUS
100
AcDbLine
 10
34.56712731360835
 20
278.5815020780824
 30
0.0
 11
34.56712731360835
 21
276.9413033257988
 31
0.0
  0
LINE
  5
8D9
330
1F
100
AcDbEntity
  8
0
  6
CONTINUOUS
100
AcDbLine
 10
34.56728377580132
 20
276.9413033257988
 30
0.0
 11
34.56712731360835
 21
276.9413033257988
 31
0.0
  0
LINE
  5
8DA
330
1F
100
AcDbEntity
  8
0
  6
CONTINUOUS
100
AcDbLine
 10
34.56728377580132
 20
276.9413033257988
 30
0.0
 11
34.56728377580132
 21
278.5815020780824
 31
0.0
  0
LINE
  5
8DB
330
1F
100
AcDbEntity
  8
0
  6
CONTINUOUS
100
AcDbLine
 10
34.56712731360835
 20
278.5815020780824
 30
0.0
 11
34.56728377580132
 21
278.5815020780824
 31
0.0
  0
LINE
  5
8DC
330
1F
100
AcDbEntity
  8
0
  6
CONTINUOUS
100
AcDbLine
 10
33.70899179219644
 20
275.8977163340714
 30
0.0
 11
34.00029645502036
 21
275.8977163340714
 31
0.0
  0
LINE
  5
8DD
330
1F
100
AcDbEntity
  8
0
  6
CONTINUOUS
100
AcDbLine
 10
33.50483284532423
 20
277.7125026788376
 30
0.0
 11
33.50483284532423
 21
276.4125020932228
 31
0.0
  0
LINE
  5
8DE
330
1F
100
AcDbEntity
  8
0
  6
CONTINUOUS
100
AcDbLine
 10
33.50025632619348
 20
276.4125020932228
 30
0.0
 11
33.50025632619348
 21
276.1477168407103
 31
0.0
  0
LINE
  5
8DF
330
1F
100
AcDbEntity
  8
0
  6
CONTINUOUS
100
AcDbLine
 10
33.70899179219644
 20
276.1477168407103
 30
0.0
 11
33.50025632619348
 21
276.1477168407103
 31
0.0
  0
LINE
  5
8E0
330
1F
100
AcDbEntity
  8
0
  6
CONTINUOUS
100
AcDbLine
 10
33.70899179219644
 20
276.1477168407103
 30
0.0
 11
33.70899179219644
 21
275.8977163340714
 31
0.0
  0
LINE
  5
8E1
330
1F
100
AcDbEntity
  8
0
  6
CONTINUOUS
100
AcDbLine
 10
34.46728394567435
 20
278.6815019082096
 30
0.0
 11
34.46728394567435
 21
276.8413034956715
 31
0.0
  0
LINE
  5
8E2
330
1F
100
AcDbEntity
  8
0
  6
CONTINUOUS
100
AcDbLine
 10
34.4242289030492
 20
280.0699054952529
 30
0.0
 11
34.4242289030492
 21
281.2359008695743
 31
0.0
  0
LINE
  5
8E3
330
1F
100
AcDbEntity
  8
0
  6
CONTINUOUS
100
AcDbLine
 10
34.26592082917135
 20
279.9115210529233
 30
0.0
 11
34.4242289030492
 21
280.0699054952529
 31
0.0
  0
LINE
  5
8E4
330
1F
100
AcDbEntity
  8
0
  6
CONTINUOUS
100
AcDbLine
 10
35.75799924522061
 20
279.9115210529233
 30
0.0
 11
35.75799924522061
 21
279.1506603117845
 31
0.0
  0
LINE
  5
8E5
330
1F
100
AcDbEntity
  8
0
  6
CONTINUOUS
100
AcDbLine
 10
34.26592082917135
 20
279.9115210529233
 30
0.0
 11
35.75799924522061
 21
279.9115210529233
 31
0.0
  0
LINE
  5
8E6
330
1F
100
AcDbEntity
  8
0
  6
CONTINUOUS
100
AcDbLine
 10
34.26592082917135
 20
281.0775164272458
 30
0.0
 11
34.26592082917135
 21
279.9115210529233
 31
0.0
  0
LINE
  5
8E7
330
1F
100
AcDbEntity
  8
0
  6
CONTINUOUS
100
AcDbLine
 10
34.26592082917135
 20
281.0775164272458
 30
0.0
 11
34.4242289030492
 21
281.2359008695743
 31
0.0
  0
LINE
  5
8E8
330
1F
100
AcDbEntity
  8
0
  6
CONTINUOUS
100
AcDbLine
 10
34.4242289030492
 20
281.2359008695743
 30
0.0
 11
33.96968760728237
 21
281.2359008695743
 31
0.0
  0
LINE
  5
8E9
330
1F
100
AcDbEntity
  8
0
  6
CONTINUOUS
100
AcDbLine
 10
33.81689855098125
 20
281.0830354448226
 30
0.0
 11
33.96968760728237
 21
281.2359008695743
 31
0.0
  0
ELLIPSE
  5
8EA
330
1F
100
AcDbEntity
  8
0
  6
CONTINUOUS
100
AcDbEllipse
 10
34.00025681529427
 20
281.1567082105307
 30
0.0
 11
-0.4999999999990055
 21
0.0000063045229695
 31
0.0
210
0.0
220
0.0
230
1.0
 40
0.1583844398229271
 41
1.195319426270372
 42
1.570875937178294
  0
LINE
  5
8EB
330
1F
100
AcDbEntity
  8
0
  6
CONTINUOUS
100
AcDbLine
 10
34.00029645502036
 20
281.0775164272458
 30
0.0
 11
34.26592082917135
 21
281.0775164272458
 31
0.0
  0
LINE
  5
8EC
330
1F
100
AcDbEntity
  8
0
  6
CONTINUOUS
100
AcDbLine
 10
40.63683034121459
 20
290.6424048580041
 30
0.0
 11
40.79327949523325
 21
291.6607543758392
 31
0.0
  0
LINE
  5
8ED
330
1F
100
AcDbEntity
  8
0
  6
CONTINUOUS
100
AcDbLine
 10
36.45683017759938
 20
290.6424048580041
 30
0.0
 11
36.61327933161938
 21
291.6607543758392
 31
0.0
  0
LINE
  5
8EE
330
1F
100
AcDbEntity
  8
0
  6
CONTINUOUS
100
AcDbLine
 10
37.97023215531726
 20
291.6607543758392
 30
0.0
 11
38.10140614598434
 21
290.6424048580041
 31
0.0
  0
LINE
  5
8EF
330
1F
100
AcDbEntity
  8
0
  6
CONTINUOUS
100
AcDbLine
 10
38.65404551118036
 20
290.8977171629483
 30
0.0
 11
38.65404551118036
 21
291.7101590448101
 31
0.0
  0
LINE
  5
8F0
330
1F
100
AcDbEntity
  8
0
  6
CONTINUOUS
100
AcDbLine
 10
38.65349323689361
 20
291.7101590448101
 30
0.0
 11
38.65349323689361
 21
290.8977171629483
 31
0.0
  0
LINE
  5
8F1
330
1F
100
AcDbEntity
  8
0
  6
CONTINUOUS
100
AcDbLine
 10
35.75799924522061
 20
287.6447738837263
 30
0.0
 11
35.91630545645443
 21
287.4863894413978
 31
0.0
  0
LINE
  5
8F2
330
1F
100
AcDbEntity
  8
0
  6
CONTINUOUS
100
AcDbLine
 10
34.4242289030492
 20
286.7255287002585
 30
0.0
 11
35.91630545645443
 21
286.7255287002585
 31
0.0
  0
LINE
  5
8F3
330
1F
100
AcDbEntity
  8
0
  6
CONTINUOUS
100
AcDbLine
 10
35.75799924522061
 20
286.8839131425882
 30
0.0
 11
35.91630545645443
 21
286.7255287002585
 31
0.0
  0
LINE
  5
8F4
330
1F
100
AcDbEntity
  8
0
  6
CONTINUOUS
100
AcDbLine
 10
34.00029645502036
 20
290.8977171629483
 30
0.0
 11
36.23998661726114
 21
290.8977171629483
 31
0.0
  0
LINE
  5
8F5
330
1F
100
AcDbEntity
  8
0
  6
CONTINUOUS
100
AcDbLine
 10
35.82321976512139
 20
288.1139322873027
 30
0.0
 11
34.46728394567435
 21
288.1139322873027
 31
0.0
  0
LINE
  5
8F6
330
1F
100
AcDbEntity
  8
0
  6
CONTINUOUS
100
AcDbLine
 10
34.46728394567435
 20
289.9541313983318
 30
0.0
 11
35.82321976512139
 21
289.9541313983318
 31
0.0
  0
LINE
  5
8F7
330
1F
100
AcDbEntity
  8
0
  6
CONTINUOUS
100
AcDbLine
 10
36.33111466854234
 20
287.6447738837263
 30
0.0
 11
35.75799924522061
 21
287.6447738837263
 31
0.0
  0
LINE
  5
8F8
330
1F
100
AcDbEntity
  8
0
  6
CONTINUOUS
100
AcDbLine
 10
35.91630545645443
 20
286.7255287002585
 30
0.0
 11
35.91630545645443
 21
287.4863894413978
 31
0.0
  0
LINE
  5
8F9
330
1F
100
AcDbEntity
  8
0
  6
CONTINUOUS
100
AcDbLine
 10
36.48198520034042
 20
290.8977171629483
 30
0.0
 11
36.48198520034042
 21
290.8061378858806
 31
0.0
  0
LINE
  5
8FA
330
1F
100
AcDbEntity
  8
0
  6
CONTINUOUS
100
AcDbLine
 10
36.49605469047446
 20
290.8977171629483
 30
0.0
 11
36.48198520034042
 21
290.8977171629483
 31
0.0
  0
LINE
  5
8FB
330
1F
100
AcDbEntity
  8
0
  6
CONTINUOUS
100
AcDbLine
 10
40.6376471111123
 20
290.6477172383856
 30
0.0
 11
40.43964700042624
 21
290.6477172383856
 31
0.0
  0
LINE
  5
8FC
330
1F
100
AcDbEntity
  8
0
  6
CONTINUOUS
100
AcDbLine
 10
40.67605392276639
 20
290.8977171629483
 30
0.0
 11
40.42399705588239
 21
290.8977171629483
 31
0.0
  0
ELLIPSE
  5
8FD
330
1F
100
AcDbEntity
  8
0
  6
CONTINUOUS
100
AcDbEllipse
 10
40.43964715421657
 20
290.3977172069508
 30
0.0
 11
0.0
 21
0.25
 31
0.0
210
0.0
220
0.0
230
1.0
 40
0.0625986046035223
 41
0.0
 42
1.570796326794896
  0
LINE
  5
8FE
330
1F
100
AcDbEntity
  8
0
  6
CONTINUOUS
100
AcDbLine
 10
38.30810108422634
 20
290.8977171629483
 30
0.0
 11
38.06851928322931
 21
290.8977171629483
 31
0.0
  0
ELLIPSE
  5
8FF
330
1F
100
AcDbEntity
  8
0
  6
CONTINUOUS
100
AcDbEllipse
 10
38.29241219858317
 20
290.3977172069508
 30
0.0
 11
0.0
 21
0.25
 31
0.0
210
0.0
220
0.0
230
1.0
 40
0.0627538312168099
 41
4.71238898038469
 42
6.283185307179584
  0
LINE
  5
900
330
1F
100
AcDbEntity
  8
0
  6
CONTINUOUS
100
AcDbLine
 10
38.10072162389246
 20
290.6477172383856
 30
0.0
 11
38.29241202413435
 21
290.6477172383856
 31
0.0
  0
LINE
  5
901
330
1F
100
AcDbEntity
  8
0
  6
CONTINUOUS
100
AcDbLine
 10
36.45683017759938
 20
290.6424048580041
 30
0.0
 11
38.10140614598434
 21
290.6424048580041
 31
0.0
  0
LINE
  5
902
330
1F
100
AcDbEntity
  8
0
  6
CONTINUOUS
100
AcDbLine
 10
36.25306983678934
 20
290.6477172383856
 30
0.0
 11
36.45764694749755
 21
290.6477172383856
 31
0.0
  0
LINE
  5
903
330
1F
100
AcDbEntity
  8
0
  6
CONTINUOUS
100
AcDbLine
 10
35.8230642342512
 20
288.1139322873027
 30
0.0
 11
35.8230642342512
 21
289.9541313983318
 31
0.0
  0
LINE
  5
904
330
1F
100
AcDbEntity
  8
0
  6
CONTINUOUS
100
AcDbLine
 10
36.48942181109828
 20
289.5120577178717
 30
0.0
 11
36.48942181109828
 21
287.4863894413978
 31
0.0
  0
LINE
  5
905
330
1F
100
AcDbEntity
  8
0
  6
CONTINUOUS
100
AcDbLine
 10
36.33111466854234
 20
289.6704421602003
 30
0.0
 11
36.48942181109828
 21
289.5120577178717
 31
0.0
  0
LINE
  5
906
330
1F
100
AcDbEntity
  8
0
  6
CONTINUOUS
100
AcDbLine
 10
36.48198520034042
 20
290.8977171629483
 30
0.0
 11
36.23998661726114
 21
290.8977171629483
 31
0.0
  0
ELLIPSE
  5
907
330
1F
100
AcDbEntity
  8
0
  6
CONTINUOUS
100
AcDbEllipse
 10
36.25306944199337
 20
290.3977172069508
 30
0.0
 11
0.0
 21
0.25
 31
0.0
210
0.0
220
0.0
230
1.0
 40
0.0523301658186028
 41
0.0
 42
1.570796326794896
  0
LINE
  5
908
330
1F
100
AcDbEntity
  8
0
  6
CONTINUOUS
100
AcDbLine
 10
35.91630545645443
 20
287.4863894413978
 30
0.0
 11
36.48942181109828
 21
287.4863894413978
 31
0.0
  0
LINE
  5
909
330
1F
100
AcDbEntity
  8
0
  6
CONTINUOUS
100
AcDbLine
 10
36.33111466854234
 20
287.6447738837263
 30
0.0
 11
36.48942181109828
 21
287.4863894413978
 31
0.0
  0
LINE
  5
90A
330
1F
100
AcDbEntity
  8
0
  6
CONTINUOUS
100
AcDbLine
 10
38.30810108422634
 20
290.8977171629483
 30
0.0
 11
40.42399705588239
 21
290.8977171629483
 31
0.0
  0
LINE
  5
90B
330
1F
100
AcDbEntity
  8
0
  6
CONTINUOUS
100
AcDbLine
 10
35.82321976512139
 20
288.1139322873027
 30
0.0
 11
35.82321976512139
 21
289.9541313983318
 31
0.0
  0
LINE
  5
90C
330
1F
100
AcDbEntity
  8
0
  6
CONTINUOUS
100
AcDbLine
 10
40.42399705588239
 20
290.3977171974073
 30
0.0
 11
40.42399705588239
 21
290.8977171629483
 31
0.0
  0
LINE
  5
90D
330
1F
100
AcDbEntity
  8
0
  6
CONTINUOUS
100
AcDbLine
 10
38.30810108422634
 20
290.8977171629483
 30
0.0
 11
38.30810108422634
 21
290.3977171974073
 31
0.0
  0
LINE
  5
90E
330
1F
100
AcDbEntity
  8
0
  6
CONTINUOUS
100
AcDbLine
 10
36.23998661726114
 20
290.3977171974073
 30
0.0
 11
38.30810108422634
 21
290.3977171974073
 31
0.0
  0
LINE
  5
90F
330
1F
100
AcDbEntity
  8
0
  6
CONTINUOUS
100
AcDbLine
 10
36.23998661726114
 20
290.3977171974073
 30
0.0
 11
36.23998661726114
 21
290.8977171629483
 31
0.0
  0
LINE
  5
910
330
1F
100
AcDbEntity
  8
0
  6
CONTINUOUS
100
AcDbLine
 10
36.33111466854234
 20
289.6704421602003
 30
0.0
 11
36.33111466854234
 21
287.6447738837263
 31
0.0
  0
LINE
  5
911
330
1F
100
AcDbEntity
  8
0
  6
CONTINUOUS
100
AcDbLine
 10
34.00029645502036
 20
285.7179182339276
 30
0.0
 11
34.00029645502036
 21
290.8977171629483
 31
0.0
  0
LINE
  5
912
330
1F
100
AcDbEntity
  8
0
  6
CONTINUOUS
100
AcDbLine
 10
35.75799924522061
 20
287.6447738837263
 30
0.0
 11
35.75799924522061
 21
286.8839131425882
 31
0.0
  0
LINE
  5
913
330
1F
100
AcDbEntity
  8
0
  6
CONTINUOUS
100
AcDbLine
 10
34.4242289030492
 20
285.5595337915983
 30
0.0
 11
34.4242289030492
 21
286.7255287002585
 31
0.0
  0
LINE
  5
914
330
1F
100
AcDbEntity
  8
0
  6
CONTINUOUS
100
AcDbLine
 10
34.26592082917135
 20
286.8839131425882
 30
0.0
 11
34.4242289030492
 21
286.7255287002585
 31
0.0
  0
LINE
  5
915
330
1F
100
AcDbEntity
  8
0
  6
CONTINUOUS
100
AcDbLine
 10
34.26592082917135
 20
286.8839131425882
 30
0.0
 11
34.26592082917135
 21
285.7179182339276
 31
0.0
  0
LINE
  5
916
330
1F
100
AcDbEntity
  8
0
  6
CONTINUOUS
100
AcDbLine
 10
35.75799924522061
 20
286.8839131425882
 30
0.0
 11
34.26592082917135
 21
286.8839131425882
 31
0.0
  0
ELLIPSE
  5
917
330
1F
100
AcDbEntity
  8
0
  6
CONTINUOUS
100
AcDbEllipse
 10
34.00025681529427
 20
285.6387262033718
 30
0.0
 11
-0.4999999999990055
 21
-0.0000063045230263
 31
0.0
210
0.0
220
0.0
230
1.0
 40
0.1583844398229271
 41
4.712309370001213
 42
5.087865880909113
  0
LINE
  5
918
330
1F
100
AcDbEntity
  8
0
  6
CONTINUOUS
100
AcDbLine
 10
33.96968760728237
 20
285.5595337915983
 30
0.0
 11
33.81689855098125
 21
285.7123992163506
 31
0.0
  0
LINE
  5
919
330
1F
100
AcDbEntity
  8
0
  6
CONTINUOUS
100
AcDbLine
 10
33.96968760728237
 20
285.5595337915983
 30
0.0
 11
34.4242289030492
 21
285.5595337915983
 31
0.0
  0
LINE
  5
91A
330
1F
100
AcDbEntity
  8
0
  6
CONTINUOUS
100
AcDbLine
 10
34.26592082917135
 20
285.7179182339276
 30
0.0
 11
34.4242289030492
 21
285.5595337915983
 31
0.0
  0
LINE
  5
91B
330
1F
100
AcDbEntity
  8
0
  6
CONTINUOUS
100
AcDbLine
 10
34.26592082917135
 20
285.7179182339276
 30
0.0
 11
34.00029645502036
 21
285.7179182339276
 31
0.0
  0
LINE
  5
91C
330
1F
100
AcDbEntity
  8
0
  6
CONTINUOUS
100
AcDbLine
 10
33.49984840690535
 20
290.8977171629483
 30
0.0
 11
33.70856897174735
 21
290.8977171629483
 31
0.0
  0
LINE
  5
91D
330
1F
100
AcDbEntity
  8
0
  6
CONTINUOUS
100
AcDbLine
 10
32.68504918753524
 20
290.3829321022895
 30
0.0
 11
32.68515535830943
 21
290.3829321022895
 31
0.0
  0
LINE
  5
91E
330
1F
100
AcDbEntity
  8
0
  6
CONTINUOUS
100
AcDbLine
 10
32.68504918753524
 20
289.0829322151656
 30
0.0
 11
32.68515535830943
 21
289.0829322151656
 31
0.0
  0
LINE
  5
91F
330
1F
100
AcDbEntity
  8
0
  6
CONTINUOUS
100
AcDbLine
 10
32.68504918753524
 20
289.0829322151656
 30
0.0
 11
32.68504918753524
 21
290.3829321022895
 31
0.0
  0
LINE
  5
920
330
1F
100
AcDbEntity
  8
0
  6
CONTINUOUS
100
AcDbLine
 10
32.68515535830943
 20
290.3829321022895
 30
0.0
 11
32.71240958213228
 21
290.3829321022895
 31
0.0
  0
LINE
  5
921
330
1F
100
AcDbEntity
  8
0
  6
CONTINUOUS
100
AcDbLine
 10
32.68515535830943
 20
289.0829322151656
 30
0.0
 11
32.71240958213228
 21
289.0829322151656
 31
0.0
  0
LINE
  5
922
330
1F
100
AcDbEntity
  8
0
  6
CONTINUOUS
100
AcDbLine
 10
32.68515535830943
 20
290.3829321022895
 30
0.0
 11
32.68515535830943
 21
289.0829322151656
 31
0.0
  0
LINE
  5
923
330
1F
100
AcDbEntity
  8
0
  6
CONTINUOUS
100
AcDbLine
 10
33.49920951961939
 20
290.6477172383856
 30
0.0
 11
33.49922814607042
 21
290.6477172383856
 31
0.0
  0
LINE
  5
924
330
1F
100
AcDbEntity
  8
0
  6
CONTINUOUS
100
AcDbLine
 10
33.49984840690535
 20
290.6477172383856
 30
0.0
 11
33.50025632619348
 21
290.6477172383856
 31
0.0
  0
LINE
  5
925
330
1F
100
AcDbEntity
  8
0
  6
CONTINUOUS
100
AcDbLine
 10
33.49984840690535
 20
290.6477172383856
 30
0.0
 11
33.49984840690535
 21
290.8977171629483
 31
0.0
  0
LINE
  5
926
330
1F
100
AcDbEntity
  8
0
  6
CONTINUOUS
100
AcDbLine
 10
33.49984840690535
 20
290.8977171629483
 30
0.0
 11
33.49922814607042
 21
290.8977171629483
 31
0.0
  0
LINE
  5
927
330
1F
100
AcDbEntity
  8
0
  6
CONTINUOUS
100
AcDbLine
 10
33.49922814607042
 20
290.8977171629483
 30
0.0
 11
33.49922814607042
 21
290.6477172383856
 31
0.0
  0
LINE
  5
928
330
1F
100
AcDbEntity
  8
0
  6
CONTINUOUS
100
AcDbLine
 10
33.49920951961939
 20
290.6477172383856
 30
0.0
 11
33.49920951961939
 21
290.3829321022895
 31
0.0
  0
LINE
  5
929
330
1F
100
AcDbEntity
  8
0
  6
CONTINUOUS
100
AcDbLine
 10
32.71240958213228
 20
290.3829321022895
 30
0.0
 11
33.50483284532423
 21
290.3829321022895
 31
0.0
  0
LINE
  5
92A
330
1F
100
AcDbEntity
  8
0
  6
CONTINUOUS
100
AcDbLine
 10
33.50483284532423
 20
289.0829322151656
 30
0.0
 11
32.71240958213228
 21
289.0829322151656
 31
0.0
  0
LINE
  5
92B
330
1F
100
AcDbEntity
  8
0
  6
CONTINUOUS
100
AcDbLine
 10
32.71240958213228
 20
289.0829322151656
 30
0.0
 11
32.71240958213228
 21
290.3829321022895
 31
0.0
  0
LINE
  5
92C
330
1F
100
AcDbEntity
  8
0
  6
CONTINUOUS
100
AcDbLine
 10
33.70899179219644
 20
290.8977171629483
 30
0.0
 11
33.70856897174735
 21
290.8977171629483
 31
0.0
  0
LINE
  5
92D
330
1F
100
AcDbEntity
  8
0
  6
CONTINUOUS
100
AcDbLine
 10
33.70856897174735
 20
290.8977171629483
 30
0.0
 11
33.70856897174735
 21
290.6477172383856
 31
0.0
  0
LINE
  5
92E
330
1F
100
AcDbEntity
  8
0
  6
CONTINUOUS
100
AcDbLine
 10
34.56712731360835
 20
288.2139323502597
 30
0.0
 11
34.56712731360835
 21
289.8541313353741
 31
0.0
  0
LINE
  5
92F
330
1F
100
AcDbEntity
  8
0
  6
CONTINUOUS
100
AcDbLine
 10
34.56712731360835
 20
288.2139323502597
 30
0.0
 11
34.56728377580132
 21
288.2139323502597
 31
0.0
  0
LINE
  5
930
330
1F
100
AcDbEntity
  8
0
  6
CONTINUOUS
100
AcDbLine
 10
34.56728377580132
 20
289.8541313353741
 30
0.0
 11
34.56712731360835
 21
289.8541313353741
 31
0.0
  0
LINE
  5
931
330
1F
100
AcDbEntity
  8
0
  6
CONTINUOUS
100
AcDbLine
 10
35.72321993499439
 20
288.2139323502597
 30
0.0
 11
34.56728377580132
 21
288.2139323502597
 31
0.0
  0
LINE
  5
932
330
1F
100
AcDbEntity
  8
0
  6
CONTINUOUS
100
AcDbLine
 10
35.72321993499439
 20
289.8541313353741
 30
0.0
 11
35.72321993499439
 21
288.2139323502597
 31
0.0
  0
LINE
  5
933
330
1F
100
AcDbEntity
  8
0
  6
CONTINUOUS
100
AcDbLine
 10
34.56728377580132
 20
289.8541313353741
 30
0.0
 11
35.72321993499439
 21
289.8541313353741
 31
0.0
  0
LINE
  5
934
330
1F
100
AcDbEntity
  8
0
  6
CONTINUOUS
100
AcDbLine
 10
34.56728377580132
 20
288.2139323502597
 30
0.0
 11
34.56728377580132
 21
289.8541313353741
 31
0.0
  0
LINE
  5
935
330
1F
100
AcDbEntity
  8
0
  6
CONTINUOUS
100
AcDbLine
 10
34.00029645502036
 20
290.8977171629483
 30
0.0
 11
33.70899179219644
 21
290.8977171629483
 31
0.0
  0
LINE
  5
936
330
1F
100
AcDbEntity
  8
0
  6
CONTINUOUS
100
AcDbLine
 10
33.70899179219644
 20
290.8977171629483
 30
0.0
 11
33.70899179219644
 21
290.6477172383856
 31
0.0
  0
LINE
  5
937
330
1F
100
AcDbEntity
  8
0
  6
CONTINUOUS
100
AcDbLine
 10
33.50025632619348
 20
290.6477172383856
 30
0.0
 11
33.70899179219644
 21
290.6477172383856
 31
0.0
  0
LINE
  5
938
330
1F
100
AcDbEntity
  8
0
  6
CONTINUOUS
100
AcDbLine
 10
33.50025632619348
 20
290.6477172383856
 30
0.0
 11
33.50025632619348
 21
290.3829321022895
 31
0.0
  0
LINE
  5
939
330
1F
100
AcDbEntity
  8
0
  6
CONTINUOUS
100
AcDbLine
 10
33.50483284532423
 20
290.3829321022895
 30
0.0
 11
33.50483284532423
 21
289.0829322151656
 31
0.0
  0
LINE
  5
93A
330
1F
100
AcDbEntity
  8
0
  6
CONTINUOUS
100
AcDbLine
 10
34.46728394567435
 20
289.9541313983318
 30
0.0
 11
34.46728394567435
 21
288.1139322873027
 31
0.0
  0
LINE
  5
93B
330
1F
100
AcDbEntity
  8
0
  6
CONTINUOUS
100
AcDbLine
 10
35.75799924522061
 20
296.2273789327405
 30
0.0
 11
35.91630545645443
 21
296.3857633750703
 31
0.0
  0
LINE
  5
93C
330
1F
100
AcDbEntity
  8
0
  6
CONTINUOUS
100
AcDbLine
 10
35.75799924522061
 20
296.9882396738798
 30
0.0
 11
35.91630545645443
 21
297.1466241162083
 31
0.0
  0
LINE
  5
93D
330
1F
100
AcDbEntity
  8
0
  6
CONTINUOUS
100
AcDbLine
 10
35.91630545645443
 20
297.1466241162083
 30
0.0
 11
34.4242289030492
 21
297.1466241162083
 31
0.0
  0
LINE
  5
93E
330
1F
100
AcDbEntity
  8
0
  6
CONTINUOUS
100
AcDbLine
 10
36.23998661726114
 20
292.9744354206886
 30
0.0
 11
34.00029645502036
 21
292.9744354206886
 31
0.0
  0
LINE
  5
93F
330
1F
100
AcDbEntity
  8
0
  6
CONTINUOUS
100
AcDbLine
 10
35.82321976512139
 20
293.9180214181356
 30
0.0
 11
34.46728394567435
 21
293.9180214181356
 31
0.0
  0
LINE
  5
940
330
1F
100
AcDbEntity
  8
0
  6
CONTINUOUS
100
AcDbLine
 10
34.46728394567435
 20
295.7582202963341
 30
0.0
 11
35.82321976512139
 21
295.7582202963341
 31
0.0
  0
LINE
  5
941
330
1F
100
AcDbEntity
  8
0
  6
CONTINUOUS
100
AcDbLine
 10
35.75799924522061
 20
296.2273789327405
 30
0.0
 11
36.33111466854234
 21
296.2273789327405
 31
0.0
  0
LINE
  5
942
330
1F
100
AcDbEntity
  8
0
  6
CONTINUOUS
100
AcDbLine
 10
35.8230642342512
 20
293.9180214181356
 30
0.0
 11
35.8230642342512
 21
295.7582202963341
 31
0.0
  0
LINE
  5
943
330
1F
100
AcDbEntity
  8
0
  6
CONTINUOUS
100
AcDbLine
 10
36.48942181109828
 20
296.3857633750703
 30
0.0
 11
36.48942181109828
 21
294.3600948657658
 31
0.0
  0
LINE
  5
944
330
1F
100
AcDbEntity
  8
0
  6
CONTINUOUS
100
AcDbLine
 10
35.82321976512139
 20
293.9180214181356
 30
0.0
 11
35.82321976512139
 21
295.7582202963341
 31
0.0
  0
LINE
  5
945
330
1F
100
AcDbEntity
  8
0
  6
CONTINUOUS
100
AcDbLine
 10
36.33111466854234
 20
296.2273789327405
 30
0.0
 11
36.33111466854234
 21
294.2017104234364
 31
0.0
  0
LINE
  5
946
330
1F
100
AcDbEntity
  8
0
  6
CONTINUOUS
100
AcDbLine
 10
36.48198520034042
 20
292.9744354206886
 30
0.0
 11
36.48198520034042
 21
293.0660148141728
 31
0.0
  0
ELLIPSE
  5
947
330
1F
100
AcDbEntity
  8
0
  6
CONTINUOUS
100
AcDbEllipse
 10
40.80509026505136
 20
291.1977172069514
 30
0.0
 11
0.0
 21
0.5
 31
0.0
210
0.0
220
0.0
230
1.0
 40
0.0625986046035791
 41
0.0
 42
0.3869234409357994
  0
ELLIPSE
  5
948
330
1F
100
AcDbEntity
  8
0
  6
CONTINUOUS
100
AcDbEllipse
 10
36.62509027764144
 20
291.1977172069514
 30
0.0
 11
0.0
 21
0.5
 31
0.0
210
0.0
220
0.0
230
1.0
 40
0.0625986046035223
 41
0.0
 42
0.3869234409377984
  0
ELLIPSE
  5
949
330
1F
100
AcDbEntity
  8
0
  6
CONTINUOUS
100
AcDbEllipse
 10
37.96032979888627
 20
291.1977172069514
 30
0.0
 11
0.0
 21
0.5
 31
0.0
210
0.0
220
0.0
230
1.0
 40
0.0524853924317768
 41
5.896261866244547
 42
6.283185307179584
  0
LINE
  5
94A
330
1F
100
AcDbEntity
  8
0
  6
CONTINUOUS
100
AcDbLine
 10
36.62509036451047
 20
291.6977172009465
 30
0.0
 11
37.96032940238135
 21
291.6977172009465
 31
0.0
  0
LINE
  5
94B
330
1F
100
AcDbEntity
  8
0
  6
CONTINUOUS
100
AcDbLine
 10
37.97023215531726
 20
291.6607543758392
 30
0.0
 11
36.61327933161938
 21
291.6607543758392
 31
0.0
  0
LINE
  5
94C
330
1F
100
AcDbEntity
  8
0
  6
CONTINUOUS
100
AcDbLine
 10
36.48198520034042
 20
292.9744354206886
 30
0.0
 11
36.49605469047446
 21
292.9744354206886
 31
0.0
  0
ELLIPSE
  5
94D
330
1F
100
AcDbEntity
  8
0
  6
CONTINUOUS
100
AcDbEllipse
 10
40.80509026505136
 20
292.6744354296646
 30
0.0
 11
0.0
 21
0.5
 31
0.0
210
0.0
220
0.0
230
1.0
 40
0.0625986046035791
 41
2.754669212653993
 42
3.14159265358979
  0
ELLIPSE
  5
94E
330
1F
100
AcDbEntity
  8
0
  6
CONTINUOUS
100
AcDbEllipse
 10
36.62509027764144
 20
292.6744354296646
 30
0.0
 11
0.0
 21
0.5
 31
0.0
210
0.0
220
0.0
230
1.0
 40
0.0625986046035223
 41
2.754669212652855
 42
3.14159265358979
  0
ELLIPSE
  5
94F
330
1F
100
AcDbEntity
  8
0
  6
CONTINUOUS
100
AcDbEllipse
 10
37.96032979888627
 20
292.6744354296646
 30
0.0
 11
0.0
 21
0.5
 31
0.0
210
0.0
220
0.0
230
1.0
 40
0.0524853924317768
 41
3.14159265358979
 42
3.528516094525303
  0
LINE
  5
950
330
1F
100
AcDbEntity
  8
0
  6
CONTINUOUS
100
AcDbLine
 10
37.96032940238135
 20
292.1744354263463
 30
0.0
 11
36.62509036451047
 21
292.1744354263463
 31
0.0
  0
LINE
  5
951
330
1F
100
AcDbEntity
  8
0
  6
CONTINUOUS
100
AcDbLine
 10
40.79327949523325
 20
292.2113982660048
 30
0.0
 11
40.63683034121459
 21
293.2297477256323
 31
0.0
  0
LINE
  5
952
330
1F
100
AcDbEntity
  8
0
  6
CONTINUOUS
100
AcDbLine
 10
36.61327933161938
 20
292.2113982660048
 30
0.0
 11
37.97023215531726
 21
292.2113982660048
 31
0.0
  0
LINE
  5
953
330
1F
100
AcDbEntity
  8
0
  6
CONTINUOUS
100
AcDbLine
 10
38.10140614598434
 20
293.2297477256323
 30
0.0
 11
37.97023215531726
 21
292.2113982660048
 31
0.0
  0
LINE
  5
954
330
1F
100
AcDbEntity
  8
0
  6
CONTINUOUS
100
AcDbLine
 10
36.61327933161938
 20
292.2113982660048
 30
0.0
 11
36.45683017759938
 21
293.2297477256323
 31
0.0
  0
LINE
  5
955
330
1F
100
AcDbEntity
  8
0
  6
CONTINUOUS
100
AcDbLine
 10
40.43964700042624
 20
293.2244354616662
 30
0.0
 11
40.6376471111123
 21
293.2244354616662
 31
0.0
  0
LINE
  5
956
330
1F
100
AcDbEntity
  8
0
  6
CONTINUOUS
100
AcDbLine
 10
40.42399705588239
 20
292.9744354206886
 30
0.0
 11
40.67605392276639
 21
292.9744354206886
 31
0.0
  0
ELLIPSE
  5
957
330
1F
100
AcDbEntity
  8
0
  6
CONTINUOUS
100
AcDbEllipse
 10
40.43964715421657
 20
293.4744354296643
 30
0.0
 11
0.0
 21
0.25
 31
0.0
210
0.0
220
0.0
230
1.0
 40
0.0625986046035223
 41
1.570796326794896
 42
3.141592653587975
  0
LINE
  5
958
330
1F
100
AcDbEntity
  8
0
  6
CONTINUOUS
100
AcDbLine
 10
38.06851928322931
 20
292.9744354206886
 30
0.0
 11
38.30810108422634
 21
292.9744354206886
 31
0.0
  0
LINE
  5
959
330
1F
100
AcDbEntity
  8
0
  6
CONTINUOUS
100
AcDbLine
 10
38.10140614598434
 20
293.2297477256323
 30
0.0
 11
36.45683017759938
 21
293.2297477256323
 31
0.0
  0
LINE
  5
95A
330
1F
100
AcDbEntity
  8
0
  6
CONTINUOUS
100
AcDbLine
 10
38.29241202413435
 20
293.2244354616662
 30
0.0
 11
38.10072162389246
 21
293.2244354616662
 31
0.0
  0
ELLIPSE
  5
95B
330
1F
100
AcDbEntity
  8
0
  6
CONTINUOUS
100
AcDbEllipse
 10
38.29241219858317
 20
293.4744354296643
 30
0.0
 11
0.0
 21
0.25
 31
0.0
210
0.0
220
0.0
230
1.0
 40
0.0627538312168099
 41
3.141592653587977
 42
4.71238898038469
  0
LINE
  5
95C
330
1F
100
AcDbEntity
  8
0
  6
CONTINUOUS
100
AcDbLine
 10
36.45764694749755
 20
293.2244354616662
 30
0.0
 11
36.25306983678934
 21
293.2244354616662
 31
0.0
  0
LINE
  5
95D
330
1F
100
AcDbEntity
  8
0
  6
CONTINUOUS
100
AcDbLine
 10
36.33111466854234
 20
294.2017104234364
 30
0.0
 11
36.48942181109828
 21
294.3600948657658
 31
0.0
  0
LINE
  5
95E
330
1F
100
AcDbEntity
  8
0
  6
CONTINUOUS
100
AcDbLine
 10
36.23998661726114
 20
292.9744354206886
 30
0.0
 11
36.48198520034042
 21
292.9744354206886
 31
0.0
  0
ELLIPSE
  5
95F
330
1F
100
AcDbEntity
  8
0
  6
CONTINUOUS
100
AcDbEllipse
 10
36.25306944199337
 20
293.4744354296643
 30
0.0
 11
0.0
 21
0.25
 31
0.0
210
0.0
220
0.0
230
1.0
 40
0.0523301658186028
 41
1.570796326794896
 42
3.14159265358979
  0
LINE
  5
960
330
1F
100
AcDbEntity
  8
0
  6
CONTINUOUS
100
AcDbLine
 10
40.42399705588239
 20
292.9744354206886
 30
0.0
 11
38.30810108422634
 21
292.9744354206886
 31
0.0
  0
LINE
  5
961
330
1F
100
AcDbEntity
  8
0
  6
CONTINUOUS
100
AcDbLine
 10
36.23998661726114
 20
292.9744354206886
 30
0.0
 11
36.23998661726114
 21
293.4744353862297
 31
0.0
  0
LINE
  5
962
330
1F
100
AcDbEntity
  8
0
  6
CONTINUOUS
100
AcDbLine
 10
38.30810108422634
 20
293.4744353862297
 30
0.0
 11
36.23998661726114
 21
293.4744353862297
 31
0.0
  0
LINE
  5
963
330
1F
100
AcDbEntity
  8
0
  6
CONTINUOUS
100
AcDbLine
 10
38.30810108422634
 20
293.4744353862297
 30
0.0
 11
38.30810108422634
 21
292.9744354206886
 31
0.0
  0
LINE
  5
964
330
1F
100
AcDbEntity
  8
0
  6
CONTINUOUS
100
AcDbLine
 10
40.42399705588239
 20
292.9744354206886
 30
0.0
 11
40.42399705588239
 21
293.4744353862297
 31
0.0
  0
LINE
  5
965
330
1F
100
AcDbEntity
  8
0
  6
CONTINUOUS
100
AcDbLine
 10
38.65404737382528
 20
292.0832420515171
 30
0.0
 11
38.65404737382528
 21
292.9744354206886
 31
0.0
  0
LINE
  5
966
330
1F
100
AcDbEntity
  8
0
  6
CONTINUOUS
100
AcDbLine
 10
38.65349603086133
 20
292.4832420414136
 30
0.0
 11
38.65349603086133
 21
292.0832420515171
 31
0.0
  0
SPLINE
  5
967
330
1F
100
AcDbEntity
  8
0
  6
CONTINUOUS
100
AcDbSpline
210
0.0
220
0.0
230
1.0
 70
     8
 71
     3
 72
    15
 73
    11
 74
     0
 42
0.0000000001
 43
0.0000000001
 40
0.0
 40
0.0
 40
0.0
 40
0.0
 40
0.0746038426308414
 40
0.2164025188609785
 40
0.358201185648325
 40
0.4999999766764791
 40
0.6417987677046333
 40
0.7835974344919798
 40
0.9253962674204599
 40
1.0
 40
1.0
 40
1.0
 40
1.0
 10
38.65401477753539
 20
292.9744354206886
 30
0.0
 10
38.65401434376144
 20
292.9334282398376
 30
0.0
 10
38.6540130855194
 20
292.8144791761615
 30
0.0
 10
38.65400318508341
 20
292.6484806550241
 30
0.0
 10
38.65398833897939
 20
292.5143263142676
 30
0.0
 10
38.65397007405135
 20
292.4676999059028
 30
0.0
 10
38.6539518091265
 20
292.5143262833626
 30
0.0
 10
38.65393696301135
 20
292.6484808280638
 30
0.0
 10
38.65392706259239
 20
292.8144789056718
 30
0.0
 10
38.65392580434353
 20
292.9334282220506
 30
0.0
 10
38.65392537056846
 20
292.9744354206886
 30
0.0
  0
LINE
  5
968
330
1F
100
AcDbEntity
  8
0
  6
CONTINUOUS
100
AcDbLine
 10
35.91630545645443
 20
296.3857633750703
 30
0.0
 11
35.91630545645443
 21
297.1466241162083
 31
0.0
  0
LINE
  5
969
330
1F
100
AcDbEntity
  8
0
  6
CONTINUOUS
100
AcDbLine
 10
36.33111466854234
 20
296.2273789327405
 30
0.0
 11
36.48942181109828
 21
296.3857633750703
 31
0.0
  0
LINE
  5
96A
330
1F
100
AcDbEntity
  8
0
  6
CONTINUOUS
100
AcDbLine
 10
36.48942181109828
 20
296.3857633750703
 30
0.0
 11
35.91630545645443
 21
296.3857633750703
 31
0.0
  0
LINE
  5
96B
330
1F
100
AcDbEntity
  8
0
  6
CONTINUOUS
100
AcDbLine
 10
35.72321993499439
 20
295.6582204662085
 30
0.0
 11
35.72321993499439
 21
294.0180212482628
 31
0.0
  0
LINE
  5
96C
330
1F
100
AcDbEntity
  8
0
  6
CONTINUOUS
100
AcDbLine
 10
34.56712731360835
 20
295.6582204662085
 30
0.0
 11
34.56712731360835
 21
294.0180212482628
 31
0.0
  0
LINE
  5
96D
330
1F
100
AcDbEntity
  8
0
  6
CONTINUOUS
100
AcDbLine
 10
34.56728377580132
 20
294.0180212482628
 30
0.0
 11
34.56728377580132
 21
295.6582204662085
 31
0.0
  0
LINE
  5
96E
330
1F
100
AcDbEntity
  8
0
  6
CONTINUOUS
100
AcDbLine
 10
34.46728394567435
 20
295.7582202963341
 30
0.0
 11
34.46728394567435
 21
293.9180214181356
 31
0.0
  0
LINE
  5
96F
330
1F
100
AcDbEntity
  8
0
  6
CONTINUOUS
100
AcDbLine
 10
34.00029645502036
 20
292.9744354206886
 30
0.0
 11
34.00029645502036
 21
298.1542341168788
 31
0.0
  0
LINE
  5
970
330
1F
100
AcDbEntity
  8
0
  6
CONTINUOUS
100
AcDbLine
 10
33.70856897174735
 20
292.9744354206886
 30
0.0
 11
33.49984840690535
 21
292.9744354206886
 31
0.0
  0
LINE
  5
971
330
1F
100
AcDbEntity
  8
0
  6
CONTINUOUS
100
AcDbLine
 10
32.68515535830943
 20
293.4892204813476
 30
0.0
 11
32.68504918753524
 21
293.4892204813476
 31
0.0
  0
LINE
  5
972
330
1F
100
AcDbEntity
  8
0
  6
CONTINUOUS
100
AcDbLine
 10
32.68515535830943
 20
294.7892203684718
 30
0.0
 11
32.68504918753524
 21
294.7892203684718
 31
0.0
  0
LINE
  5
973
330
1F
100
AcDbEntity
  8
0
  6
CONTINUOUS
100
AcDbLine
 10
32.68504918753524
 20
294.7892203684718
 30
0.0
 11
32.68504918753524
 21
293.4892204813476
 31
0.0
  0
LINE
  5
974
330
1F
100
AcDbEntity
  8
0
  6
CONTINUOUS
100
AcDbLine
 10
32.71240958213228
 20
293.4892204813476
 30
0.0
 11
32.68515535830943
 21
293.4892204813476
 31
0.0
  0
LINE
  5
975
330
1F
100
AcDbEntity
  8
0
  6
CONTINUOUS
100
AcDbLine
 10
32.71240958213228
 20
294.7892203684718
 30
0.0
 11
32.68515535830943
 21
294.7892203684718
 31
0.0
  0
LINE
  5
976
330
1F
100
AcDbEntity
  8
0
  6
CONTINUOUS
100
AcDbLine
 10
32.68515535830943
 20
294.7892203684718
 30
0.0
 11
32.68515535830943
 21
293.4892204813476
 31
0.0
  0
LINE
  5
977
330
1F
100
AcDbEntity
  8
0
  6
CONTINUOUS
100
AcDbLine
 10
33.50025632619348
 20
293.2244354616662
 30
0.0
 11
33.49984840690535
 21
293.2244354616662
 31
0.0
  0
LINE
  5
978
330
1F
100
AcDbEntity
  8
0
  6
CONTINUOUS
100
AcDbLine
 10
33.49920951961939
 20
293.2244354616662
 30
0.0
 11
33.49922814607042
 21
293.2244354616662
 31
0.0
  0
LINE
  5
979
330
1F
100
AcDbEntity
  8
0
  6
CONTINUOUS
100
AcDbLine
 10
33.49920951961939
 20
293.4892204813476
 30
0.0
 11
33.49920951961939
 21
293.2244354616662
 31
0.0
  0
LINE
  5
97A
330
1F
100
AcDbEntity
  8
0
  6
CONTINUOUS
100
AcDbLine
 10
33.49922814607042
 20
293.2244354616662
 30
0.0
 11
33.49922814607042
 21
292.9744354206886
 31
0.0
  0
LINE
  5
97B
330
1F
100
AcDbEntity
  8
0
  6
CONTINUOUS
100
AcDbLine
 10
33.49922814607042
 20
292.9744354206886
 30
0.0
 11
33.49984840690535
 21
292.9744354206886
 31
0.0
  0
LINE
  5
97C
330
1F
100
AcDbEntity
  8
0
  6
CONTINUOUS
100
AcDbLine
 10
33.49984840690535
 20
292.9744354206886
 30
0.0
 11
33.49984840690535
 21
293.2244354616662
 31
0.0
  0
LINE
  5
97D
330
1F
100
AcDbEntity
  8
0
  6
CONTINUOUS
100
AcDbLine
 10
33.50483284532423
 20
293.4892204813476
 30
0.0
 11
32.71240958213228
 21
293.4892204813476
 31
0.0
  0
LINE
  5
97E
330
1F
100
AcDbEntity
  8
0
  6
CONTINUOUS
100
AcDbLine
 10
33.50483284532423
 20
294.7892203684718
 30
0.0
 11
32.71240958213228
 21
294.7892203684718
 31
0.0
  0
LINE
  5
97F
330
1F
100
AcDbEntity
  8
0
  6
CONTINUOUS
100
AcDbLine
 10
32.71240958213228
 20
293.4892204813476
 30
0.0
 11
32.71240958213228
 21
294.7892203684718
 31
0.0
  0
LINE
  5
980
330
1F
100
AcDbEntity
  8
0
  6
CONTINUOUS
100
AcDbLine
 10
33.70856897174735
 20
292.9744354206886
 30
0.0
 11
33.70899179219644
 21
292.9744354206886
 31
0.0
  0
LINE
  5
981
330
1F
100
AcDbEntity
  8
0
  6
CONTINUOUS
100
AcDbLine
 10
33.70856897174735
 20
292.9744354206886
 30
0.0
 11
33.70856897174735
 21
293.2244354616662
 31
0.0
  0
LINE
  5
982
330
1F
100
AcDbEntity
  8
0
  6
CONTINUOUS
100
AcDbLine
 10
35.72321993499439
 20
294.0180212482628
 30
0.0
 11
34.56728377580132
 21
294.0180212482628
 31
0.0
  0
LINE
  5
983
330
1F
100
AcDbEntity
  8
0
  6
CONTINUOUS
100
AcDbLine
 10
34.56728377580132
 20
294.0180212482628
 30
0.0
 11
34.56712731360835
 21
294.0180212482628
 31
0.0
  0
LINE
  5
984
330
1F
100
AcDbEntity
  8
0
  6
CONTINUOUS
100
AcDbLine
 10
33.70899179219644
 20
292.9744354206886
 30
0.0
 11
34.00029645502036
 21
292.9744354206886
 31
0.0
  0
LINE
  5
985
330
1F
100
AcDbEntity
  8
0
  6
CONTINUOUS
100
AcDbLine
 10
33.50483284532423
 20
294.7892203684718
 30
0.0
 11
33.50483284532423
 21
293.4892204813476
 31
0.0
  0
LINE
  5
986
330
1F
100
AcDbEntity
  8
0
  6
CONTINUOUS
100
AcDbLine
 10
33.50025632619348
 20
293.4892204813476
 30
0.0
 11
33.50025632619348
 21
293.2244354616662
 31
0.0
  0
LINE
  5
987
330
1F
100
AcDbEntity
  8
0
  6
CONTINUOUS
100
AcDbLine
 10
33.70899179219644
 20
293.2244354616662
 30
0.0
 11
33.50025632619348
 21
293.2244354616662
 31
0.0
  0
LINE
  5
988
330
1F
100
AcDbEntity
  8
0
  6
CONTINUOUS
100
AcDbLine
 10
33.70899179219644
 20
293.2244354616662
 30
0.0
 11
33.70899179219644
 21
292.9744354206886
 31
0.0
  0
LINE
  5
989
330
1F
100
AcDbEntity
  8
0
  6
CONTINUOUS
100
AcDbLine
 10
34.56728377580132
 20
295.6582204662085
 30
0.0
 11
35.72321993499439
 21
295.6582204662085
 31
0.0
  0
LINE
  5
98A
330
1F
100
AcDbEntity
  8
0
  6
CONTINUOUS
100
AcDbLine
 10
34.56712731360835
 20
295.6582204662085
 30
0.0
 11
34.56728377580132
 21
295.6582204662085
 31
0.0
  0
LINE
  5
98B
330
1F
100
AcDbEntity
  8
0
  6
CONTINUOUS
100
AcDbLine
 10
34.4242289030492
 20
297.1466241162083
 30
0.0
 11
34.4242289030492
 21
298.3126185592086
 31
0.0
  0
LINE
  5
98C
330
1F
100
AcDbEntity
  8
0
  6
CONTINUOUS
100
AcDbLine
 10
34.26592082917135
 20
296.9882396738798
 30
0.0
 11
34.4242289030492
 21
297.1466241162083
 31
0.0
  0
LINE
  5
98D
330
1F
100
AcDbEntity
  8
0
  6
CONTINUOUS
100
AcDbLine
 10
35.75799924522061
 20
296.9882396738798
 30
0.0
 11
35.75799924522061
 21
296.2273789327405
 31
0.0
  0
LINE
  5
98E
330
1F
100
AcDbEntity
  8
0
  6
CONTINUOUS
100
AcDbLine
 10
34.26592082917135
 20
296.9882396738798
 30
0.0
 11
35.75799924522061
 21
296.9882396738798
 31
0.0
  0
LINE
  5
98F
330
1F
100
AcDbEntity
  8
0
  6
CONTINUOUS
100
AcDbLine
 10
34.26592082917135
 20
298.1542341168788
 30
0.0
 11
34.26592082917135
 21
296.9882396738798
 31
0.0
  0
LINE
  5
990
330
1F
100
AcDbEntity
  8
0
  6
CONTINUOUS
100
AcDbLine
 10
34.26592082917135
 20
298.1542341168788
 30
0.0
 11
34.4242289030492
 21
298.3126185592086
 31
0.0
  0
LINE
  5
991
330
1F
100
AcDbEntity
  8
0
  6
CONTINUOUS
100
AcDbLine
 10
34.4242289030492
 20
298.3126185592086
 30
0.0
 11
33.96968760728237
 21
298.3126185592086
 31
0.0
  0
LINE
  5
992
330
1F
100
AcDbEntity
  8
0
  6
CONTINUOUS
100
AcDbLine
 10
33.81689855098125
 20
298.1597536001176
 30
0.0
 11
33.96968760728237
 21
298.3126185592086
 31
0.0
  0
ELLIPSE
  5
993
330
1F
100
AcDbEntity
  8
0
  6
CONTINUOUS
100
AcDbEllipse
 10
34.00025681529427
 20
298.2334264332438
 30
0.0
 11
-0.4999999999990055
 21
0.0000063045229979
 31
0.0
210
0.0
220
0.0
230
1.0
 40
0.1583844398229271
 41
1.195319426270428
 42
1.570875937178303
  0
LINE
  5
994
330
1F
100
AcDbEntity
  8
0
  6
CONTINUOUS
100
AcDbLine
 10
34.00029645502036
 20
298.1542341168788
 30
0.0
 11
34.26592082917135
 21
298.1542341168788
 31
0.0
  0
LINE
  5
995
330
1F
100
AcDbEntity
  8
0
  6
CONTINUOUS
100
AcDbLine
 10
40.63683034121459
 20
307.7191237117915
 30
0.0
 11
42.28140630959956
 21
307.7191237117915
 31
0.0
  0
LINE
  5
996
330
1F
100
AcDbEntity
  8
0
  6
CONTINUOUS
100
AcDbLine
 10
43.27690539150832
 20
306.5887756403353
 30
0.0
 11
36.48942181109828
 21
306.5887756403353
 31
0.0
  0
LINE
  5
997
330
1F
100
AcDbEntity
  8
0
  6
CONTINUOUS
100
AcDbLine
 10
40.42399705588239
 20
307.4744354691174
 30
0.0
 11
42.49211152284738
 21
307.4744354691174
 31
0.0
  0
LINE
  5
998
330
1F
100
AcDbEntity
  8
0
  6
CONTINUOUS
100
AcDbLine
 10
43.43536759927338
 20
306.7471600826643
 30
0.0
 11
36.33111466854234
 21
306.7471600826643
 31
0.0
  0
LINE
  5
999
330
1F
100
AcDbEntity
  8
0
  6
CONTINUOUS
100
AcDbLine
 10
45.20171120032114
 20
305.8444356303475
 30
0.0
 11
45.57559204488415
 21
305.8444356303475
 31
0.0
  0
LINE
  5
99A
330
1F
100
AcDbEntity
  8
0
  6
CONTINUOUS
100
AcDbLine
 10
45.20171120032114
 20
307.1444352846406
 30
0.0
 11
45.57559204488415
 21
307.1444352846406
 31
0.0
  0
LINE
  5
99B
330
1F
100
AcDbEntity
  8
0
  6
CONTINUOUS
100
AcDbLine
 10
45.57559204488415
 20
307.1444352846406
 30
0.0
 11
45.57559204488415
 21
305.8444356303475
 31
0.0
  0
LINE
  5
99C
330
1F
100
AcDbEntity
  8
0
  6
CONTINUOUS
100
AcDbLine
 10
45.0002703183834
 20
305.8444356303475
 30
0.0
 11
45.20171120032114
 21
305.8444356303475
 31
0.0
  0
LINE
  5
99D
330
1F
100
AcDbEntity
  8
0
  6
CONTINUOUS
100
AcDbLine
 10
45.0002703183834
 20
307.1444352846406
 30
0.0
 11
45.20171120032114
 21
307.1444352846406
 31
0.0
  0
LINE
  5
99E
330
1F
100
AcDbEntity
  8
0
  6
CONTINUOUS
100
AcDbLine
 10
45.20171120032114
 20
305.8444356303475
 30
0.0
 11
45.20171120032114
 21
307.1444352846406
 31
0.0
  0
LINE
  5
99F
330
1F
100
AcDbEntity
  8
0
  6
CONTINUOUS
100
AcDbLine
 10
43.43536759927338
 20
306.7471600826643
 30
0.0
 11
43.27690539150832
 21
306.5887756403353
 31
0.0
  0
LINE
  5
9A0
330
1F
100
AcDbEntity
  8
0
  6
CONTINUOUS
100
AcDbLine
 10
42.24939582138723
 20
307.9744346197517
 30
0.0
 11
42.24939582138723
 21
307.9676322396661
 31
0.0
  0
LINE
  5
9A1
330
1F
100
AcDbEntity
  8
0
  6
CONTINUOUS
100
AcDbLine
 10
44.99867403149028
 20
308.1995501871965
 30
0.0
 11
44.99886029600543
 21
308.1995501871965
 31
0.0
  0
LINE
  5
9A2
330
1F
100
AcDbEntity
  8
0
  6
CONTINUOUS
100
AcDbLine
 10
44.99966402738732
 20
307.9744346197517
 30
0.0
 11
44.72728104531234
 21
307.9744346197517
 31
0.0
  0
LINE
  5
9A3
330
1F
100
AcDbEntity
  8
0
  6
CONTINUOUS
100
AcDbLine
 10
44.47791244103927
 20
307.9744346197517
 30
0.0
 11
44.72728104531234
 21
307.9744346197517
 31
0.0
  0
LINE
  5
9A4
330
1F
100
AcDbEntity
  8
0
  6
CONTINUOUS
100
AcDbLine
 10
44.72728104531234
 20
307.9744346197517
 30
0.0
 11
44.72728104531234
 21
307.7244359757563
 31
0.0
  0
LINE
  5
9A5
330
1F
100
AcDbEntity
  8
0
  6
CONTINUOUS
100
AcDbLine
 10
42.24939582138723
 20
307.9744346197517
 30
0.0
 11
42.24851944684428
 21
307.9744346197517
 31
0.0
  0
LINE
  5
9A6
330
1F
100
AcDbEntity
  8
0
  6
CONTINUOUS
100
AcDbLine
 10
42.20671869377042
 20
308.2989495185366
 30
0.0
 11
42.28140630959956
 21
307.7191237117915
 31
0.0
  0
LINE
  5
9A7
330
1F
100
AcDbEntity
  8
0
  6
CONTINUOUS
100
AcDbLine
 10
42.49211152284738
 20
307.9744346197517
 30
0.0
 11
42.24939582138723
 21
307.9744346197517
 31
0.0
  0
ELLIPSE
  5
9A8
330
1F
100
AcDbEntity
  8
0
  6
CONTINUOUS
100
AcDbEllipse
 10
42.47898991080638
 20
307.4744354296643
 30
0.0
 11
0.0
 21
0.25
 31
0.0
210
0.0
220
0.0
230
1.0
 40
0.0524853924317768
 41
4.71238898038469
 42
6.283185307179584
  0
LINE
  5
9A9
330
1F
100
AcDbEntity
  8
0
  6
CONTINUOUS
100
AcDbLine
 10
42.47899011909452
 20
307.7244359757563
 30
0.0
 11
42.28072178750632
 21
307.7244359757563
 31
0.0
  0
LINE
  5
9AA
330
1F
100
AcDbEntity
  8
0
  6
CONTINUOUS
100
AcDbLine
 10
42.49211152284738
 20
307.9744346197517
 30
0.0
 11
44.47791244103927
 21
307.9744346197517
 31
0.0
  0
LINE
  5
9AB
330
1F
100
AcDbEntity
  8
0
  6
CONTINUOUS
100
AcDbLine
 10
44.47791244103927
 20
307.9744346197517
 30
0.0
 11
44.47791244103927
 21
307.7244359757563
 31
0.0
  0
LINE
  5
9AC
330
1F
100
AcDbEntity
  8
0
  6
CONTINUOUS
100
AcDbLine
 10
42.49211152284738
 20
307.9744346197517
 30
0.0
 11
42.49211152284738
 21
307.4744354691174
 31
0.0
  0
LINE
  5
9AD
330
1F
100
AcDbEntity
  8
0
  6
CONTINUOUS
100
AcDbLine
 10
45.00029546409314
 20
307.7244359757563
 30
0.0
 11
44.47791244103927
 21
307.7244359757563
 31
0.0
  0
LINE
  5
9AE
330
1F
100
AcDbEntity
  8
0
  6
CONTINUOUS
100
AcDbLine
 10
44.99932875126022
 20
308.1995501871965
 30
0.0
 11
44.99948567911428
 21
308.1995501871965
 31
0.0
  0
LINE
  5
9AF
330
1F
100
AcDbEntity
  8
0
  6
CONTINUOUS
100
AcDbLine
 10
44.99948474779126
 20
308.1455968078044
 30
0.0
 11
44.99942467748518
 21
308.1455968078044
 31
0.0
  0
LINE
  5
9B0
330
1F
100
AcDbEntity
  8
0
  6
CONTINUOUS
100
AcDbLine
 10
44.99950197725934
 20
308.1995501871965
 30
0.0
 11
44.99953783317821
 21
308.1995501871965
 31
0.0
  0
LINE
  5
9B1
330
1F
100
AcDbEntity
  8
0
  6
CONTINUOUS
100
AcDbLine
 10
44.99955645963039
 20
308.1995501871965
 30
0.0
 11
44.99959184988735
 21
308.1995501871965
 31
0.0
  0
LINE
  5
9B2
330
1F
100
AcDbEntity
  8
0
  6
CONTINUOUS
100
AcDbLine
 10
44.99961094200034
 20
308.1995501871965
 30
0.0
 11
44.99964633225839
 21
308.1995501871965
 31
0.0
  0
LINE
  5
9B3
330
1F
100
AcDbEntity
  8
0
  6
CONTINUOUS
100
AcDbLine
 10
44.99966309606429
 20
308.1995501871965
 30
0.0
 11
44.99981955825728
 21
308.1995501871965
 31
0.0
  0
LINE
  5
9B4
330
1F
100
AcDbEntity
  8
0
  6
CONTINUOUS
100
AcDbLine
 10
44.9998125733382
 20
308.1455968078044
 30
0.0
 11
44.99972363203233
 21
308.1455968078044
 31
0.0
  0
LINE
  5
9B5
330
1F
100
AcDbEntity
  8
0
  6
CONTINUOUS
100
AcDbLine
 10
44.99981955825728
 20
308.1995501871965
 30
0.0
 11
45.00000116615932
 21
308.1995501871965
 31
0.0
  0
LWPOLYLINE
  5
9B6
330
1F
100
AcDbEntity
  8
0
  6
CONTINUOUS
100
AcDbPolyline
 90
        9
 70
   128
 43
0.0
 10
44.99981955825728
 20
308.1995501871965
 10
44.99980884804744
 20
308.1190969552661
 10
44.99979720651549
 20
308.0584585424326
 10
44.99978463366026
 20
308.0187469478512
 10
44.9997720608064
 20
308.0006886031296
 10
44.99975948795122
 20
308.0046187843945
 10
44.99974738075729
 20
308.0304592605498
 10
44.99973527356428
 20
308.0777425076626
 10
44.99972363203233
 20
308.1455968078044
  0
LWPOLYLINE
  5
9B7
330
1F
100
AcDbEntity
  8
0
  6
CONTINUOUS
100
AcDbPolyline
 90
        9
 70
   128
 43
0.0
 10
44.99972363203233
 20
308.1455968078044
 10
44.99971897541946
 20
308.0213639642863
 10
44.9997115248384
 20
307.9238954689176
 10
44.99970221161333
 20
307.8646223749788
 10
44.9996915014035
 20
307.8504960741663
 10
44.9996812568554
 20
307.8831743206646
 10
44.99967240929025
 20
307.9588256534007
 10
44.99966589003224
 20
308.0685745682385
 10
44.99966309606429
 20
308.1995501871965
  0
LINE
  5
9B8
330
1F
100
AcDbEntity
  8
0
  6
CONTINUOUS
100
AcDbLine
 10
44.99966309606429
 20
308.1995501871965
 30
0.0
 11
44.99964633225839
 21
308.1995501871965
 31
0.0
  0
LWPOLYLINE
  5
9B9
330
1F
100
AcDbEntity
  8
0
  6
CONTINUOUS
100
AcDbPolyline
 90
        4
 70
   128
 43
0.0
 10
44.99961187332314
 20
307.9744346197517
 10
44.99961047633928
 20
308.0064926054142
 10
44.99960907935542
 20
308.1033129002717
 10
44.99961094200034
 20
308.1995501871965
  0
LWPOLYLINE
  5
9BA
330
1F
100
AcDbEntity
  8
0
  6
CONTINUOUS
100
AcDbPolyline
 90
        4
 70
   128
 43
0.0
 10
44.99964633225839
 20
308.1995501871965
 10
44.9996477292425
 20
308.1033129002717
 10
44.99964633225839
 20
308.0064926054142
 10
44.99964540093514
 20
307.9744346197517
  0
LINE
  5
9BB
330
1F
100
AcDbEntity
  8
0
  6
CONTINUOUS
100
AcDbLine
 10
44.99959184988735
 20
308.1995501871965
 30
0.0
 11
44.99961094200034
 21
308.1995501871965
 31
0.0
  0
LWPOLYLINE
  5
9BC
330
1F
100
AcDbEntity
  8
0
  6
CONTINUOUS
100
AcDbPolyline
 90
        4
 70
   128
 43
0.0
 10
44.9995573909523
 20
307.9744346197517
 10
44.99955599396844
 20
308.0064926054142
 10
44.99955459698434
 20
308.1033129002717
 10
44.99955645963039
 20
308.1995501871965
  0
LWPOLYLINE
  5
9BD
330
1F
100
AcDbEntity
  8
0
  6
CONTINUOUS
100
AcDbPolyline
 90
        4
 70
   128
 43
0.0
 10
44.99959184988735
 20
308.1995501871965
 10
44.99959371253337
 20
308.1033129002717
 10
44.99959231554931
 20
308.0064926054142
 10
44.9995909185652
 20
307.9744346197517
  0
LINE
  5
9BE
330
1F
100
AcDbEntity
  8
0
  6
CONTINUOUS
100
AcDbLine
 10
44.99953783317821
 20
308.1995501871965
 30
0.0
 11
44.99955645963039
 21
308.1995501871965
 31
0.0
  0
LWPOLYLINE
  5
9BF
330
1F
100
AcDbEntity
  8
0
  6
CONTINUOUS
100
AcDbPolyline
 90
        4
 70
   128
 43
0.0
 10
44.99950290858236
 20
307.9744346197517
 10
44.99950197725934
 20
308.0064926054142
 10
44.99950058027548
 20
308.1033129002717
 10
44.99950197725934
 20
308.1995501871965
  0
LWPOLYLINE
  5
9C0
330
1F
100
AcDbEntity
  8
0
  6
CONTINUOUS
100
AcDbPolyline
 90
        4
 70
   128
 43
0.0
 10
44.99953783317821
 20
308.1995501871965
 10
44.99953923016232
 20
308.1033129002717
 10
44.99953783317821
 20
308.0064926054142
 10
44.99953643619436
 20
307.9744346197517
  0
LINE
  5
9C1
330
1F
100
AcDbEntity
  8
0
  6
CONTINUOUS
100
AcDbLine
 10
44.99950197725934
 20
308.1995501871965
 30
0.0
 11
44.99948567911428
 21
308.1995501871965
 31
0.0
  0
LWPOLYLINE
  5
9C2
330
1F
100
AcDbEntity
  8
0
  6
CONTINUOUS
100
AcDbPolyline
 90
        3
 70
   128
 43
0.0
 10
44.99943212806624
 20
307.9744346197517
 10
44.99942933409829
 20
308.0213639642863
 10
44.99942467748518
 20
308.1455968078044
  0
LWPOLYLINE
  5
9C3
330
1F
100
AcDbEntity
  8
0
  6
CONTINUOUS
100
AcDbPolyline
 90
        3
 70
   128
 43
0.0
 10
44.99948567911428
 20
308.1995501871965
 10
44.99948241948527
 20
308.0685745682385
 10
44.99947729721156
 20
307.9744346197517
  0
LWPOLYLINE
  5
9C4
330
1F
100
AcDbEntity
  8
0
  6
CONTINUOUS
100
AcDbPolyline
 90
        9
 70
   128
 43
0.0
 10
44.99942467748518
 20
308.1455968078044
 10
44.9994130359532
 20
308.0777425076626
 10
44.99940092876022
 20
308.0304592605498
 10
44.99938882156627
 20
308.0046187843945
 10
44.99937624871154
 20
308.0006886031296
 10
44.99936367585744
 20
308.0187469478512
 10
44.99935110300225
 20
308.0584585424326
 10
44.99933946147052
 20
308.1190969552661
 10
44.99932875126022
 20
308.1995501871965
  0
LINE
  5
9C5
330
1F
100
AcDbEntity
  8
0
  6
CONTINUOUS
100
AcDbLine
 10
44.99886029600543
 20
308.1995501871965
 30
0.0
 11
44.99932875126022
 21
308.1995501871965
 31
0.0
  0
LINE
  5
9C6
330
1F
100
AcDbEntity
  8
0
  6
CONTINUOUS
100
AcDbLine
 10
44.99867542847437
 20
307.9744346197517
 30
0.0
 11
44.99867403149028
 21
308.1995501871965
 31
0.0
  0
LINE
  5
9C7
330
1F
100
AcDbEntity
  8
0
  6
CONTINUOUS
100
AcDbLine
 10
44.99886029600543
 20
308.1995501871965
 30
0.0
 11
44.99885843336028
 21
307.9744346197517
 31
0.0
  0
LINE
  5
9C8
330
1F
100
AcDbEntity
  8
0
  6
CONTINUOUS
100
AcDbLine
 10
45.00000116615932
 20
308.1995501871965
 30
0.0
 11
46.00007555470324
 21
308.1995501871965
 31
0.0
  0
LINE
  5
9C9
330
1F
100
AcDbEntity
  8
0
  6
CONTINUOUS
100
AcDbLine
 10
45.00000116615932
 20
308.1995501871965
 30
0.0
 11
45.00000116615932
 21
307.7244359757563
 31
0.0
  0
LINE
  5
9CA
330
1F
100
AcDbEntity
  8
0
  6
CONTINUOUS
100
AcDbLine
 10
44.29841258763713
 20
307.9744346197517
 30
0.0
 11
44.29841236461743
 21
308.2989495185366
 31
0.0
  0
LINE
  5
9CB
330
1F
100
AcDbEntity
  8
0
  6
CONTINUOUS
100
AcDbLine
 10
44.99843188762134
 20
308.1177949663065
 30
0.0
 11
44.99842024608938
 21
308.2007776703508
 31
0.0
  0
LINE
  5
9CC
330
1F
100
AcDbEntity
  8
0
  6
CONTINUOUS
100
AcDbLine
 10
44.99842024608938
 20
308.2007776703508
 30
0.0
 11
44.74842020511029
 21
308.2007776703508
 31
0.0
  0
LINE
  5
9CD
330
1F
100
AcDbEntity
  8
0
  6
CONTINUOUS
100
AcDbLine
 10
44.99843188762134
 20
307.9744346197517
 30
0.0
 11
44.99843188762134
 21
308.1177949663065
 31
0.0
  0
LINE
  5
9CE
330
1F
100
AcDbEntity
  8
0
  6
CONTINUOUS
100
AcDbLine
 10
44.99843188762134
 20
308.1177949663065
 30
0.0
 11
44.74843184664337
 21
308.1177949663065
 31
0.0
  0
LINE
  5
9CF
330
1F
100
AcDbEntity
  8
0
  6
CONTINUOUS
100
AcDbLine
 10
44.74841601415938
 20
308.2989495185366
 30
0.0
 11
44.74841647982043
 21
307.9744346197517
 31
0.0
  0
LINE
  5
9D0
330
1F
100
AcDbEntity
  8
0
  6
CONTINUOUS
100
AcDbLine
 10
44.74843184664337
 20
308.1177949663065
 30
0.0
 11
44.74842020511029
 21
308.2007776703508
 31
0.0
  0
LINE
  5
9D1
330
1F
100
AcDbEntity
  8
0
  6
CONTINUOUS
100
AcDbLine
 10
44.74843184664337
 20
307.9744346197517
 30
0.0
 11
44.74843184664337
 21
308.1177949663065
 31
0.0
  0
LINE
  5
9D2
330
1F
100
AcDbEntity
  8
0
  6
CONTINUOUS
100
AcDbLine
 10
32.68504918753524
 20
306.1596501376298
 30
0.0
 11
32.68504918753524
 21
307.4596507232453
 31
0.0
  0
LINE
  5
9D3
330
1F
100
AcDbEntity
  8
0
  6
CONTINUOUS
100
AcDbLine
 10
32.68515535830943
 20
307.4596507232453
 30
0.0
 11
32.68515535830943
 21
306.1596501376298
 31
0.0
  0
LINE
  5
9D4
330
1F
100
AcDbEntity
  8
0
  6
CONTINUOUS
100
AcDbLine
 10
32.71240958213228
 20
306.1596501376298
 30
0.0
 11
32.71240958213228
 21
307.4596507232453
 31
0.0
  0
LINE
  5
9D5
330
1F
100
AcDbEntity
  8
0
  6
CONTINUOUS
100
AcDbLine
 10
33.50483284532423
 20
307.4596507232453
 30
0.0
 11
33.50483284532423
 21
306.1596501376298
 31
0.0
  0
LINE
  5
9D6
330
1F
100
AcDbEntity
  8
0
  6
CONTINUOUS
100
AcDbLine
 10
34.00029645502036
 20
302.7946363892223
 30
0.0
 11
34.00029645502036
 21
307.9744346197517
 31
0.0
  0
LINE
  5
9D7
330
1F
100
AcDbEntity
  8
0
  6
CONTINUOUS
100
AcDbLine
 10
35.75799924522061
 20
304.7214915733606
 30
0.0
 11
35.91630545645443
 21
304.5631071310304
 31
0.0
  0
LINE
  5
9D8
330
1F
100
AcDbEntity
  8
0
  6
CONTINUOUS
100
AcDbLine
 10
34.4242289030492
 20
303.8022463898923
 30
0.0
 11
35.91630545645443
 21
303.8022463898923
 31
0.0
  0
LINE
  5
9D9
330
1F
100
AcDbEntity
  8
0
  6
CONTINUOUS
100
AcDbLine
 10
35.75799924522061
 20
303.9606308322218
 30
0.0
 11
35.91630545645443
 21
303.8022463898923
 31
0.0
  0
LINE
  5
9DA
330
1F
100
AcDbEntity
  8
0
  6
CONTINUOUS
100
AcDbLine
 10
35.82321976512139
 20
305.1906509082586
 30
0.0
 11
34.46728394567435
 21
305.1906509082586
 31
0.0
  0
LINE
  5
9DB
330
1F
100
AcDbEntity
  8
0
  6
CONTINUOUS
100
AcDbLine
 10
34.46728394567435
 20
307.0308493207958
 30
0.0
 11
35.82321976512139
 21
307.0308493207958
 31
0.0
  0
LINE
  5
9DC
330
1F
100
AcDbEntity
  8
0
  6
CONTINUOUS
100
AcDbLine
 10
36.33111466854234
 20
304.7214915733606
 30
0.0
 11
35.75799924522061
 21
304.7214915733606
 31
0.0
  0
LINE
  5
9DD
330
1F
100
AcDbEntity
  8
0
  6
CONTINUOUS
100
AcDbLine
 10
35.8230642342512
 20
305.1906509082586
 30
0.0
 11
35.8230642342512
 21
307.0308493207958
 31
0.0
  0
LINE
  5
9DE
330
1F
100
AcDbEntity
  8
0
  6
CONTINUOUS
100
AcDbLine
 10
36.48942181109828
 20
306.5887756403353
 30
0.0
 11
36.48942181109828
 21
304.5631071310304
 31
0.0
  0
LINE
  5
9DF
330
1F
100
AcDbEntity
  8
0
  6
CONTINUOUS
100
AcDbLine
 10
36.33111466854234
 20
306.7471600826643
 30
0.0
 11
36.48942181109828
 21
306.5887756403353
 31
0.0
  0
LINE
  5
9E0
330
1F
100
AcDbEntity
  8
0
  6
CONTINUOUS
100
AcDbLine
 10
35.91630545645443
 20
303.8022463898923
 30
0.0
 11
35.91630545645443
 21
304.5631071310304
 31
0.0
  0
LINE
  5
9E1
330
1F
100
AcDbEntity
  8
0
  6
CONTINUOUS
100
AcDbLine
 10
35.91630545645443
 20
304.5631071310304
 30
0.0
 11
36.48942181109828
 21
304.5631071310304
 31
0.0
  0
LINE
  5
9E2
330
1F
100
AcDbEntity
  8
0
  6
CONTINUOUS
100
AcDbLine
 10
36.33111466854234
 20
304.7214915733606
 30
0.0
 11
36.48942181109828
 21
304.5631071310304
 31
0.0
  0
LINE
  5
9E3
330
1F
100
AcDbEntity
  8
0
  6
CONTINUOUS
100
AcDbLine
 10
35.82321976512139
 20
305.1906509082586
 30
0.0
 11
35.82321976512139
 21
307.0308493207958
 31
0.0
  0
LINE
  5
9E4
330
1F
100
AcDbEntity
  8
0
  6
CONTINUOUS
100
AcDbLine
 10
36.33111466854234
 20
306.7471600826643
 30
0.0
 11
36.33111466854234
 21
304.7214915733606
 31
0.0
  0
LINE
  5
9E5
330
1F
100
AcDbEntity
  8
0
  6
CONTINUOUS
100
AcDbLine
 10
34.4242289030492
 20
302.6362519468925
 30
0.0
 11
34.4242289030492
 21
303.8022463898923
 31
0.0
  0
LINE
  5
9E6
330
1F
100
AcDbEntity
  8
0
  6
CONTINUOUS
100
AcDbLine
 10
34.26592082917135
 20
303.9606308322218
 30
0.0
 11
34.26592082917135
 21
302.7946363892223
 31
0.0
  0
ELLIPSE
  5
9E7
330
1F
100
AcDbEntity
  8
0
  6
CONTINUOUS
100
AcDbEllipse
 10
34.00025681529427
 20
302.7154444260844
 30
0.0
 11
-0.4999999999990055
 21
-0.0000063045229694
 31
0.0
210
0.0
220
0.0
230
1.0
 40
0.1583844398229839
 41
4.712309370001235
 42
5.087865880909347
  0
LINE
  5
9E8
330
1F
100
AcDbEntity
  8
0
  6
CONTINUOUS
100
AcDbLine
 10
33.96968760728237
 20
302.6362519468925
 30
0.0
 11
33.81689855098125
 21
302.7891173716457
 31
0.0
  0
LINE
  5
9E9
330
1F
100
AcDbEntity
  8
0
  6
CONTINUOUS
100
AcDbLine
 10
33.96968760728237
 20
302.6362519468925
 30
0.0
 11
34.4242289030492
 21
302.6362519468925
 31
0.0
  0
LINE
  5
9EA
330
1F
100
AcDbEntity
  8
0
  6
CONTINUOUS
100
AcDbLine
 10
34.26592082917135
 20
302.7946363892223
 30
0.0
 11
34.4242289030492
 21
302.6362519468925
 31
0.0
  0
LINE
  5
9EB
330
1F
100
AcDbEntity
  8
0
  6
CONTINUOUS
100
AcDbLine
 10
34.26592082917135
 20
302.7946363892223
 30
0.0
 11
34.00029645502036
 21
302.7946363892223
 31
0.0
  0
LINE
  5
9EC
330
1F
100
AcDbEntity
  8
0
  6
CONTINUOUS
100
AcDbLine
 10
32.68504918753524
 20
306.1596501376298
 30
0.0
 11
32.68515535830943
 21
306.1596501376298
 31
0.0
  0
LINE
  5
9ED
330
1F
100
AcDbEntity
  8
0
  6
CONTINUOUS
100
AcDbLine
 10
32.68515535830943
 20
306.1596501376298
 30
0.0
 11
32.71240958213228
 21
306.1596501376298
 31
0.0
  0
LINE
  5
9EE
330
1F
100
AcDbEntity
  8
0
  6
CONTINUOUS
100
AcDbLine
 10
33.50483284532423
 20
306.1596501376298
 30
0.0
 11
32.71240958213228
 21
306.1596501376298
 31
0.0
  0
LINE
  5
9EF
330
1F
100
AcDbEntity
  8
0
  6
CONTINUOUS
100
AcDbLine
 10
35.72321993499439
 20
305.2906507383845
 30
0.0
 11
34.56728377580132
 21
305.2906507383845
 31
0.0
  0
LINE
  5
9F0
330
1F
100
AcDbEntity
  8
0
  6
CONTINUOUS
100
AcDbLine
 10
35.72321993499439
 20
306.9308494906686
 30
0.0
 11
35.72321993499439
 21
305.2906507383845
 31
0.0
  0
LINE
  5
9F1
330
1F
100
AcDbEntity
  8
0
  6
CONTINUOUS
100
AcDbLine
 10
34.56728377580132
 20
306.9308494906686
 30
0.0
 11
35.72321993499439
 21
306.9308494906686
 31
0.0
  0
LINE
  5
9F2
330
1F
100
AcDbEntity
  8
0
  6
CONTINUOUS
100
AcDbLine
 10
34.56712731360835
 20
305.2906507383845
 30
0.0
 11
34.56712731360835
 21
306.9308494906686
 31
0.0
  0
LINE
  5
9F3
330
1F
100
AcDbEntity
  8
0
  6
CONTINUOUS
100
AcDbLine
 10
34.56712731360835
 20
305.2906507383845
 30
0.0
 11
34.56728377580132
 21
305.2906507383845
 31
0.0
  0
LINE
  5
9F4
330
1F
100
AcDbEntity
  8
0
  6
CONTINUOUS
100
AcDbLine
 10
34.56728377580132
 20
305.2906507383845
 30
0.0
 11
34.56728377580132
 21
306.9308494906686
 31
0.0
  0
LINE
  5
9F5
330
1F
100
AcDbEntity
  8
0
  6
CONTINUOUS
100
AcDbLine
 10
34.56728377580132
 20
306.9308494906686
 30
0.0
 11
34.56712731360835
 21
306.9308494906686
 31
0.0
  0
LINE
  5
9F6
330
1F
100
AcDbEntity
  8
0
  6
CONTINUOUS
100
AcDbLine
 10
34.26592082917135
 20
303.9606308322218
 30
0.0
 11
34.4242289030492
 21
303.8022463898923
 31
0.0
  0
LINE
  5
9F7
330
1F
100
AcDbEntity
  8
0
  6
CONTINUOUS
100
AcDbLine
 10
34.46728394567435
 20
307.0308493207958
 30
0.0
 11
34.46728394567435
 21
305.1906509082586
 31
0.0
  0
LINE
  5
9F8
330
1F
100
AcDbEntity
  8
0
  6
CONTINUOUS
100
AcDbLine
 10
35.75799924522061
 20
303.9606308322218
 30
0.0
 11
34.26592082917135
 21
303.9606308322218
 31
0.0
  0
LINE
  5
9F9
330
1F
100
AcDbEntity
  8
0
  6
CONTINUOUS
100
AcDbLine
 10
35.75799924522061
 20
304.7214915733606
 30
0.0
 11
35.75799924522061
 21
303.9606308322218
 31
0.0
  0
LINE
  5
9FA
330
1F
100
AcDbEntity
  8
0
  6
CONTINUOUS
100
AcDbLine
 10
34.00029645502036
 20
307.9744346197517
 30
0.0
 11
36.23998661726114
 21
307.9744346197517
 31
0.0
  0
LINE
  5
9FB
330
1F
100
AcDbEntity
  8
0
  6
CONTINUOUS
100
AcDbLine
 10
36.48198520034042
 20
307.9744346197517
 30
0.0
 11
36.48198520034042
 21
307.8828558083446
 31
0.0
  0
LINE
  5
9FC
330
1F
100
AcDbEntity
  8
0
  6
CONTINUOUS
100
AcDbLine
 10
36.49605469047446
 20
307.9744346197517
 30
0.0
 11
36.48198520034042
 21
307.9744346197517
 31
0.0
  0
LINE
  5
9FD
330
1F
100
AcDbEntity
  8
0
  6
CONTINUOUS
100
AcDbLine
 10
40.63683034121459
 20
307.7191237117915
 30
0.0
 11
40.72590908504753
 21
308.2989495185366
 31
0.0
  0
LINE
  5
9FE
330
1F
100
AcDbEntity
  8
0
  6
CONTINUOUS
100
AcDbLine
 10
36.45683017759938
 20
307.7191237117915
 30
0.0
 11
36.54590892143232
 21
308.2989495185356
 31
0.0
  0
LINE
  5
9FF
330
1F
100
AcDbEntity
  8
0
  6
CONTINUOUS
100
AcDbLine
 10
38.02671853015522
 20
308.2989495185366
 30
0.0
 11
38.10140614598434
 21
307.7191237117915
 31
0.0
  0
LINE
  5
A00
330
1F
100
AcDbEntity
  8
0
  6
CONTINUOUS
100
AcDbLine
 10
40.6376471111123
 20
307.7244359757563
 30
0.0
 11
40.43964700042624
 21
307.7244359757563
 31
0.0
  0
LINE
  5
A01
330
1F
100
AcDbEntity
  8
0
  6
CONTINUOUS
100
AcDbLine
 10
40.67605392276639
 20
307.9744346197517
 30
0.0
 11
40.42399705588239
 21
307.9744346197517
 31
0.0
  0
ELLIPSE
  5
A02
330
1F
100
AcDbEntity
  8
0
  6
CONTINUOUS
100
AcDbEllipse
 10
40.43964715421657
 20
307.4744354296643
 30
0.0
 11
0.0
 21
0.25
 31
0.0
210
0.0
220
0.0
230
1.0
 40
0.0625986046035223
 41
0.0
 42
1.570796326794896
  0
LINE
  5
A03
330
1F
100
AcDbEntity
  8
0
  6
CONTINUOUS
100
AcDbLine
 10
38.30810108422634
 20
307.9744346197517
 30
0.0
 11
38.06851928322931
 21
307.9744346197517
 31
0.0
  0
ELLIPSE
  5
A04
330
1F
100
AcDbEntity
  8
0
  6
CONTINUOUS
100
AcDbEllipse
 10
38.29241219858317
 20
307.4744354296643
 30
0.0
 11
0.0
 21
0.25
 31
0.0
210
0.0
220
0.0
230
1.0
 40
0.0627538312166962
 41
4.71238898038469
 42
6.283185307179584
  0
LINE
  5
A05
330
1F
100
AcDbEntity
  8
0
  6
CONTINUOUS
100
AcDbLine
 10
38.10072162389246
 20
307.7244359757563
 30
0.0
 11
38.29241202413435
 21
307.7244359757563
 31
0.0
  0
LINE
  5
A06
330
1F
100
AcDbEntity
  8
0
  6
CONTINUOUS
100
AcDbLine
 10
36.45683017759938
 20
307.7191237117915
 30
0.0
 11
38.10140614598434
 21
307.7191237117915
 31
0.0
  0
LINE
  5
A07
330
1F
100
AcDbEntity
  8
0
  6
CONTINUOUS
100
AcDbLine
 10
36.25306983678934
 20
307.7244359757563
 30
0.0
 11
36.45764694749755
 21
307.7244359757563
 31
0.0
  0
LINE
  5
A08
330
1F
100
AcDbEntity
  8
0
  6
CONTINUOUS
100
AcDbLine
 10
36.48198520034042
 20
307.9744346197517
 30
0.0
 11
36.23998661726114
 21
307.9744346197517
 31
0.0
  0
ELLIPSE
  5
A09
330
1F
100
AcDbEntity
  8
0
  6
CONTINUOUS
100
AcDbEllipse
 10
36.25306944199337
 20
307.4744354296643
 30
0.0
 11
0.0
 21
0.25
 31
0.0
210
0.0
220
0.0
230
1.0
 40
0.0523301658186028
 41
0.0
 42
1.570796326794896
  0
LINE
  5
A0A
330
1F
100
AcDbEntity
  8
0
  6
CONTINUOUS
100
AcDbLine
 10
38.30810108422634
 20
307.9744346197517
 30
0.0
 11
40.42399705588239
 21
307.9744346197517
 31
0.0
  0
LINE
  5
A0B
330
1F
100
AcDbEntity
  8
0
  6
CONTINUOUS
100
AcDbLine
 10
40.42399705588239
 20
307.4744354691174
 30
0.0
 11
40.42399705588239
 21
307.9744346197517
 31
0.0
  0
LINE
  5
A0C
330
1F
100
AcDbEntity
  8
0
  6
CONTINUOUS
100
AcDbLine
 10
38.30810108422634
 20
307.9744346197517
 30
0.0
 11
38.30810108422634
 21
307.4744354691174
 31
0.0
  0
LINE
  5
A0D
330
1F
100
AcDbEntity
  8
0
  6
CONTINUOUS
100
AcDbLine
 10
36.23998661726114
 20
307.4744354691174
 30
0.0
 11
38.30810108422634
 21
307.4744354691174
 31
0.0
  0
LINE
  5
A0E
330
1F
100
AcDbEntity
  8
0
  6
CONTINUOUS
100
AcDbLine
 10
36.23998661726114
 20
307.4744354691174
 30
0.0
 11
36.23998661726114
 21
307.9744346197517
 31
0.0
  0
LINE
  5
A0F
330
1F
100
AcDbEntity
  8
0
  6
CONTINUOUS
100
AcDbLine
 10
33.49984840690535
 20
307.9744346197517
 30
0.0
 11
33.70856897174735
 21
307.9744346197517
 31
0.0
  0
LINE
  5
A10
330
1F
100
AcDbEntity
  8
0
  6
CONTINUOUS
100
AcDbLine
 10
32.68504918753524
 20
307.4596507232453
 30
0.0
 11
32.68515535830943
 21
307.4596507232453
 31
0.0
  0
LINE
  5
A11
330
1F
100
AcDbEntity
  8
0
  6
CONTINUOUS
100
AcDbLine
 10
32.68515535830943
 20
307.4596507232453
 30
0.0
 11
32.71240958213228
 21
307.4596507232453
 31
0.0
  0
LINE
  5
A12
330
1F
100
AcDbEntity
  8
0
  6
CONTINUOUS
100
AcDbLine
 10
33.49920951961939
 20
307.7244359757563
 30
0.0
 11
33.49922814607042
 21
307.7244359757563
 31
0.0
  0
LINE
  5
A13
330
1F
100
AcDbEntity
  8
0
  6
CONTINUOUS
100
AcDbLine
 10
33.49984840690535
 20
307.7244359757563
 30
0.0
 11
33.50025632619348
 21
307.7244359757563
 31
0.0
  0
LINE
  5
A14
330
1F
100
AcDbEntity
  8
0
  6
CONTINUOUS
100
AcDbLine
 10
33.49984840690535
 20
307.7244359757563
 30
0.0
 11
33.49984840690535
 21
307.9744346197517
 31
0.0
  0
LINE
  5
A15
330
1F
100
AcDbEntity
  8
0
  6
CONTINUOUS
100
AcDbLine
 10
33.49984840690535
 20
307.9744346197517
 30
0.0
 11
33.49922814607042
 21
307.9744346197517
 31
0.0
  0
LINE
  5
A16
330
1F
100
AcDbEntity
  8
0
  6
CONTINUOUS
100
AcDbLine
 10
33.49922814607042
 20
307.9744346197517
 30
0.0
 11
33.49922814607042
 21
307.7244359757563
 31
0.0
  0
LINE
  5
A17
330
1F
100
AcDbEntity
  8
0
  6
CONTINUOUS
100
AcDbLine
 10
33.49920951961939
 20
307.7244359757563
 30
0.0
 11
33.49920951961939
 21
307.4596507232453
 31
0.0
  0
LINE
  5
A18
330
1F
100
AcDbEntity
  8
0
  6
CONTINUOUS
100
AcDbLine
 10
32.71240958213228
 20
307.4596507232453
 30
0.0
 11
33.50483284532423
 21
307.4596507232453
 31
0.0
  0
LINE
  5
A19
330
1F
100
AcDbEntity
  8
0
  6
CONTINUOUS
100
AcDbLine
 10
33.70899179219644
 20
307.9744346197517
 30
0.0
 11
33.70856897174735
 21
307.9744346197517
 31
0.0
  0
LINE
  5
A1A
330
1F
100
AcDbEntity
  8
0
  6
CONTINUOUS
100
AcDbLine
 10
33.70856897174735
 20
307.9744346197517
 30
0.0
 11
33.70856897174735
 21
307.7244359757563
 31
0.0
  0
LINE
  5
A1B
330
1F
100
AcDbEntity
  8
0
  6
CONTINUOUS
100
AcDbLine
 10
34.00029645502036
 20
307.9744346197517
 30
0.0
 11
33.70899179219644
 21
307.9744346197517
 31
0.0
  0
LINE
  5
A1C
330
1F
100
AcDbEntity
  8
0
  6
CONTINUOUS
100
AcDbLine
 10
33.70899179219644
 20
307.9744346197517
 30
0.0
 11
33.70899179219644
 21
307.7244359757563
 31
0.0
  0
LINE
  5
A1D
330
1F
100
AcDbEntity
  8
0
  6
CONTINUOUS
100
AcDbLine
 10
33.50025632619348
 20
307.7244359757563
 30
0.0
 11
33.70899179219644
 21
307.7244359757563
 31
0.0
  0
LINE
  5
A1E
330
1F
100
AcDbEntity
  8
0
  6
CONTINUOUS
100
AcDbLine
 10
33.50025632619348
 20
307.7244359757563
 30
0.0
 11
33.50025632619348
 21
307.4596507232453
 31
0.0
  0
TEXT
  5
AE7
330
1F
100
AcDbEntity
  8
0
100
AcDbText
 10
-3.36081764916107
 20
389.9564286977794
 30
0.0
 40
10.0
  1
SCON-CA-20I~300I-EC-*-1/2
100
AcDbText
  0
LINE
  5
B19
330
1F
100
AcDbEntity
  8
0
100
AcDbLine
 10
279.0000012421543
 20
364.8428846059883
 30
0.0
 11
279.0000012421543
 21
171.1047438216805
 31
0.0
  0
LINE
  5
B1A
330
1F
100
AcDbEntity
  8
0
100
AcDbLine
 10
274.0000012421543
 20
170.9738142138343
 30
0.0
 11
274.0000012421543
 21
180.9738142138344
 31
0.0
  0
LINE
  5
B1B
330
1F
100
AcDbEntity
  8
0
100
AcDbLine
 10
158.000001242155
 20
180.9738142138344
 30
0.0
 11
158.000001242155
 21
354.9738142138343
 31
0.0
  0
LINE
  5
B1C
330
1F
100
AcDbEntity
  8
0
100
AcDbLine
 10
158.000001242155
 20
354.9738142138343
 30
0.0
 11
274.0000012421543
 21
354.9738142138343
 31
0.0
  0
LINE
  5
B1D
330
1F
100
AcDbEntity
  8
0
100
AcDbLine
 10
158.000001242155
 20
180.9738142138344
 30
0.0
 11
274.0000012421543
 21
180.9738142138344
 31
0.0
  0
LINE
  5
B1E
330
1F
100
AcDbEntity
  8
0
100
AcDbLine
 10
274.0000012421543
 20
364.9738142138343
 30
0.0
 11
279.0000012421543
 21
364.8428846059883
 31
0.0
  0
LINE
  5
B1F
330
1F
100
AcDbEntity
  8
0
100
AcDbLine
 10
275.4140410068909
 20
364.9367862794594
 30
0.0
 11
275.4140410068901
 21
171.0108421482094
 31
0.0
  0
LINE
  5
B20
330
1F
100
AcDbEntity
  8
0
100
AcDbLine
 10
274.0000012421543
 20
170.9738142138343
 30
0.0
 11
279.0000012421543
 21
171.1047438216805
 31
0.0
  0
LINE
  5
B21
330
1F
100
AcDbEntity
  8
0
100
AcDbLine
 10
158.000001242155
 20
180.9738142138344
 30
0.0
 11
158.000001242155
 21
354.9738142138343
 31
0.0
  0
LINE
  5
B22
330
1F
100
AcDbEntity
  8
0
100
AcDbLine
 10
158.000001242155
 20
354.9738142138343
 30
0.0
 11
275.3878550853231
 21
354.9738142138343
 31
0.0
  0
LINE
  5
B23
330
1F
100
AcDbEntity
  8
0
100
AcDbLine
 10
175.000001242155
 20
180.9738142138344
 30
0.0
 11
175.000001242155
 21
354.9738142138343
 31
0.0
  0
LINE
  5
B24
330
1F
100
AcDbEntity
  8
0
100
AcDbLine
 10
257.000001242155
 20
180.9738142138344
 30
0.0
 11
257.000001242155
 21
354.9738142138343
 31
0.0
  0
LINE
  5
B25
330
1F
100
AcDbEntity
  8
0
100
AcDbLine
 10
175.000001242155
 20
353.9738142138343
 30
0.0
 11
257.000001242155
 21
353.9738142138343
 31
0.0
  0
LINE
  5
B26
330
1F
100
AcDbEntity
  8
0
100
AcDbLine
 10
180.000001242155
 20
351.9738142138344
 30
0.0
 11
182.000001242155
 21
351.9738142138344
 31
0.0
  0
LINE
  5
B27
330
1F
100
AcDbEntity
  8
0
100
AcDbLine
 10
180.000001242155
 20
181.9738142138344
 30
0.0
 11
180.000001242155
 21
235.2238142138344
 31
0.0
  0
LINE
  5
B28
330
1F
100
AcDbEntity
  8
0
100
AcDbLine
 10
182.000001242155
 20
181.9738142138344
 30
0.0
 11
182.000001242155
 21
235.2238142138344
 31
0.0
  0
LINE
  5
B29
330
1F
100
AcDbEntity
  8
0
100
AcDbLine
 10
180.000001242155
 20
300.7238142138343
 30
0.0
 11
182.000001242155
 21
300.7238142138343
 31
0.0
  0
LINE
  5
B2A
330
1F
100
AcDbEntity
  8
0
100
AcDbLine
 10
180.000001242155
 20
235.2238142138344
 30
0.0
 11
182.000001242155
 21
235.2238142138344
 31
0.0
  0
LINE
  5
B2B
330
1F
100
AcDbEntity
  8
0
100
AcDbLine
 10
175.000001242155
 20
181.9738142138344
 30
0.0
 11
257.000001242155
 21
181.9738142138344
 31
0.0
  0
LINE
  5
B2C
330
1F
100
AcDbEntity
  8
0
100
AcDbLine
 10
180.000001242155
 20
183.9738142138345
 30
0.0
 11
182.000001242155
 21
183.9738142138345
 31
0.0
  0
LINE
  5
B2D
330
1F
100
AcDbEntity
  8
0
100
AcDbLine
 10
180.000001242155
 20
300.7238142138343
 30
0.0
 11
180.000001242155
 21
353.9738142138343
 31
0.0
  0
LINE
  5
B2E
330
1F
100
AcDbEntity
  8
0
100
AcDbLine
 10
182.000001242155
 20
300.7238142138343
 30
0.0
 11
182.000001242155
 21
353.9738142138343
 31
0.0
  0
LINE
  5
B2F
330
1F
100
AcDbEntity
  8
0
100
AcDbLine
 10
187.000001242155
 20
351.9738142138344
 30
0.0
 11
189.0000012421553
 21
351.9738142138344
 31
0.0
  0
LINE
  5
B30
330
1F
100
AcDbEntity
  8
0
100
AcDbLine
 10
187.000001242155
 20
181.9738142138344
 30
0.0
 11
187.000001242155
 21
235.2238142138344
 31
0.0
  0
LINE
  5
B31
330
1F
100
AcDbEntity
  8
0
100
AcDbLine
 10
189.0000012421553
 20
181.9738142138344
 30
0.0
 11
189.0000012421553
 21
235.2238142138344
 31
0.0
  0
LINE
  5
B32
330
1F
100
AcDbEntity
  8
0
100
AcDbLine
 10
187.000001242155
 20
300.7238142138343
 30
0.0
 11
189.0000012421553
 21
300.7238142138343
 31
0.0
  0
LINE
  5
B33
330
1F
100
AcDbEntity
  8
0
100
AcDbLine
 10
187.000001242155
 20
235.2238142138344
 30
0.0
 11
189.0000012421553
 21
235.2238142138344
 31
0.0
  0
LINE
  5
B34
330
1F
100
AcDbEntity
  8
0
100
AcDbLine
 10
187.000001242155
 20
183.9738142138345
 30
0.0
 11
189.0000012421553
 21
183.9738142138345
 31
0.0
  0
LINE
  5
B35
330
1F
100
AcDbEntity
  8
0
100
AcDbLine
 10
187.000001242155
 20
300.7238142138343
 30
0.0
 11
187.000001242155
 21
353.9738142138343
 31
0.0
  0
LINE
  5
B36
330
1F
100
AcDbEntity
  8
0
100
AcDbLine
 10
189.0000012421553
 20
300.7238142138343
 30
0.0
 11
189.0000012421553
 21
353.9738142138343
 31
0.0
  0
LINE
  5
B37
330
1F
100
AcDbEntity
  8
0
100
AcDbLine
 10
194.0000012421553
 20
351.9738142138344
 30
0.0
 11
196.000001242155
 21
351.9738142138344
 31
0.0
  0
LINE
  5
B38
330
1F
100
AcDbEntity
  8
0
100
AcDbLine
 10
194.0000012421553
 20
181.9738142138344
 30
0.0
 11
194.0000012421553
 21
235.2238142138344
 31
0.0
  0
LINE
  5
B39
330
1F
100
AcDbEntity
  8
0
100
AcDbLine
 10
196.000001242155
 20
181.9738142138344
 30
0.0
 11
196.000001242155
 21
235.2238142138344
 31
0.0
  0
LINE
  5
B3A
330
1F
100
AcDbEntity
  8
0
100
AcDbLine
 10
194.0000012421553
 20
300.7238142138343
 30
0.0
 11
196.000001242155
 21
300.7238142138343
 31
0.0
  0
LINE
  5
B3B
330
1F
100
AcDbEntity
  8
0
100
AcDbLine
 10
194.0000012421553
 20
235.2238142138344
 30
0.0
 11
196.000001242155
 21
235.2238142138344
 31
0.0
  0
LINE
  5
B3C
330
1F
100
AcDbEntity
  8
0
100
AcDbLine
 10
194.0000012421553
 20
183.9738142138345
 30
0.0
 11
196.000001242155
 21
183.9738142138345
 31
0.0
  0
LINE
  5
B3D
330
1F
100
AcDbEntity
  8
0
100
AcDbLine
 10
194.0000012421553
 20
300.7238142138343
 30
0.0
 11
194.0000012421553
 21
353.9738142138343
 31
0.0
  0
LINE
  5
B3E
330
1F
100
AcDbEntity
  8
0
100
AcDbLine
 10
196.000001242155
 20
300.7238142138343
 30
0.0
 11
196.000001242155
 21
353.9738142138343
 31
0.0
  0
LINE
  5
B3F
330
1F
100
AcDbEntity
  8
0
100
AcDbLine
 10
201.0000012421552
 20
181.9738142138344
 30
0.0
 11
201.0000012421552
 21
235.2238142138344
 31
0.0
  0
LINE
  5
B40
330
1F
100
AcDbEntity
  8
0
100
AcDbLine
 10
203.0000012421552
 20
181.9738142138344
 30
0.0
 11
203.0000012421552
 21
235.2238142138344
 31
0.0
  0
LINE
  5
B41
330
1F
100
AcDbEntity
  8
0
100
AcDbLine
 10
201.0000012421552
 20
300.7238142138343
 30
0.0
 11
203.0000012421552
 21
300.7238142138343
 31
0.0
  0
LINE
  5
B42
330
1F
100
AcDbEntity
  8
0
100
AcDbLine
 10
201.0000012421552
 20
235.2238142138344
 30
0.0
 11
203.0000012421552
 21
235.2238142138344
 31
0.0
  0
LINE
  5
B43
330
1F
100
AcDbEntity
  8
0
100
AcDbLine
 10
201.0000012421552
 20
183.9738142138345
 30
0.0
 11
203.0000012421552
 21
183.9738142138345
 31
0.0
  0
LINE
  5
B44
330
1F
100
AcDbEntity
  8
0
100
AcDbLine
 10
201.0000012421552
 20
300.7238142138343
 30
0.0
 11
201.0000012421552
 21
353.9738142138343
 31
0.0
  0
LINE
  5
B45
330
1F
100
AcDbEntity
  8
0
100
AcDbLine
 10
203.0000012421552
 20
300.7238142138343
 30
0.0
 11
203.0000012421552
 21
353.9738142138343
 31
0.0
  0
LINE
  5
B46
330
1F
100
AcDbEntity
  8
0
100
AcDbLine
 10
208.000001242155
 20
351.9738142138344
 30
0.0
 11
210.000001242155
 21
351.9738142138344
 31
0.0
  0
LINE
  5
B47
330
1F
100
AcDbEntity
  8
0
100
AcDbLine
 10
208.000001242155
 20
181.9738142138344
 30
0.0
 11
208.000001242155
 21
235.2238142138344
 31
0.0
  0
LINE
  5
B48
330
1F
100
AcDbEntity
  8
0
100
AcDbLine
 10
210.000001242155
 20
181.9738142138344
 30
0.0
 11
210.000001242155
 21
235.2238142138344
 31
0.0
  0
LINE
  5
B49
330
1F
100
AcDbEntity
  8
0
100
AcDbLine
 10
208.000001242155
 20
300.7238142138343
 30
0.0
 11
210.000001242155
 21
300.7238142138343
 31
0.0
  0
LINE
  5
B4A
330
1F
100
AcDbEntity
  8
0
100
AcDbLine
 10
208.000001242155
 20
235.2238142138344
 30
0.0
 11
210.000001242155
 21
235.2238142138344
 31
0.0
  0
LINE
  5
B4B
330
1F
100
AcDbEntity
  8
0
100
AcDbLine
 10
208.000001242155
 20
183.9738142138345
 30
0.0
 11
210.000001242155
 21
183.9738142138345
 31
0.0
  0
LINE
  5
B4C
330
1F
100
AcDbEntity
  8
0
100
AcDbLine
 10
208.000001242155
 20
300.7238142138343
 30
0.0
 11
208.000001242155
 21
353.9738142138343
 31
0.0
  0
LINE
  5
B4D
330
1F
100
AcDbEntity
  8
0
100
AcDbLine
 10
210.000001242155
 20
300.7238142138343
 30
0.0
 11
210.000001242155
 21
353.9738142138343
 31
0.0
  0
LINE
  5
B4E
330
1F
100
AcDbEntity
  8
0
100
AcDbLine
 10
215.0000012421553
 20
351.9738142138344
 30
0.0
 11
217.0000012421553
 21
351.9738142138344
 31
0.0
  0
LINE
  5
B4F
330
1F
100
AcDbEntity
  8
0
100
AcDbLine
 10
215.0000012421553
 20
181.9738142138344
 30
0.0
 11
215.0000012421553
 21
235.2238142138344
 31
0.0
  0
LINE
  5
B50
330
1F
100
AcDbEntity
  8
0
100
AcDbLine
 10
217.0000012421553
 20
181.9738142138344
 30
0.0
 11
217.0000012421553
 21
235.2238142138344
 31
0.0
  0
LINE
  5
B51
330
1F
100
AcDbEntity
  8
0
100
AcDbLine
 10
215.0000012421553
 20
300.7238142138343
 30
0.0
 11
217.0000012421553
 21
300.7238142138343
 31
0.0
  0
LINE
  5
B52
330
1F
100
AcDbEntity
  8
0
100
AcDbLine
 10
215.0000012421553
 20
235.2238142138344
 30
0.0
 11
217.0000012421553
 21
235.2238142138344
 31
0.0
  0
LINE
  5
B53
330
1F
100
AcDbEntity
  8
0
100
AcDbLine
 10
215.0000012421553
 20
183.9738142138345
 30
0.0
 11
217.0000012421553
 21
183.9738142138345
 31
0.0
  0
LINE
  5
B54
330
1F
100
AcDbEntity
  8
0
100
AcDbLine
 10
215.0000012421553
 20
300.7238142138343
 30
0.0
 11
215.0000012421553
 21
353.9738142138343
 31
0.0
  0
LINE
  5
B55
330
1F
100
AcDbEntity
  8
0
100
AcDbLine
 10
217.0000012421553
 20
300.7238142138343
 30
0.0
 11
217.0000012421553
 21
353.9738142138343
 31
0.0
  0
LINE
  5
B56
330
1F
100
AcDbEntity
  8
0
100
AcDbLine
 10
222.000001242155
 20
351.9738142138344
 30
0.0
 11
224.0000012421552
 21
351.9738142138344
 31
0.0
  0
LINE
  5
B57
330
1F
100
AcDbEntity
  8
0
100
AcDbLine
 10
222.000001242155
 20
181.9738142138344
 30
0.0
 11
222.000001242155
 21
235.2238142138344
 31
0.0
  0
LINE
  5
B58
330
1F
100
AcDbEntity
  8
0
100
AcDbLine
 10
224.0000012421552
 20
181.9738142138344
 30
0.0
 11
224.0000012421552
 21
235.2238142138344
 31
0.0
  0
LINE
  5
B59
330
1F
100
AcDbEntity
  8
0
100
AcDbLine
 10
222.000001242155
 20
300.7238142138343
 30
0.0
 11
224.0000012421552
 21
300.7238142138343
 31
0.0
  0
LINE
  5
B5A
330
1F
100
AcDbEntity
  8
0
100
AcDbLine
 10
222.000001242155
 20
235.2238142138344
 30
0.0
 11
224.0000012421552
 21
235.2238142138344
 31
0.0
  0
LINE
  5
B5B
330
1F
100
AcDbEntity
  8
0
100
AcDbLine
 10
222.000001242155
 20
183.9738142138345
 30
0.0
 11
224.0000012421552
 21
183.9738142138345
 31
0.0
  0
LINE
  5
B5C
330
1F
100
AcDbEntity
  8
0
100
AcDbLine
 10
222.000001242155
 20
300.7238142138343
 30
0.0
 11
222.000001242155
 21
353.9738142138343
 31
0.0
  0
LINE
  5
B5D
330
1F
100
AcDbEntity
  8
0
100
AcDbLine
 10
224.0000012421552
 20
300.7238142138343
 30
0.0
 11
224.0000012421552
 21
353.9738142138343
 31
0.0
  0
LINE
  5
B5E
330
1F
100
AcDbEntity
  8
0
100
AcDbLine
 10
229.0000012421553
 20
351.9738142138344
 30
0.0
 11
231.0000012421553
 21
351.9738142138344
 31
0.0
  0
LINE
  5
B5F
330
1F
100
AcDbEntity
  8
0
100
AcDbLine
 10
229.0000012421553
 20
181.9738142138344
 30
0.0
 11
229.0000012421553
 21
235.2238142138344
 31
0.0
  0
LINE
  5
B60
330
1F
100
AcDbEntity
  8
0
100
AcDbLine
 10
231.0000012421553
 20
181.9738142138344
 30
0.0
 11
231.0000012421553
 21
235.2238142138344
 31
0.0
  0
LINE
  5
B61
330
1F
100
AcDbEntity
  8
0
100
AcDbLine
 10
229.0000012421553
 20
300.7238142138343
 30
0.0
 11
231.0000012421553
 21
300.7238142138343
 31
0.0
  0
LINE
  5
B62
330
1F
100
AcDbEntity
  8
0
100
AcDbLine
 10
229.0000012421553
 20
235.2238142138344
 30
0.0
 11
231.0000012421553
 21
235.2238142138344
 31
0.0
  0
LINE
  5
B63
330
1F
100
AcDbEntity
  8
0
100
AcDbLine
 10
229.0000012421553
 20
183.9738142138345
 30
0.0
 11
231.0000012421553
 21
183.9738142138345
 31
0.0
  0
LINE
  5
B64
330
1F
100
AcDbEntity
  8
0
100
AcDbLine
 10
229.0000012421553
 20
300.7238142138343
 30
0.0
 11
229.0000012421553
 21
353.9738142138343
 31
0.0
  0
LINE
  5
B65
330
1F
100
AcDbEntity
  8
0
100
AcDbLine
 10
231.0000012421553
 20
300.7238142138343
 30
0.0
 11
231.0000012421553
 21
353.9738142138343
 31
0.0
  0
LINE
  5
B66
330
1F
100
AcDbEntity
  8
0
100
AcDbLine
 10
236.000001242155
 20
351.9738142138344
 30
0.0
 11
238.0000012421553
 21
351.9738142138344
 31
0.0
  0
LINE
  5
B67
330
1F
100
AcDbEntity
  8
0
100
AcDbLine
 10
236.000001242155
 20
181.9738142138344
 30
0.0
 11
236.000001242155
 21
235.2238142138344
 31
0.0
  0
LINE
  5
B68
330
1F
100
AcDbEntity
  8
0
100
AcDbLine
 10
238.0000012421553
 20
181.9738142138344
 30
0.0
 11
238.0000012421553
 21
235.2238142138344
 31
0.0
  0
LINE
  5
B69
330
1F
100
AcDbEntity
  8
0
100
AcDbLine
 10
236.000001242155
 20
300.7238142138343
 30
0.0
 11
238.0000012421553
 21
300.7238142138343
 31
0.0
  0
LINE
  5
B6A
330
1F
100
AcDbEntity
  8
0
100
AcDbLine
 10
236.000001242155
 20
235.2238142138344
 30
0.0
 11
238.0000012421553
 21
235.2238142138344
 31
0.0
  0
LINE
  5
B6B
330
1F
100
AcDbEntity
  8
0
100
AcDbLine
 10
236.000001242155
 20
183.9738142138345
 30
0.0
 11
238.0000012421553
 21
183.9738142138345
 31
0.0
  0
LINE
  5
B6C
330
1F
100
AcDbEntity
  8
0
100
AcDbLine
 10
236.000001242155
 20
300.7238142138343
 30
0.0
 11
236.000001242155
 21
353.9738142138343
 31
0.0
  0
LINE
  5
B6D
330
1F
100
AcDbEntity
  8
0
100
AcDbLine
 10
238.0000012421553
 20
300.7238142138343
 30
0.0
 11
238.0000012421553
 21
353.9738142138343
 31
0.0
  0
LINE
  5
B6E
330
1F
100
AcDbEntity
  8
0
100
AcDbLine
 10
243.000001242155
 20
351.9738142138344
 30
0.0
 11
245.000001242155
 21
351.9738142138344
 31
0.0
  0
LINE
  5
B6F
330
1F
100
AcDbEntity
  8
0
100
AcDbLine
 10
243.000001242155
 20
181.9738142138344
 30
0.0
 11
243.000001242155
 21
235.2238142138344
 31
0.0
  0
LINE
  5
B70
330
1F
100
AcDbEntity
  8
0
100
AcDbLine
 10
245.000001242155
 20
181.9738142138344
 30
0.0
 11
245.000001242155
 21
235.2238142138344
 31
0.0
  0
LINE
  5
B71
330
1F
100
AcDbEntity
  8
0
100
AcDbLine
 10
243.000001242155
 20
300.7238142138343
 30
0.0
 11
245.000001242155
 21
300.7238142138343
 31
0.0
  0
LINE
  5
B72
330
1F
100
AcDbEntity
  8
0
100
AcDbLine
 10
243.000001242155
 20
235.2238142138344
 30
0.0
 11
245.000001242155
 21
235.2238142138344
 31
0.0
  0
LINE
  5
B73
330
1F
100
AcDbEntity
  8
0
100
AcDbLine
 10
243.000001242155
 20
183.9738142138345
 30
0.0
 11
245.000001242155
 21
183.9738142138345
 31
0.0
  0
LINE
  5
B74
330
1F
100
AcDbEntity
  8
0
100
AcDbLine
 10
243.000001242155
 20
300.7238142138343
 30
0.0
 11
243.000001242155
 21
353.9738142138343
 31
0.0
  0
LINE
  5
B75
330
1F
100
AcDbEntity
  8
0
100
AcDbLine
 10
245.000001242155
 20
300.7238142138343
 30
0.0
 11
245.000001242155
 21
353.9738142138343
 31
0.0
  0
LINE
  5
B76
330
1F
100
AcDbEntity
  8
0
100
AcDbLine
 10
250.0000012421553
 20
351.9738142138344
 30
0.0
 11
252.000001242155
 21
351.9738142138344
 31
0.0
  0
LINE
  5
B77
330
1F
100
AcDbEntity
  8
0
100
AcDbLine
 10
250.0000012421553
 20
181.9738142138344
 30
0.0
 11
250.0000012421553
 21
235.2238142138344
 31
0.0
  0
LINE
  5
B78
330
1F
100
AcDbEntity
  8
0
100
AcDbLine
 10
252.000001242155
 20
181.9738142138344
 30
0.0
 11
252.000001242155
 21
235.2238142138344
 31
0.0
  0
LINE
  5
B79
330
1F
100
AcDbEntity
  8
0
100
AcDbLine
 10
250.0000012421553
 20
300.7238142138343
 30
0.0
 11
252.000001242155
 21
300.7238142138343
 31
0.0
  0
LINE
  5
B7A
330
1F
100
AcDbEntity
  8
0
100
AcDbLine
 10
250.0000012421553
 20
235.2238142138344
 30
0.0
 11
252.000001242155
 21
235.2238142138344
 31
0.0
  0
LINE
  5
B7B
330
1F
100
AcDbEntity
  8
0
100
AcDbLine
 10
250.0000012421553
 20
183.9738142138345
 30
0.0
 11
252.000001242155
 21
183.9738142138345
 31
0.0
  0
LINE
  5
B7C
330
1F
100
AcDbEntity
  8
0
100
AcDbLine
 10
250.0000012421553
 20
300.7238142138343
 30
0.0
 11
250.0000012421553
 21
353.9738142138343
 31
0.0
  0
LINE
  5
B7D
330
1F
100
AcDbEntity
  8
0
100
AcDbLine
 10
252.000001242155
 20
300.7238142138343
 30
0.0
 11
252.000001242155
 21
353.9738142138343
 31
0.0
  0
LINE
  5
B7E
330
1F
100
AcDbEntity
  8
0
100
AcDbLine
 10
180.000001242155
 20
329.4738142138343
 30
0.0
 11
182.000001242155
 21
329.4738142138343
 31
0.0
  0
LINE
  5
B7F
330
1F
100
AcDbEntity
  8
0
100
AcDbLine
 10
180.000001242155
 20
326.4738142138343
 30
0.0
 11
182.000001242155
 21
326.4738142138343
 31
0.0
  0
LINE
  5
B80
330
1F
100
AcDbEntity
  8
0
100
AcDbLine
 10
180.000001242155
 20
209.4738142138345
 30
0.0
 11
182.000001242155
 21
209.4738142138345
 31
0.0
  0
LINE
  5
B81
330
1F
100
AcDbEntity
  8
0
100
AcDbLine
 10
180.000001242155
 20
206.4738142138344
 30
0.0
 11
182.000001242155
 21
206.4738142138344
 31
0.0
  0
LINE
  5
B82
330
1F
100
AcDbEntity
  8
0
100
AcDbLine
 10
187.000001242155
 20
329.4738142138343
 30
0.0
 11
189.0000012421553
 21
329.4738142138343
 31
0.0
  0
LINE
  5
B83
330
1F
100
AcDbEntity
  8
0
100
AcDbLine
 10
187.000001242155
 20
326.4738142138343
 30
0.0
 11
189.0000012421553
 21
326.4738142138343
 31
0.0
  0
LINE
  5
B84
330
1F
100
AcDbEntity
  8
0
100
AcDbLine
 10
187.000001242155
 20
209.4738142138345
 30
0.0
 11
189.0000012421553
 21
209.4738142138345
 31
0.0
  0
LINE
  5
B85
330
1F
100
AcDbEntity
  8
0
100
AcDbLine
 10
187.000001242155
 20
206.4738142138344
 30
0.0
 11
189.0000012421553
 21
206.4738142138344
 31
0.0
  0
LINE
  5
B86
330
1F
100
AcDbEntity
  8
0
100
AcDbLine
 10
194.0000012421553
 20
329.4738142138343
 30
0.0
 11
196.000001242155
 21
329.4738142138343
 31
0.0
  0
LINE
  5
B87
330
1F
100
AcDbEntity
  8
0
100
AcDbLine
 10
194.0000012421553
 20
326.4738142138343
 30
0.0
 11
196.000001242155
 21
326.4738142138343
 31
0.0
  0
LINE
  5
B88
330
1F
100
AcDbEntity
  8
0
100
AcDbLine
 10
194.0000012421553
 20
209.4738142138345
 30
0.0
 11
196.000001242155
 21
209.4738142138345
 31
0.0
  0
LINE
  5
B89
330
1F
100
AcDbEntity
  8
0
100
AcDbLine
 10
194.0000012421553
 20
206.4738142138344
 30
0.0
 11
196.000001242155
 21
206.4738142138344
 31
0.0
  0
LINE
  5
B8A
330
1F
100
AcDbEntity
  8
0
100
AcDbLine
 10
201.0000012421552
 20
329.4738142138343
 30
0.0
 11
203.0000012421552
 21
329.4738142138343
 31
0.0
  0
LINE
  5
B8B
330
1F
100
AcDbEntity
  8
0
100
AcDbLine
 10
201.0000012421552
 20
326.4738142138343
 30
0.0
 11
203.0000012421552
 21
326.4738142138343
 31
0.0
  0
LINE
  5
B8C
330
1F
100
AcDbEntity
  8
0
100
AcDbLine
 10
201.0000012421552
 20
209.4738142138345
 30
0.0
 11
203.0000012421552
 21
209.4738142138345
 31
0.0
  0
LINE
  5
B8D
330
1F
100
AcDbEntity
  8
0
100
AcDbLine
 10
201.0000012421552
 20
206.4738142138344
 30
0.0
 11
203.0000012421552
 21
206.4738142138344
 31
0.0
  0
LINE
  5
B8E
330
1F
100
AcDbEntity
  8
0
100
AcDbLine
 10
208.000001242155
 20
329.4738142138343
 30
0.0
 11
210.000001242155
 21
329.4738142138343
 31
0.0
  0
LINE
  5
B8F
330
1F
100
AcDbEntity
  8
0
100
AcDbLine
 10
208.000001242155
 20
326.4738142138343
 30
0.0
 11
210.000001242155
 21
326.4738142138343
 31
0.0
  0
LINE
  5
B90
330
1F
100
AcDbEntity
  8
0
100
AcDbLine
 10
208.000001242155
 20
209.4738142138345
 30
0.0
 11
210.000001242155
 21
209.4738142138345
 31
0.0
  0
LINE
  5
B91
330
1F
100
AcDbEntity
  8
0
100
AcDbLine
 10
208.000001242155
 20
206.4738142138344
 30
0.0
 11
210.000001242155
 21
206.4738142138344
 31
0.0
  0
LINE
  5
B92
330
1F
100
AcDbEntity
  8
0
100
AcDbLine
 10
215.0000012421553
 20
329.4738142138343
 30
0.0
 11
217.0000012421553
 21
329.4738142138343
 31
0.0
  0
LINE
  5
B93
330
1F
100
AcDbEntity
  8
0
100
AcDbLine
 10
215.0000012421553
 20
326.4738142138343
 30
0.0
 11
217.0000012421553
 21
326.4738142138343
 31
0.0
  0
LINE
  5
B94
330
1F
100
AcDbEntity
  8
0
100
AcDbLine
 10
215.0000012421553
 20
209.4738142138345
 30
0.0
 11
217.0000012421553
 21
209.4738142138345
 31
0.0
  0
LINE
  5
B95
330
1F
100
AcDbEntity
  8
0
100
AcDbLine
 10
215.0000012421553
 20
206.4738142138344
 30
0.0
 11
217.0000012421553
 21
206.4738142138344
 31
0.0
  0
LINE
  5
B96
330
1F
100
AcDbEntity
  8
0
100
AcDbLine
 10
222.000001242155
 20
329.4738142138343
 30
0.0
 11
224.0000012421552
 21
329.4738142138343
 31
0.0
  0
LINE
  5
B97
330
1F
100
AcDbEntity
  8
0
100
AcDbLine
 10
222.000001242155
 20
326.4738142138343
 30
0.0
 11
224.0000012421552
 21
326.4738142138343
 31
0.0
  0
LINE
  5
B98
330
1F
100
AcDbEntity
  8
0
100
AcDbLine
 10
222.000001242155
 20
209.4738142138345
 30
0.0
 11
224.0000012421552
 21
209.4738142138345
 31
0.0
  0
LINE
  5
B99
330
1F
100
AcDbEntity
  8
0
100
AcDbLine
 10
222.000001242155
 20
206.4738142138344
 30
0.0
 11
224.0000012421552
 21
206.4738142138344
 31
0.0
  0
LINE
  5
B9A
330
1F
100
AcDbEntity
  8
0
100
AcDbLine
 10
229.0000012421553
 20
329.4738142138343
 30
0.0
 11
231.0000012421553
 21
329.4738142138343
 31
0.0
  0
LINE
  5
B9B
330
1F
100
AcDbEntity
  8
0
100
AcDbLine
 10
229.0000012421553
 20
326.4738142138343
 30
0.0
 11
231.0000012421553
 21
326.4738142138343
 31
0.0
  0
LINE
  5
B9C
330
1F
100
AcDbEntity
  8
0
100
AcDbLine
 10
229.0000012421553
 20
209.4738142138345
 30
0.0
 11
231.0000012421553
 21
209.4738142138345
 31
0.0
  0
LINE
  5
B9D
330
1F
100
AcDbEntity
  8
0
100
AcDbLine
 10
229.0000012421553
 20
206.4738142138344
 30
0.0
 11
231.0000012421553
 21
206.4738142138344
 31
0.0
  0
LINE
  5
B9E
330
1F
100
AcDbEntity
  8
0
100
AcDbLine
 10
236.000001242155
 20
329.4738142138343
 30
0.0
 11
238.0000012421553
 21
329.4738142138343
 31
0.0
  0
LINE
  5
B9F
330
1F
100
AcDbEntity
  8
0
100
AcDbLine
 10
236.000001242155
 20
326.4738142138343
 30
0.0
 11
238.0000012421553
 21
326.4738142138343
 31
0.0
  0
LINE
  5
BA0
330
1F
100
AcDbEntity
  8
0
100
AcDbLine
 10
236.000001242155
 20
209.4738142138345
 30
0.0
 11
238.0000012421553
 21
209.4738142138345
 31
0.0
  0
LINE
  5
BA1
330
1F
100
AcDbEntity
  8
0
100
AcDbLine
 10
236.000001242155
 20
206.4738142138344
 30
0.0
 11
238.0000012421553
 21
206.4738142138344
 31
0.0
  0
LINE
  5
BA2
330
1F
100
AcDbEntity
  8
0
100
AcDbLine
 10
243.000001242155
 20
329.4738142138343
 30
0.0
 11
245.000001242155
 21
329.4738142138343
 31
0.0
  0
LINE
  5
BA3
330
1F
100
AcDbEntity
  8
0
100
AcDbLine
 10
243.000001242155
 20
326.4738142138343
 30
0.0
 11
245.000001242155
 21
326.4738142138343
 31
0.0
  0
LINE
  5
BA4
330
1F
100
AcDbEntity
  8
0
100
AcDbLine
 10
243.000001242155
 20
209.4738142138345
 30
0.0
 11
245.000001242155
 21
209.4738142138345
 31
0.0
  0
LINE
  5
BA5
330
1F
100
AcDbEntity
  8
0
100
AcDbLine
 10
243.000001242155
 20
206.4738142138344
 30
0.0
 11
245.000001242155
 21
206.4738142138344
 31
0.0
  0
LINE
  5
BA6
330
1F
100
AcDbEntity
  8
0
100
AcDbLine
 10
250.0000012421553
 20
329.4738142138343
 30
0.0
 11
252.000001242155
 21
329.4738142138343
 31
0.0
  0
LINE
  5
BA7
330
1F
100
AcDbEntity
  8
0
100
AcDbLine
 10
250.0000012421553
 20
326.4738142138343
 30
0.0
 11
252.000001242155
 21
326.4738142138343
 31
0.0
  0
LINE
  5
BA8
330
1F
100
AcDbEntity
  8
0
100
AcDbLine
 10
250.0000012421553
 20
209.4738142138345
 30
0.0
 11
252.000001242155
 21
209.4738142138345
 31
0.0
  0
LINE
  5
BA9
330
1F
100
AcDbEntity
  8
0
100
AcDbLine
 10
250.0000012421553
 20
206.4738142138344
 30
0.0
 11
252.000001242155
 21
206.4738142138344
 31
0.0
  0
LINE
  5
BAA
330
1F
100
AcDbEntity
  8
0
100
AcDbLine
 10
230.0000012421552
 20
181.9738142138344
 30
0.0
 11
230.000001242154
 21
181.4738142138344
 31
0.0
  0
LINE
  5
BAB
330
1F
100
AcDbEntity
  8
0
100
AcDbLine
 10
175.000001242155
 20
181.4738142138344
 30
0.0
 11
230.0000012421552
 21
181.4738142138344
 31
0.0
  0
LINE
  5
BAC
330
1F
100
AcDbEntity
  8
0
100
AcDbLine
 10
275.3878550853221
 20
180.9738142138344
 30
0.0
 11
275.3878550853231
 21
354.9738142138343
 31
0.0
  0
LINE
  5
BAD
330
1F
100
AcDbEntity
  8
0
100
AcDbLine
 10
154.6000012421554
 20
221.6738149475248
 30
0.0
 11
154.6000012421554
 21
201.4738149475248
 31
0.0
  0
LINE
  5
BAE
330
1F
100
AcDbEntity
  8
0
100
AcDbLine
 10
155.5000012421553
 20
197.9738149475244
 30
0.0
 11
155.000001242155
 21
198.4738149475248
 31
0.0
  0
LINE
  5
BAF
330
1F
100
AcDbEntity
  8
0
100
AcDbLine
 10
155.0000012421554
 20
199.3738149475248
 30
0.0
 11
155.000001242155
 21
198.4738149475248
 31
0.0
  0
LINE
  5
BB0
330
1F
100
AcDbEntity
  8
0
100
AcDbLine
 10
156.3000012421553
 20
197.9738149475244
 30
0.0
 11
155.5000012421553
 21
197.9738149475244
 31
0.0
  0
ARC
  5
BB1
330
1F
100
AcDbEntity
  8
0
100
AcDbCircle
 10
156.0000012421554
 20
199.3738149475247
 30
0.0
 40
1.0
100
AcDbArc
 50
90.0
 51
180.0
  0
LINE
  5
BB2
330
1F
100
AcDbEntity
  8
0
100
AcDbLine
 10
158.000001242155
 20
200.3738149475247
 30
0.0
 11
156.0000012421554
 21
200.3738149475247
 31
0.0
  0
LINE
  5
BB3
330
1F
100
AcDbEntity
  8
0
100
AcDbLine
 10
158.000001242155
 20
199.1738149475246
 30
0.0
 11
156.3000012421555
 21
199.1738149475246
 31
0.0
  0
LINE
  5
BB4
330
1F
100
AcDbEntity
  8
0
100
AcDbLine
 10
158.000001242155
 20
201.4738149475244
 30
0.0
 11
154.6000012421554
 21
201.4738149475248
 31
0.0
  0
LINE
  5
BB5
330
1F
100
AcDbEntity
  8
0
100
AcDbLine
 10
156.3000012421553
 20
197.9738149475244
 30
0.0
 11
156.3000012421553
 21
199.1738149475246
 31
0.0
  0
LINE
  5
BB6
330
1F
100
AcDbEntity
  8
0
100
AcDbLine
 10
155.5000012421555
 20
225.1738149475246
 30
0.0
 11
155.0000012421554
 21
224.6738149475246
 31
0.0
  0
LINE
  5
BB7
330
1F
100
AcDbEntity
  8
0
100
AcDbLine
 10
155.0000012421554
 20
224.6738149475246
 30
0.0
 11
155.0000012421554
 21
223.7738149475246
 31
0.0
  0
LINE
  5
BB8
330
1F
100
AcDbEntity
  8
0
100
AcDbLine
 10
156.3000012421553
 20
225.1738149475246
 30
0.0
 11
155.5000012421555
 21
225.1738149475246
 31
0.0
  0
ARC
  5
BB9
330
1F
100
AcDbEntity
  8
0
100
AcDbCircle
 10
156.0000012421554
 20
223.7738149475246
 30
0.0
 40
1.0
100
AcDbArc
 50
180.0
 51
270.0
  0
LINE
  5
BBA
330
1F
100
AcDbEntity
  8
0
100
AcDbLine
 10
158.000001242155
 20
222.7738149475246
 30
0.0
 11
156.0000012421554
 21
222.7738149475246
 31
0.0
  0
LINE
  5
BBB
330
1F
100
AcDbEntity
  8
0
100
AcDbLine
 10
154.6000012421554
 20
221.6738149475248
 30
0.0
 11
158.000001242155
 21
221.6738149475248
 31
0.0
  0
LINE
  5
BBC
330
1F
100
AcDbEntity
  8
0
100
AcDbLine
 10
158.000001242155
 20
223.9738149475249
 30
0.0
 11
156.3000012421553
 21
223.9738149475249
 31
0.0
  0
LINE
  5
BBD
330
1F
100
AcDbEntity
  8
0
100
AcDbLine
 10
156.3000012421553
 20
223.9738149475248
 30
0.0
 11
156.3000012421553
 21
225.1738149475246
 31
0.0
  0
LINE
  5
BBE
330
1F
100
AcDbEntity
  8
0
100
AcDbLine
 10
158.000001242155
 20
185.9738149475248
 30
0.0
 11
155.5000012421551
 21
185.9738149475248
 31
0.0
  0
LINE
  5
BBF
330
1F
100
AcDbEntity
  8
0
100
AcDbLine
 10
155.5000012421551
 20
185.9738149475248
 30
0.0
 11
155.5000012421551
 21
191.4738149475248
 31
0.0
  0
LINE
  5
BC0
330
1F
100
AcDbEntity
  8
0
100
AcDbLine
 10
155.5000012421551
 20
191.4738149475248
 30
0.0
 11
158.000001242155
 21
191.4738149475248
 31
0.0
  0
LINE
  5
BC1
330
1F
100
AcDbEntity
  8
0
100
AcDbLine
 10
158.000001242155
 20
226.6138142138346
 30
0.0
 11
157.0000012421551
 21
226.6138142138346
 31
0.0
  0
LINE
  5
BC2
330
1F
100
AcDbEntity
  8
0
100
AcDbLine
 10
157.0000012421551
 20
226.6138142138346
 30
0.0
 11
157.0000012421551
 21
223.9738149475249
 31
0.0
  0
LINE
  5
BC3
330
1F
100
AcDbEntity
  8
0
100
AcDbLine
 10
151.4000012421551
 20
276.9738142138343
 30
0.0
 11
158.000001242155
 21
276.9738142138343
 31
0.0
  0
LINE
  5
BC4
330
1F
100
AcDbEntity
  8
0
100
AcDbLine
 10
158.000001242155
 20
301.1338142138344
 30
0.0
 11
151.4000012421551
 21
301.1338142138344
 31
0.0
  0
LINE
  5
BC5
330
1F
100
AcDbEntity
  8
0
100
AcDbLine
 10
151.4000012421551
 20
301.1338142138344
 30
0.0
 11
151.4000012421551
 21
276.9738142138343
 31
0.0
  0
LINE
  5
BC6
330
1F
100
AcDbEntity
  8
0
100
AcDbLine
 10
152.700001242155
 20
235.8138142138344
 30
0.0
 11
152.700001242155
 21
264.2738142138346
 31
0.0
  0
LINE
  5
BC7
330
1F
100
AcDbEntity
  8
0
100
AcDbLine
 10
152.700001242155
 20
239.9238142138345
 30
0.0
 11
157.0000012421551
 21
239.9238142138345
 31
0.0
  0
LINE
  5
BC8
330
1F
100
AcDbEntity
  8
0
100
AcDbLine
 10
157.0000012421551
 20
235.8138142138344
 30
0.0
 11
152.700001242155
 21
235.8138142138344
 31
0.0
  0
LINE
  5
BC9
330
1F
100
AcDbEntity
  8
0
100
AcDbLine
 10
152.700001242155
 20
260.1638142138344
 30
0.0
 11
158.000001242155
 21
260.1638142138344
 31
0.0
  0
LINE
  5
BCA
330
1F
100
AcDbEntity
  8
0
100
AcDbLine
 10
152.700001242155
 20
255.1638142138346
 30
0.0
 11
158.000001242155
 21
255.1638142138346
 31
0.0
  0
LINE
  5
BCB
330
1F
100
AcDbEntity
  8
0
100
AcDbLine
 10
152.700001242155
 20
247.5438142138345
 30
0.0
 11
158.000001242155
 21
247.5438142138345
 31
0.0
  0
LINE
  5
BCC
330
1F
100
AcDbEntity
  8
0
100
AcDbLine
 10
152.700001242155
 20
252.5438142138344
 30
0.0
 11
158.000001242155
 21
252.5438142138344
 31
0.0
  0
LINE
  5
BCD
330
1F
100
AcDbEntity
  8
0
100
AcDbLine
 10
152.700001242155
 20
244.9238142138344
 30
0.0
 11
157.2000012421555
 21
244.9238142138344
 31
0.0
  0
LINE
  5
BCE
330
1F
100
AcDbEntity
  8
0
100
AcDbLine
 10
157.2000012421555
 20
264.2738142138346
 30
0.0
 11
152.700001242155
 21
264.2738142138346
 31
0.0
  0
LINE
  5
BCF
330
1F
100
AcDbEntity
  8
0
100
AcDbLine
 10
201.0000012421552
 20
351.9738142138344
 30
0.0
 11
203.0000012421552
 21
351.9738142138344
 31
0.0
  0
LINE
  5
BD0
330
1F
100
AcDbEntity
  8
0
100
AcDbLine
 10
274.0000012421543
 20
354.9738142138343
 30
0.0
 11
274.0000012421543
 21
364.9738142138343
 31
0.0
  0
LINE
  5
BD1
330
1F
100
AcDbEntity
  8
0
100
AcDbLine
 10
158.000001242155
 20
180.9738142138344
 30
0.0
 11
275.3878550853231
 21
180.9738142138344
 31
0.0
  0
LINE
  5
BD9
330
1F
100
AcDbEntity
  8
0
100
AcDbLine
 10
157.0000012421551
 20
222.7738149475246
 30
0.0
 11
157.0000012421551
 21
221.6738149475248
 31
0.0
  0
LINE
  5
BDA
330
1F
100
AcDbEntity
  8
0
100
AcDbLine
 10
157.0000012421551
 20
201.4738149475248
 30
0.0
 11
157.0000012421551
 21
200.3738149475247
 31
0.0
  0
LINE
  5
BDB
330
1F
100
AcDbEntity
  8
0
100
AcDbLine
 10
157.0000012421551
 20
199.1738149475246
 30
0.0
 11
157.0000012421551
 21
191.4738149475248
 31
0.0
  0
LINE
  5
BDC
330
1F
100
AcDbEntity
  8
0
100
AcDbLine
 10
158.000001242155
 20
322.4138142138345
 30
0.0
 11
156.995639301304
 21
322.4138142138345
 31
0.0
  0
LINE
  5
BDD
330
1F
100
AcDbEntity
  8
0
100
AcDbLine
 10
158.000001242155
 20
233.1738149475246
 30
0.0
 11
157.0000012421551
 21
233.1738149475246
 31
0.0
  0
LINE
  5
BDE
330
1F
100
AcDbEntity
  8
0
100
AcDbLine
 10
157.0000012421551
 20
233.1738149475246
 30
0.0
 11
157.0000012421551
 21
241.5738149475249
 31
0.0
  0
LINE
  5
BDF
330
1F
100
AcDbEntity
  8
0
100
AcDbLine
 10
157.0000012421551
 20
241.5738149475249
 30
0.0
 11
158.000001242155
 21
241.5738149475249
 31
0.0
  0
LINE
  5
BE0
330
1F
100
AcDbEntity
  8
0
100
AcDbLine
 10
158.000001242155
 20
243.0738149475249
 30
0.0
 11
157.2000012421555
 21
243.0738149475249
 31
0.0
  0
LINE
  5
BE1
330
1F
100
AcDbEntity
  8
0
100
AcDbLine
 10
157.2000012421555
 20
243.0738149475249
 30
0.0
 11
157.2000012421555
 21
246.0738149475249
 31
0.0
  0
LINE
  5
BE2
330
1F
100
AcDbEntity
  8
0
100
AcDbLine
 10
157.2000012421555
 20
246.0738149475249
 30
0.0
 11
158.000001242155
 21
246.0738149475249
 31
0.0
  0
LINE
  5
BE3
330
1F
100
AcDbEntity
  8
0
100
AcDbLine
 10
158.000001242155
 20
263.0738149475249
 30
0.0
 11
157.2000012421555
 21
263.0738149475249
 31
0.0
  0
LINE
  5
BE4
330
1F
100
AcDbEntity
  8
0
100
AcDbLine
 10
157.2000012421555
 20
263.0738149475249
 30
0.0
 11
157.2000012421555
 21
266.0738149475248
 31
0.0
  0
LINE
  5
BE5
330
1F
100
AcDbEntity
  8
0
100
AcDbLine
 10
157.2000012421555
 20
266.0738149475248
 30
0.0
 11
158.000001242155
 21
266.0738149475248
 31
0.0
  0
LINE
  5
BE6
330
1F
100
AcDbEntity
  8
0
  6
CONTINUOUS
100
AcDbLine
 10
156.995639301304
 20
322.4138142138345
 30
0.0
 11
156.995639301304
 21
307.0138142138341
 31
0.0
  0
LINE
  5
BE7
330
1F
100
AcDbEntity
  8
0
  6
CONTINUOUS
100
AcDbLine
 10
156.995639301304
 20
307.0138142138341
 30
0.0
 11
158.000001242155
 21
307.0138142138341
 31
0.0
  0
LINE
  5
BE8
330
1F
100
AcDbEntity
  8
0
100
AcDbLine
 10
26.70871339467673
 20
4.379165658471832
 30
0.0
 11
26.70871339467673
 21
21.97381421383589
 31
0.0
  0
LINE
  5
BE9
330
1F
100
AcDbEntity
  8
0
100
AcDbLine
 10
31.29128908963176
 20
4.259166690738877
 30
0.0
 11
31.29128908963176
 21
21.97381421383487
 31
0.0
  0
LINE
  5
BEA
330
1F
100
AcDbEntity
  8
0
100
AcDbLine
 10
6.000001242154781
 20
4.921442370696863
 30
0.0
 11
6.000001242154781
 21
20.97381421383488
 31
0.0
  0
LINE
  5
BEB
330
1F
100
AcDbEntity
  8
0
100
AcDbLine
 10
5.000001242154778
 20
21.00000013540385
 30
0.0
 11
5.000001242154778
 21
4.973814213833858
 31
0.0
  0
LINE
  5
BEC
330
1F
100
AcDbEntity
  8
0
100
AcDbLine
 10
0.0000012421547809
 20
21.41966689461082
 30
0.0
 11
0.0000012421547809
 21
0.0000001354038659
 31
0.0
  0
LINE
  5
BED
330
1F
100
AcDbEntity
  8
0
100
AcDbLine
 10
58.00000124215478
 20
3.585960370666839
 30
0.0
 11
58.00000124215478
 21
120.9738142138347
 31
0.0
  0
ARC
  5
BF1
330
1F
100
AcDbEntity
  8
0
100
AcDbCircle
 10
2.400001242154754
 20
89.31966689461084
 30
0.0
 40
0.6
100
AcDbArc
 50
0.0
 51
88.09084756699943
  0
LINE
  5
BF2
330
1F
100
AcDbEntity
  8
0
100
AcDbLine
 10
6.000001242154781
 20
82.97381421383583
 30
0.0
 11
6.000001242154781
 21
109.6057336405328
 31
0.0
  0
LINE
  5
BF3
330
1F
100
AcDbEntity
  8
0
100
AcDbLine
 10
5.000001242154778
 20
110.4710191932777
 30
0.0
 11
5.000001242154778
 21
83.00000013540389
 31
0.0
  0
LINE
  5
BF4
330
1F
100
AcDbEntity
  8
0
100
AcDbLine
 10
57.00000124215478
 20
21.97381421383487
 30
0.0
 11
57.00000124215478
 21
103.9738142138344
 31
0.0
  0
LINE
  5
BF5
330
1F
100
AcDbEntity
  8
0
100
AcDbLine
 10
16.00000124215477
 20
103.9738142138344
 30
0.0
 11
16.00000124215477
 21
21.97381421383487
 31
0.0
  0
LINE
  5
BF6
330
1F
100
AcDbEntity
  8
0
100
AcDbLine
 10
28.20000124215475
 20
105.4738142138347
 30
0.0
 11
20.00000124215477
 21
105.4738142138347
 31
0.0
  0
LINE
  5
BF7
330
1F
100
AcDbEntity
  8
0
100
AcDbLine
 10
20.00000124215477
 20
117.4738142138344
 30
0.0
 11
28.20000124215475
 21
117.4738142138344
 31
0.0
  0
LINE
  5
BF8
330
1F
100
AcDbEntity
  8
0
100
AcDbLine
 10
20.00000124215477
 20
109.4738142138347
 30
0.0
 11
23.20000124215475
 21
109.4738142138347
 31
0.0
  0
LINE
  5
BF9
330
1F
100
AcDbEntity
  8
0
100
AcDbLine
 10
20.00000124215477
 20
113.4738142138347
 30
0.0
 11
23.20000124215475
 21
113.4738142138347
 31
0.0
  0
LINE
  5
BFF
330
1F
100
AcDbEntity
  8
0
100
AcDbLine
 10
6.000001242154781
 20
120.9738142138347
 30
0.0
 11
58.00000124215478
 21
120.9738142138347
 31
0.0
  0
LINE
  5
C00
330
1F
100
AcDbEntity
  8
0
100
AcDbLine
 10
20.00000124215477
 20
109.4738142138347
 30
0.0
 11
20.00000124215477
 21
105.4738142138347
 31
0.0
  0
LINE
  5
C01
330
1F
100
AcDbEntity
  8
0
100
AcDbLine
 10
0.0000012421547809
 20
90.5803333761959
 30
0.0
 11
0.0000012421547809
 21
120.8952564491267
 31
0.0
  0
LINE
  5
C02
330
1F
100
AcDbEntity
  8
0
100
AcDbLine
 10
8.000001242154782
 20
120.4738142138348
 30
0.0
 11
8.000001242154782
 21
110.9738142138356
 31
0.0
  0
LINE
  5
C03
330
1F
100
AcDbEntity
  8
0
100
AcDbLine
 10
9.000001242154779
 20
120.9738142138347
 30
0.0
 11
9.000001242154779
 21
110.1347145826575
 31
0.0
  0
LINE
  5
C04
330
1F
100
AcDbEntity
  8
0
100
AcDbLine
 10
8.000001242154782
 20
111.0000001354038
 30
0.0
 11
8.000001242154782
 21
120.8952564491267
 31
0.0
  0
LINE
  5
C05
330
1F
100
AcDbEntity
  8
0
100
AcDbLine
 10
6.000001242154781
 20
120.9738142138347
 30
0.0
 11
6.000001242154781
 21
120.9476282922653
 31
0.0
  0
LINE
  5
C06
330
1F
100
AcDbEntity
  8
0
100
AcDbLine
 10
6.000001242154781
 20
120.9738142138347
 30
0.0
 11
6.000001242154781
 21
120.9476282922657
 31
0.0
  0
LINE
  5
C07
330
1F
100
AcDbEntity
  8
0
100
AcDbLine
 10
8.000001242154782
 20
120.4738142138348
 30
0.0
 11
9.000001242154779
 21
120.4738142138348
 31
0.0
  0
LINE
  5
C08
330
1F
100
AcDbEntity
  8
0
100
AcDbLine
 10
4.000001242154779
 20
121.0000001354037
 30
0.0
 11
8.000001242154782
 21
120.8952564491267
 31
0.0
  0
LINE
  5
C09
330
1F
100
AcDbEntity
  8
0
100
AcDbLine
 10
0.0000012421547809
 20
120.8952564491267
 30
0.0
 11
4.000001242154779
 21
121.0000001354037
 31
0.0
  0
LINE
  5
C0A
330
1F
100
AcDbEntity
  8
0
100
AcDbLine
 10
5.000001242154778
 20
110.4448332717098
 30
0.0
 11
8.000001242154782
 21
110.9738142138356
 31
0.0
  0
LINE
  5
C0B
330
1F
100
AcDbEntity
  8
0
100
AcDbLine
 10
9.000001242154779
 20
110.1347145826575
 30
0.0
 11
6.000001242154781
 21
109.6057336405328
 31
0.0
  0
LINE
  5
C0C
330
1F
100
AcDbEntity
  8
0
100
AcDbLine
 10
8.000001242154782
 20
111.0000001354038
 30
0.0
 11
5.000001242154778
 21
110.4710191932777
 31
0.0
  0
LINE
  5
C0D
330
1F
100
AcDbEntity
  8
0
100
AcDbLine
 10
20.00000124215477
 20
113.4738142138347
 30
0.0
 11
20.00000124215477
 21
117.4738142138344
 31
0.0
  0
LINE
  5
C0E
330
1F
100
AcDbEntity
  8
0
100
AcDbLine
 10
0.0000012421547809
 20
98.4196668946109
 30
0.0
 11
0.0000012421547809
 21
97.58033337619593
 31
0.0
  0
POINT
  5
C0F
330
1F
100
AcDbEntity
  8
0
100
AcDbPoint
 10
0.0000012421547809
 20
99.00000013540285
 30
0.0
  0
POINT
  5
C10
330
1F
100
AcDbEntity
  8
0
100
AcDbPoint
 10
3.000001242154779
 20
99.10000013540287
 30
0.0
  0
ARC
  5
C11
330
1F
100
AcDbEntity
  8
0
100
AcDbCircle
 10
2.400001242154754
 20
99.68033337619488
 30
0.0
 40
0.6
100
AcDbArc
 50
271.909152432994
 51
0.0
  0
ARC
  5
C12
330
1F
100
AcDbEntity
  8
0
100
AcDbCircle
 10
0.6000012421548036
 20
98.4196668946109
 30
0.0
 40
0.6
100
AcDbArc
 50
91.90915243299405
 51
180.0
  0
LINE
  5
C13
330
1F
100
AcDbEntity
  8
0
100
AcDbLine
 10
2.419990140293748
 20
99.0806664320079
 30
0.0
 11
0.5800123440147901
 21
99.01933383879885
 31
0.0
  0
LINE
  5
C14
330
1F
100
AcDbEntity
  8
0
100
AcDbLine
 10
3.000001242154779
 20
103.3196668946108
 30
0.0
 11
3.000001242154779
 21
99.68033337619488
 31
0.0
  0
POINT
  5
C15
330
1F
100
AcDbEntity
  8
0
100
AcDbPoint
 10
3.000001242154779
 20
103.9000001354026
 30
0.0
  0
ARC
  5
C16
330
1F
100
AcDbEntity
  8
0
100
AcDbCircle
 10
0.6000012421548036
 20
104.5803333761955
 30
0.0
 40
0.6
100
AcDbArc
 50
180.0
 51
268.0908475670059
  0
LINE
  5
C17
330
1F
100
AcDbEntity
  8
0
100
AcDbLine
 10
0.5800123440147901
 20
103.9806664320078
 30
0.0
 11
2.419990140293748
 21
103.9193338387985
 31
0.0
  0
ARC
  5
C18
330
1F
100
AcDbEntity
  8
0
100
AcDbCircle
 10
2.400001242154754
 20
103.3196668946108
 30
0.0
 40
0.6
100
AcDbArc
 50
0.0
 51
88.09084756699943
  0
POINT
  5
C19
330
1F
100
AcDbEntity
  8
0
100
AcDbPoint
 10
0.0000012421547809
 20
90.00000013540386
 30
0.0
  0
ARC
  5
C1A
330
1F
100
AcDbEntity
  8
0
100
AcDbCircle
 10
2.400001242154754
 20
92.68033337619483
 30
0.0
 40
0.6
100
AcDbArc
 50
271.909152432994
 51
0.0
  0
ARC
  5
C1B
330
1F
100
AcDbEntity
  8
0
100
AcDbCircle
 10
0.6000012421548036
 20
91.41966689461089
 30
0.0
 40
0.6
100
AcDbArc
 50
91.90915243299405
 51
180.0
  0
ARC
  5
C1C
330
1F
100
AcDbEntity
  8
0
100
AcDbCircle
 10
0.6000012421537804
 20
90.5803333761959
 30
0.0
 40
0.6
100
AcDbArc
 50
180.0
 51
268.0908475670059
  0
LINE
  5
C1D
330
1F
100
AcDbEntity
  8
0
100
AcDbLine
 10
0.0000012421547809
 20
91.41966689461089
 30
0.0
 11
0.0000012421547809
 21
90.5803333761959
 31
0.0
  0
LINE
  5
C1E
330
1F
100
AcDbEntity
  8
0
100
AcDbLine
 10
0.5800123440147901
 20
89.98066643200786
 30
0.0
 11
2.419990140293748
 21
89.91933383879889
 31
0.0
  0
LINE
  5
C1F
330
1F
100
AcDbEntity
  8
0
100
AcDbLine
 10
2.419990140293748
 20
92.08066643200785
 30
0.0
 11
0.5800123440147901
 21
92.01933383879879
 31
0.0
  0
POINT
  5
C20
330
1F
100
AcDbEntity
  8
0
100
AcDbPoint
 10
3.000001242154779
 20
96.90000013540284
 30
0.0
  0
POINT
  5
C21
330
1F
100
AcDbEntity
  8
0
100
AcDbPoint
 10
0.0000012421547809
 20
97.00000013540288
 30
0.0
  0
ARC
  5
C22
330
1F
100
AcDbEntity
  8
0
100
AcDbCircle
 10
2.400001242154754
 20
96.31966689461087
 30
0.0
 40
0.6
100
AcDbArc
 50
0.0
 51
88.09084756699943
  0
ARC
  5
C23
330
1F
100
AcDbEntity
  8
0
100
AcDbCircle
 10
0.6000012421548036
 20
97.58033337619593
 30
0.0
 40
0.6
100
AcDbArc
 50
180.0
 51
268.0908475670059
  0
LINE
  5
C24
330
1F
100
AcDbEntity
  8
0
100
AcDbLine
 10
0.5800123440147901
 20
96.98066643200787
 30
0.0
 11
2.419990140293748
 21
96.91933383879886
 31
0.0
  0
LINE
  5
C25
330
1F
100
AcDbEntity
  8
0
100
AcDbLine
 10
3.000001242154779
 20
96.31966689461087
 30
0.0
 11
3.000001242154779
 21
92.68033337619483
 31
0.0
  0
LINE
  5
C26
330
1F
100
AcDbEntity
  8
0
100
AcDbLine
 10
28.20000124215475
 20
105.4738142138347
 30
0.0
 11
28.20000124215475
 21
117.4738142138344
 31
0.0
  0
LINE
  5
C27
330
1F
100
AcDbEntity
  8
0
100
AcDbLine
 10
23.20000124215475
 20
107.4738142138347
 30
0.0
 11
25.20000124215475
 21
107.4738142138347
 31
0.0
  0
LINE
  5
C28
330
1F
100
AcDbEntity
  8
0
100
AcDbLine
 10
23.20000124215475
 20
109.4738142138347
 30
0.0
 11
23.20000124215475
 21
107.4738142138347
 31
0.0
  0
LINE
  5
C29
330
1F
100
AcDbEntity
  8
0
100
AcDbLine
 10
23.20000124215475
 20
115.4738142138347
 30
0.0
 11
25.20000124215475
 21
115.4738142138347
 31
0.0
  0
LINE
  5
C2A
330
1F
100
AcDbEntity
  8
0
100
AcDbLine
 10
23.20000124215475
 20
113.4738142138347
 30
0.0
 11
23.20000124215475
 21
115.4738142138347
 31
0.0
  0
LINE
  5
C2B
330
1F
100
AcDbEntity
  8
0
100
AcDbLine
 10
25.20000124215475
 20
107.4738142138347
 30
0.0
 11
25.20000124215475
 21
115.4738142138347
 31
0.0
  0
LINE
  5
C38
330
1F
100
AcDbEntity
  8
0
100
AcDbLine
 10
57.00000124215478
 20
26.97381421383488
 30
0.0
 11
16.00000124215477
 21
26.97381421383488
 31
0.0
  0
LINE
  5
C39
330
1F
100
AcDbEntity
  8
0
100
AcDbLine
 10
57.00000124215478
 20
28.97381421383487
 30
0.0
 11
16.00000124215477
 21
28.97381421383487
 31
0.0
  0
LINE
  5
C3A
330
1F
100
AcDbEntity
  8
0
100
AcDbLine
 10
57.00000124215478
 20
33.97381421383487
 30
0.0
 11
16.00000124215477
 21
33.97381421383487
 31
0.0
  0
LINE
  5
C3B
330
1F
100
AcDbEntity
  8
0
100
AcDbLine
 10
57.00000124215478
 20
35.97381421383488
 30
0.0
 11
16.00000124215477
 21
35.97381421383488
 31
0.0
  0
LINE
  5
C3C
330
1F
100
AcDbEntity
  8
0
100
AcDbLine
 10
57.00000124215478
 20
40.97381421383488
 30
0.0
 11
16.00000124215477
 21
40.97381421383488
 31
0.0
  0
LINE
  5
C3D
330
1F
100
AcDbEntity
  8
0
100
AcDbLine
 10
57.00000124215478
 20
42.97381421383488
 30
0.0
 11
16.00000124215477
 21
42.97381421383488
 31
0.0
  0
LINE
  5
C41
330
1F
100
AcDbEntity
  8
0
100
AcDbLine
 10
16.00000124215477
 20
21.97381421383487
 30
0.0
 11
58.00000124215478
 21
21.97381421383487
 31
0.0
  0
LINE
  5
C49
330
1F
100
AcDbEntity
  8
0
100
AcDbLine
 10
3.000001242154779
 20
54.31966689461086
 30
0.0
 11
3.000001242154779
 21
50.68033337619489
 31
0.0
  0
LINE
  5
C4A
330
1F
100
AcDbEntity
  8
0
100
AcDbLine
 10
6.000001242154781
 20
32.97381421383582
 30
0.0
 11
6.000001242154781
 21
70.97381421383487
 31
0.0
  0
LINE
  5
C4B
330
1F
100
AcDbEntity
  8
0
100
AcDbLine
 10
5.000001242154778
 20
71.00000013540387
 30
0.0
 11
5.000001242154778
 21
33.00000013540385
 31
0.0
  0
LINE
  5
C4C
330
1F
100
AcDbEntity
  8
0
100
AcDbLine
 10
3.000001242154779
 20
75.31966689461086
 30
0.0
 11
3.000001242154779
 21
71.6803333761949
 31
0.0
  0
LINE
  5
C4D
330
1F
100
AcDbEntity
  8
0
100
AcDbLine
 10
5.000001242154778
 20
71.00000013540284
 30
0.0
 11
5.000001242154778
 21
83.00000013540389
 31
0.0
  0
LINE
  5
C4E
330
1F
100
AcDbEntity
  8
0
100
AcDbLine
 10
4.500001242154778
 20
83.00000013540389
 30
0.0
 11
4.500001242154778
 21
71.00000013540387
 31
0.0
  0
LINE
  5
C4F
330
1F
100
AcDbEntity
  8
0
100
AcDbLine
 10
3.700001242154711
 20
83.00000013540389
 30
0.0
 11
3.700001242154711
 21
71.10000013540288
 31
0.0
  0
LINE
  5
C50
330
1F
100
AcDbEntity
  8
0
100
AcDbLine
 10
9.700001242153804
 20
81.47381421383489
 30
0.0
 11
9.700001242153804
 21
72.47381421383487
 31
0.0
  0
LINE
  5
C51
330
1F
100
AcDbEntity
  8
0
100
AcDbLine
 10
8.000001242153757
 20
81.47381421383489
 30
0.0
 11
8.000001242153757
 21
72.47381421383487
 31
0.0
  0
LINE
  5
C52
330
1F
100
AcDbEntity
  8
0
100
AcDbLine
 10
9.500001242154779
 20
81.00000013540386
 30
0.0
 11
9.500001242154779
 21
73.00000013540387
 31
0.0
  0
LINE
  5
C53
330
1F
100
AcDbEntity
  8
0
100
AcDbLine
 10
8.700001242154712
 20
81.00000013540386
 30
0.0
 11
8.700001242154712
 21
73.00000013540387
 31
0.0
  0
LINE
  5
C54
330
1F
100
AcDbEntity
  8
0
100
AcDbLine
 10
8.100001242154803
 20
81.00000013540386
 30
0.0
 11
8.100001242154803
 21
73.00000013540387
 31
0.0
  0
LINE
  5
C55
330
1F
100
AcDbEntity
  8
0
100
AcDbLine
 10
3.000001242154779
 20
82.31966689461087
 30
0.0
 11
3.000001242154779
 21
78.68033337619491
 31
0.0
  0
LINE
  5
C56
330
1F
100
AcDbEntity
  8
0
100
AcDbLine
 10
6.000001242154781
 20
82.97381421383583
 30
0.0
 11
5.000001242154778
 21
82.97381421383583
 31
0.0
  0
LINE
  5
C57
330
1F
100
AcDbEntity
  8
0
100
AcDbLine
 10
9.700001242153804
 20
81.47381421383489
 30
0.0
 11
8.000001242153757
 21
81.47381421383489
 31
0.0
  0
LINE
  5
C58
330
1F
100
AcDbEntity
  8
0
100
AcDbLine
 10
5.000001242154778
 20
83.00000013540389
 30
0.0
 11
3.700001242154711
 21
83.00000013540389
 31
0.0
  0
POINT
  5
C59
330
1F
100
AcDbEntity
  8
0
100
AcDbPoint
 10
0.0000012421547809
 20
83.00000013540389
 30
0.0
  0
ARC
  5
C5A
330
1F
100
AcDbEntity
  8
0
100
AcDbCircle
 10
2.400001242154754
 20
82.31966689461087
 30
0.0
 40
0.6
100
AcDbArc
 50
0.0
 51
88.09084756699943
  0
ARC
  5
C5B
330
1F
100
AcDbEntity
  8
0
100
AcDbCircle
 10
2.400001242154754
 20
85.68033337619487
 30
0.0
 40
0.6
100
AcDbArc
 50
271.909152432994
 51
0.0
  0
LINE
  5
C5C
330
1F
100
AcDbEntity
  8
0
100
AcDbLine
 10
9.500001242154779
 20
81.00000013540386
 30
0.0
 11
8.000001242153757
 21
81.00000013540386
 31
0.0
  0
ARC
  5
C5D
330
1F
100
AcDbEntity
  8
0
100
AcDbCircle
 10
0.6000012421548036
 20
84.41966689461088
 30
0.0
 40
0.6
100
AcDbArc
 50
91.90915243299405
 51
180.0
  0
ARC
  5
C5E
330
1F
100
AcDbEntity
  8
0
100
AcDbCircle
 10
0.6000012421548036
 20
83.58033337619588
 30
0.0
 40
0.6
100
AcDbArc
 50
180.0
 51
268.0908475670059
  0
LINE
  5
C5F
330
1F
100
AcDbEntity
  8
0
100
AcDbLine
 10
0.0000012421547809
 20
84.41966689461088
 30
0.0
 11
0.0000012421547809
 21
83.58033337619588
 31
0.0
  0
LINE
  5
C60
330
1F
100
AcDbEntity
  8
0
100
AcDbLine
 10
0.5800123440147901
 20
82.98066643200789
 30
0.0
 11
2.419990140293748
 21
82.91933383879888
 31
0.0
  0
LINE
  5
C61
330
1F
100
AcDbEntity
  8
0
100
AcDbLine
 10
2.419990140293748
 20
85.08066643200789
 30
0.0
 11
0.5800123440147901
 21
85.01933383879885
 31
0.0
  0
LINE
  5
C62
330
1F
100
AcDbEntity
  8
0
100
AcDbLine
 10
3.000001242154779
 20
89.31966689461084
 30
0.0
 11
3.000001242154779
 21
85.68033337619487
 31
0.0
  0
LINE
  5
C63
330
1F
100
AcDbEntity
  8
0
100
AcDbLine
 10
9.700001242153804
 20
72.47381421383487
 30
0.0
 11
8.000001242153757
 21
72.47381421383487
 31
0.0
  0
POINT
  5
C64
330
1F
100
AcDbEntity
  8
0
100
AcDbPoint
 10
0.0000012421547809
 20
76.00000013540387
 30
0.0
  0
ARC
  5
C65
330
1F
100
AcDbEntity
  8
0
100
AcDbCircle
 10
2.400001242154754
 20
75.31966689461086
 30
0.0
 40
0.6
100
AcDbArc
 50
0.0
 51
88.09084756699943
  0
ARC
  5
C66
330
1F
100
AcDbEntity
  8
0
100
AcDbCircle
 10
2.400001242154754
 20
78.68033337619491
 30
0.0
 40
0.6
100
AcDbArc
 50
271.909152432994
 51
0.0
  0
LINE
  5
C67
330
1F
100
AcDbEntity
  8
0
100
AcDbLine
 10
9.500001242154779
 20
73.00000013540387
 30
0.0
 11
8.000001242153757
 21
73.00000013540387
 31
0.0
  0
ARC
  5
C68
330
1F
100
AcDbEntity
  8
0
100
AcDbCircle
 10
0.6000012421548036
 20
77.41966689461087
 30
0.0
 40
0.6
100
AcDbArc
 50
91.90915243299405
 51
180.0
  0
ARC
  5
C69
330
1F
100
AcDbEntity
  8
0
100
AcDbCircle
 10
0.6000012421548036
 20
76.58033337619588
 30
0.0
 40
0.6
100
AcDbArc
 50
180.0
 51
268.0908475670059
  0
LINE
  5
C6A
330
1F
100
AcDbEntity
  8
0
100
AcDbLine
 10
0.0000012421547809
 20
77.41966689461087
 30
0.0
 11
0.0000012421547809
 21
76.58033337619588
 31
0.0
  0
LINE
  5
C6B
330
1F
100
AcDbEntity
  8
0
100
AcDbLine
 10
0.5800123440147901
 20
75.98066643200787
 30
0.0
 11
2.419990140293748
 21
75.91933383879887
 31
0.0
  0
LINE
  5
C6C
330
1F
100
AcDbEntity
  8
0
100
AcDbLine
 10
2.419990140293748
 20
78.08066643200787
 30
0.0
 11
0.5800123440147901
 21
78.01933383879884
 31
0.0
  0
LINE
  5
C6D
330
1F
100
AcDbEntity
  8
0
100
AcDbLine
 10
0.0000012421547809
 20
64.61966689461189
 30
0.0
 11
0.0000012421547809
 21
59.58033337619485
 31
0.0
  0
ARC
  5
C6E
330
1F
100
AcDbEntity
  8
0
100
AcDbCircle
 10
0.6000012421537804
 20
64.41966689461088
 30
0.0
 40
0.6
100
AcDbArc
 50
91.90915243299405
 51
180.0
  0
LINE
  5
C6F
330
1F
100
AcDbEntity
  8
0
100
AcDbLine
 10
0.5800123440147901
 20
65.01933383879886
 30
0.0
 11
3.000001242153756
 21
65.10000013540286
 31
0.0
  0
ARC
  5
C70
330
1F
100
AcDbEntity
  8
0
100
AcDbCircle
 10
0.6000012421537804
 20
64.61966689461189
 30
0.0
 40
0.6
100
AcDbArc
 50
91.90915243299405
 51
180.0
  0
LINE
  5
C71
330
1F
100
AcDbEntity
  8
0
100
AcDbLine
 10
0.5800123440147901
 20
65.21933383879889
 30
0.0
 11
3.000001242153756
 21
65.30000013540387
 31
0.0
  0
POINT
  5
C72
330
1F
100
AcDbEntity
  8
0
100
AcDbPoint
 10
0.0000012421547809
 20
69.00000013540386
 30
0.0
  0
ARC
  5
C73
330
1F
100
AcDbEntity
  8
0
100
AcDbCircle
 10
2.400001242154754
 20
64.68033337619487
 30
0.0
 40
0.6
100
AcDbArc
 50
271.9091524329875
 51
0.0
  0
ARC
  5
C74
330
1F
100
AcDbEntity
  8
0
100
AcDbCircle
 10
2.400001242154754
 20
68.31966689461086
 30
0.0
 40
0.6
100
AcDbArc
 50
0.0
 51
88.09084756699943
  0
ARC
  5
C75
330
1F
100
AcDbEntity
  8
0
100
AcDbCircle
 10
0.6000012421548036
 20
69.58033337619588
 30
0.0
 40
0.6
100
AcDbArc
 50
180.0
 51
268.0908475670059
  0
ARC
  5
C76
330
1F
100
AcDbEntity
  8
0
100
AcDbCircle
 10
0.6000012421548036
 20
63.41966689461088
 30
0.0
 40
0.6
100
AcDbArc
 50
91.90915243299405
 51
180.0
  0
LINE
  5
C77
330
1F
100
AcDbEntity
  8
0
100
AcDbLine
 10
0.0000012421547809
 20
70.41966689461087
 30
0.0
 11
0.0000012421547809
 21
69.58033337619588
 31
0.0
  0
LINE
  5
C78
330
1F
100
AcDbEntity
  8
0
100
AcDbLine
 10
2.419990140293748
 20
64.08066643200789
 30
0.0
 11
0.5800123440147901
 21
64.01933383879884
 31
0.0
  0
LINE
  5
C79
330
1F
100
AcDbEntity
  8
0
100
AcDbLine
 10
3.000001242154779
 20
68.31966689461086
 30
0.0
 11
3.000001242154779
 21
64.68033337619487
 31
0.0
  0
LINE
  5
C7A
330
1F
100
AcDbEntity
  8
0
100
AcDbLine
 10
0.5800123440147901
 20
68.98066643200785
 30
0.0
 11
2.419990140293748
 21
68.91933383879886
 31
0.0
  0
LINE
  5
C7B
330
1F
100
AcDbEntity
  8
0
100
AcDbLine
 10
6.000001242154781
 20
70.97381421383487
 30
0.0
 11
5.000001242154778
 21
70.97381421383487
 31
0.0
  0
LINE
  5
C7C
330
1F
100
AcDbEntity
  8
0
100
AcDbLine
 10
5.000001242154778
 20
71.00000013540387
 30
0.0
 11
3.700001242154711
 21
71.00000013540387
 31
0.0
  0
ARC
  5
C7D
330
1F
100
AcDbEntity
  8
0
100
AcDbCircle
 10
2.400001242154754
 20
71.6803333761949
 30
0.0
 40
0.6
100
AcDbArc
 50
271.909152432994
 51
0.0
  0
LINE
  5
C7E
330
1F
100
AcDbEntity
  8
0
100
AcDbLine
 10
2.419990140293748
 20
71.08066643200789
 30
0.0
 11
0.5800123440147901
 21
71.01933383879885
 31
0.0
  0
ARC
  5
C7F
330
1F
100
AcDbEntity
  8
0
100
AcDbCircle
 10
0.6000012421537804
 20
70.41966689461087
 30
0.0
 40
0.6
100
AcDbArc
 50
91.90915243299405
 51
180.0
  0
ARC
  5
C80
330
1F
100
AcDbEntity
  8
0
100
AcDbCircle
 10
0.6000012421537804
 20
59.58033337619485
 30
0.0
 40
0.6
100
AcDbArc
 50
180.0
 51
268.0908475670059
  0
LINE
  5
C81
330
1F
100
AcDbEntity
  8
0
100
AcDbLine
 10
0.5800123440147901
 20
58.98066643200785
 30
0.0
 11
3.000001242153756
 21
58.90000013540287
 31
0.0
  0
POINT
  5
C82
330
1F
100
AcDbEntity
  8
0
100
AcDbPoint
 10
0.0000012421547809
 20
55.00000013540284
 30
0.0
  0
POINT
  5
C83
330
1F
100
AcDbEntity
  8
0
100
AcDbPoint
 10
0.0000012421547809
 20
62.00000013540284
 30
0.0
  0
ARC
  5
C84
330
1F
100
AcDbEntity
  8
0
100
AcDbCircle
 10
2.400001242154754
 20
57.68033337619486
 30
0.0
 40
0.6
100
AcDbArc
 50
271.909152432994
 51
0.0
  0
ARC
  5
C85
330
1F
100
AcDbEntity
  8
0
100
AcDbCircle
 10
2.400001242154754
 20
61.31966689461086
 30
0.0
 40
0.6
100
AcDbArc
 50
0.0
 51
88.09084756699943
  0
ARC
  5
C86
330
1F
100
AcDbEntity
  8
0
100
AcDbCircle
 10
0.6000012421548036
 20
62.58033337619588
 30
0.0
 40
0.6
100
AcDbArc
 50
180.0
 51
268.0908475670059
  0
ARC
  5
C87
330
1F
100
AcDbEntity
  8
0
100
AcDbCircle
 10
0.6000012421548036
 20
56.41966689461089
 30
0.0
 40
0.6
100
AcDbArc
 50
91.90915243299405
 51
180.0
  0
ARC
  5
C88
330
1F
100
AcDbEntity
  8
0
100
AcDbCircle
 10
0.6000012421548036
 20
55.58033337619588
 30
0.0
 40
0.6
100
AcDbArc
 50
180.0
 51
268.0908475670059
  0
LINE
  5
C89
330
1F
100
AcDbEntity
  8
0
100
AcDbLine
 10
0.0000012421547809
 20
56.41966689461089
 30
0.0
 11
0.0000012421547809
 21
55.58033337619588
 31
0.0
  0
LINE
  5
C8A
330
1F
100
AcDbEntity
  8
0
100
AcDbLine
 10
0.5800123440147901
 20
54.98066643200784
 30
0.0
 11
2.419990140293748
 21
54.91933383879889
 31
0.0
  0
LINE
  5
C8B
330
1F
100
AcDbEntity
  8
0
100
AcDbLine
 10
2.419990140293748
 20
57.0806664320079
 30
0.0
 11
0.5800123440147901
 21
57.01933383879885
 31
0.0
  0
LINE
  5
C8C
330
1F
100
AcDbEntity
  8
0
100
AcDbLine
 10
3.000001242154779
 20
61.31966689461086
 30
0.0
 11
3.000001242154779
 21
57.68033337619486
 31
0.0
  0
LINE
  5
C8D
330
1F
100
AcDbEntity
  8
0
100
AcDbLine
 10
0.5800123440147901
 20
61.98066643200784
 30
0.0
 11
2.419990140293748
 21
61.91933383879884
 31
0.0
  0
ARC
  5
C8E
330
1F
100
AcDbEntity
  8
0
100
AcDbCircle
 10
2.400001242154754
 20
54.31966689461086
 30
0.0
 40
0.6
100
AcDbArc
 50
0.0
 51
88.09084756699943
  0
ARC
  5
C8F
330
1F
100
AcDbEntity
  8
0
100
AcDbCircle
 10
2.400001242154754
 20
36.68033337619489
 30
0.0
 40
0.6
100
AcDbArc
 50
271.909152432994
 51
0.0
  0
LINE
  5
C90
330
1F
100
AcDbEntity
  8
0
100
AcDbLine
 10
3.000001242154779
 20
47.31966689461086
 30
0.0
 11
3.000001242154779
 21
43.68033337619489
 31
0.0
  0
POINT
  5
C91
330
1F
100
AcDbEntity
  8
0
100
AcDbPoint
 10
0.0000012421547809
 20
48.00000013540387
 30
0.0
  0
ARC
  5
C92
330
1F
100
AcDbEntity
  8
0
100
AcDbCircle
 10
2.400001242154754
 20
47.31966689461086
 30
0.0
 40
0.6
100
AcDbArc
 50
0.0
 51
88.09084756699943
  0
ARC
  5
C93
330
1F
100
AcDbEntity
  8
0
100
AcDbCircle
 10
2.400001242154754
 20
50.68033337619489
 30
0.0
 40
0.6
100
AcDbArc
 50
271.909152432994
 51
0.0
  0
ARC
  5
C94
330
1F
100
AcDbEntity
  8
0
100
AcDbCircle
 10
0.6000012421537804
 20
49.41966689461088
 30
0.0
 40
0.6
100
AcDbArc
 50
91.90915243299405
 51
180.0
  0
ARC
  5
C95
330
1F
100
AcDbEntity
  8
0
100
AcDbCircle
 10
0.6000012421548036
 20
48.58033337619587
 30
0.0
 40
0.6
100
AcDbArc
 50
180.0
 51
268.0908475670059
  0
LINE
  5
C96
330
1F
100
AcDbEntity
  8
0
100
AcDbLine
 10
0.0000012421547809
 20
49.41966689461088
 30
0.0
 11
0.0000012421547809
 21
48.58033337619587
 31
0.0
  0
LINE
  5
C97
330
1F
100
AcDbEntity
  8
0
100
AcDbLine
 10
0.5800123440147901
 20
47.98066643200784
 30
0.0
 11
2.419990140293748
 21
47.91933383879885
 31
0.0
  0
LINE
  5
C98
330
1F
100
AcDbEntity
  8
0
100
AcDbLine
 10
2.419990140293748
 20
50.08066643200788
 30
0.0
 11
0.5800123440147901
 21
50.01933383879885
 31
0.0
  0
POINT
  5
C99
330
1F
100
AcDbEntity
  8
0
100
AcDbPoint
 10
0.0000012421547809
 20
41.00000013540282
 30
0.0
  0
ARC
  5
C9A
330
1F
100
AcDbEntity
  8
0
100
AcDbCircle
 10
2.400001242154754
 20
40.31966689461085
 30
0.0
 40
0.6
100
AcDbArc
 50
0.0
 51
88.09084756699943
  0
ARC
  5
C9B
330
1F
100
AcDbEntity
  8
0
100
AcDbCircle
 10
2.400001242154754
 20
43.68033337619489
 30
0.0
 40
0.6
100
AcDbArc
 50
271.909152432994
 51
0.0
  0
ARC
  5
C9C
330
1F
100
AcDbEntity
  8
0
100
AcDbCircle
 10
0.6000012421537804
 20
42.41966689461088
 30
0.0
 40
0.6
100
AcDbArc
 50
91.90915243299405
 51
180.0
  0
ARC
  5
C9D
330
1F
100
AcDbEntity
  8
0
100
AcDbCircle
 10
0.6000012421537804
 20
41.58033337619587
 30
0.0
 40
0.6
100
AcDbArc
 50
180.0
 51
268.0908475670059
  0
LINE
  5
C9E
330
1F
100
AcDbEntity
  8
0
100
AcDbLine
 10
0.0000012421547809
 20
42.41966689461088
 30
0.0
 11
0.0000012421547809
 21
41.58033337619587
 31
0.0
  0
LINE
  5
C9F
330
1F
100
AcDbEntity
  8
0
100
AcDbLine
 10
0.5800123440147901
 20
40.98066643200786
 30
0.0
 11
2.419990140293748
 21
40.91933383879886
 31
0.0
  0
LINE
  5
CA0
330
1F
100
AcDbEntity
  8
0
100
AcDbLine
 10
2.419990140293748
 20
43.08066643200788
 30
0.0
 11
0.5800123440147901
 21
43.01933383879885
 31
0.0
  0
LINE
  5
CA1
330
1F
100
AcDbEntity
  8
0
100
AcDbLine
 10
3.000001242154779
 20
40.31966689461085
 30
0.0
 11
3.000001242154779
 21
36.68033337619489
 31
0.0
  0
ARC
  5
CA2
330
1F
100
AcDbEntity
  8
0
100
AcDbCircle
 10
0.6000012421537804
 20
27.58033337619587
 30
0.0
 40
0.6
100
AcDbArc
 50
180.0
 51
268.0908475670059
  0
LINE
  5
CA3
330
1F
100
AcDbEntity
  8
0
100
AcDbLine
 10
9.700001242153804
 20
31.47381421383487
 30
0.0
 11
9.700001242153804
 21
22.47381421383487
 31
0.0
  0
LINE
  5
CA4
330
1F
100
AcDbEntity
  8
0
100
AcDbLine
 10
8.000001242153757
 20
31.47381421383487
 30
0.0
 11
8.000001242153757
 21
22.47381421383487
 31
0.0
  0
LINE
  5
CA5
330
1F
100
AcDbEntity
  8
0
100
AcDbLine
 10
5.000001242154778
 20
33.00000013540385
 30
0.0
 11
5.000001242154778
 21
21.00000013540282
 31
0.0
  0
LINE
  5
CA6
330
1F
100
AcDbEntity
  8
0
100
AcDbLine
 10
4.500001242154778
 20
33.00000013540385
 30
0.0
 11
4.500001242154778
 21
21.00000013540385
 31
0.0
  0
LINE
  5
CA7
330
1F
100
AcDbEntity
  8
0
100
AcDbLine
 10
3.700001242154711
 20
33.00000013540385
 30
0.0
 11
3.700001242154711
 21
21.10000013540285
 31
0.0
  0
LINE
  5
CA8
330
1F
100
AcDbEntity
  8
0
100
AcDbLine
 10
9.500001242154779
 20
31.00000013540385
 30
0.0
 11
9.500001242154779
 21
23.00000013540385
 31
0.0
  0
LINE
  5
CA9
330
1F
100
AcDbEntity
  8
0
100
AcDbLine
 10
8.700001242154712
 20
31.00000013540385
 30
0.0
 11
8.700001242154712
 21
23.00000013540385
 31
0.0
  0
LINE
  5
CAA
330
1F
100
AcDbEntity
  8
0
100
AcDbLine
 10
8.100001242154803
 20
31.00000013540385
 30
0.0
 11
8.100001242154803
 21
23.00000013540385
 31
0.0
  0
ARC
  5
CAB
330
1F
100
AcDbEntity
  8
0
100
AcDbCircle
 10
2.400001242154754
 20
29.68033337619488
 30
0.0
 40
0.6
100
AcDbArc
 50
271.909152432994
 51
0.0
  0
ARC
  5
CAC
330
1F
100
AcDbEntity
  8
0
100
AcDbCircle
 10
0.6000012421548036
 20
28.41966689461081
 30
0.0
 40
0.6
100
AcDbArc
 50
91.90915243299405
 51
180.0
  0
LINE
  5
CAD
330
1F
100
AcDbEntity
  8
0
100
AcDbLine
 10
0.0000012421547809
 20
28.41966689461081
 30
0.0
 11
0.0000012421547809
 21
27.58033337619587
 31
0.0
  0
LINE
  5
CAE
330
1F
100
AcDbEntity
  8
0
100
AcDbLine
 10
2.419990140293748
 20
29.08066643200788
 30
0.0
 11
0.5800123440147901
 21
29.01933383879883
 31
0.0
  0
LINE
  5
CAF
330
1F
100
AcDbEntity
  8
0
100
AcDbLine
 10
6.000001242154781
 20
32.97381421383582
 30
0.0
 11
5.000001242154778
 21
32.97381421383582
 31
0.0
  0
LINE
  5
CB0
330
1F
100
AcDbEntity
  8
0
100
AcDbLine
 10
9.700001242153804
 20
31.47381421383487
 30
0.0
 11
8.000001242153757
 21
31.47381421383487
 31
0.0
  0
LINE
  5
CB1
330
1F
100
AcDbEntity
  8
0
100
AcDbLine
 10
5.000001242154778
 20
33.00000013540385
 30
0.0
 11
3.700001242154711
 21
33.00000013540385
 31
0.0
  0
POINT
  5
CB2
330
1F
100
AcDbEntity
  8
0
100
AcDbPoint
 10
0.0000012421547809
 20
34.00000013540386
 30
0.0
  0
ARC
  5
CB3
330
1F
100
AcDbEntity
  8
0
100
AcDbCircle
 10
2.400001242154754
 20
33.31966689461085
 30
0.0
 40
0.6
100
AcDbArc
 50
0.0
 51
88.09084756699943
  0
LINE
  5
CB4
330
1F
100
AcDbEntity
  8
0
100
AcDbLine
 10
9.500001242154779
 20
31.00000013540385
 30
0.0
 11
8.000001242153757
 21
31.00000013540385
 31
0.0
  0
ARC
  5
CB5
330
1F
100
AcDbEntity
  8
0
100
AcDbCircle
 10
0.6000012421537804
 20
35.41966689461088
 30
0.0
 40
0.6
100
AcDbArc
 50
91.90915243299405
 51
180.0
  0
ARC
  5
CB6
330
1F
100
AcDbEntity
  8
0
100
AcDbCircle
 10
0.6000012421548036
 20
34.58033337619585
 30
0.0
 40
0.6
100
AcDbArc
 50
180.0
 51
268.0908475670059
  0
LINE
  5
CB7
330
1F
100
AcDbEntity
  8
0
100
AcDbLine
 10
0.0000012421547809
 20
35.41966689461088
 30
0.0
 11
0.0000012421547809
 21
34.58033337619585
 31
0.0
  0
LINE
  5
CB8
330
1F
100
AcDbEntity
  8
0
100
AcDbLine
 10
0.5800123440147901
 20
33.98066643200785
 30
0.0
 11
2.419990140293748
 21
33.91933383879887
 31
0.0
  0
LINE
  5
CB9
330
1F
100
AcDbEntity
  8
0
100
AcDbLine
 10
2.419990140293748
 20
36.08066643200789
 30
0.0
 11
0.5800123440147901
 21
36.01933383879882
 31
0.0
  0
LINE
  5
CBA
330
1F
100
AcDbEntity
  8
0
100
AcDbLine
 10
3.000001242154779
 20
33.31966689461085
 30
0.0
 11
3.000001242154779
 21
29.68033337619488
 31
0.0
  0
LINE
  5
CBB
330
1F
100
AcDbEntity
  8
0
100
AcDbLine
 10
6.000001242154781
 20
20.97381421383488
 30
0.0
 11
5.000001242154778
 21
20.97381421383488
 31
0.0
  0
LINE
  5
CBC
330
1F
100
AcDbEntity
  8
0
100
AcDbLine
 10
5.000001242154778
 20
21.00000013540385
 30
0.0
 11
3.700001242154711
 21
21.00000013540385
 31
0.0
  0
LINE
  5
CBD
330
1F
100
AcDbEntity
  8
0
100
AcDbLine
 10
9.700001242153804
 20
22.47381421383487
 30
0.0
 11
8.000001242153757
 21
22.47381421383487
 31
0.0
  0
POINT
  5
CBE
330
1F
100
AcDbEntity
  8
0
100
AcDbPoint
 10
0.0000012421547809
 20
22.00000013540282
 30
0.0
  0
POINT
  5
CBF
330
1F
100
AcDbEntity
  8
0
100
AcDbPoint
 10
0.0000012421547809
 20
27.00000013540282
 30
0.0
  0
ARC
  5
CC0
330
1F
100
AcDbEntity
  8
0
100
AcDbCircle
 10
2.500001242154779
 20
22.58361116939687
 30
0.0
 40
0.5
100
AcDbArc
 50
271.909152432994
 51
0.0
  0
ARC
  5
CC1
330
1F
100
AcDbEntity
  8
0
100
AcDbCircle
 10
2.400001242154754
 20
26.31966689461085
 30
0.0
 40
0.6
100
AcDbArc
 50
0.0
 51
88.09084756699943
  0
LINE
  5
CC2
330
1F
100
AcDbEntity
  8
0
100
AcDbLine
 10
9.500001242154779
 20
23.00000013540385
 30
0.0
 11
8.000001242153757
 21
23.00000013540385
 31
0.0
  0
LINE
  5
CC3
330
1F
100
AcDbEntity
  8
0
100
AcDbLine
 10
2.516658657270792
 20
22.08388871590687
 30
0.0
 11
0.5800123440147901
 21
22.01933383879882
 31
0.0
  0
LINE
  5
CC4
330
1F
100
AcDbEntity
  8
0
100
AcDbLine
 10
3.000001242154779
 20
26.31966689461085
 30
0.0
 11
3.000001242154779
 21
22.58361116939687
 31
0.0
  0
LINE
  5
CC5
330
1F
100
AcDbEntity
  8
0
100
AcDbLine
 10
0.5800123440147901
 20
26.98066643200786
 30
0.0
 11
2.419990140293748
 21
26.91933383879887
 31
0.0
  0
ARC
  5
CC6
330
1F
100
AcDbEntity
  8
0
100
AcDbCircle
 10
0.6000012421548036
 20
21.41966689461082
 30
0.0
 40
0.6
100
AcDbArc
 50
91.90915243299405
 51
180.0
  0
LINE
  5
CE6
330
1F
100
AcDbEntity
  8
0
100
AcDbLine
 10
56.00000124215478
 20
40.97381421383488
 30
0.0
 11
56.00000124215478
 21
42.97381421383488
 31
0.0
  0
LINE
  5
CE7
330
1F
100
AcDbEntity
  8
0
100
AcDbLine
 10
55.00000124215477
 20
40.97381421383488
 30
0.0
 11
55.00000124215477
 21
42.97381421383488
 31
0.0
  0
LINE
  5
CE8
330
1F
100
AcDbEntity
  8
0
100
AcDbLine
 10
56.00000124215478
 20
26.97381421383488
 30
0.0
 11
56.00000124215478
 21
28.97381421383487
 31
0.0
  0
LINE
  5
CE9
330
1F
100
AcDbEntity
  8
0
100
AcDbLine
 10
55.00000124215477
 20
26.97381421383488
 30
0.0
 11
55.00000124215477
 21
28.97381421383487
 31
0.0
  0
LINE
  5
CEA
330
1F
100
AcDbEntity
  8
0
100
AcDbLine
 10
56.00000124215478
 20
33.97381421383487
 30
0.0
 11
56.00000124215478
 21
35.97381421383488
 31
0.0
  0
LINE
  5
CEB
330
1F
100
AcDbEntity
  8
0
100
AcDbLine
 10
55.00000124215477
 20
33.97381421383487
 30
0.0
 11
55.00000124215477
 21
35.97381421383488
 31
0.0
  0
LINE
  5
CEC
330
1F
100
AcDbEntity
  8
0
100
AcDbLine
 10
58.00000124215478
 20
3.585960370666839
 30
0.0
 11
5.000001242154778
 21
4.973814213834883
 31
0.0
  0
LINE
  5
CED
330
1F
100
AcDbEntity
  8
0
100
AcDbLine
 10
4.000001242154779
 20
5.000000135403863
 30
0.0
 11
58.00000124215478
 21
3.585960370666839
 31
0.0
  0
LINE
  5
CEE
330
1F
100
AcDbEntity
  8
0
100
AcDbLine
 10
0.0000012421547809
 20
0.0000001354038659
 30
0.0
 11
58.00000124215478
 21
0.0000001354038659
 31
0.0
  0
LINE
  5
CEF
330
1F
100
AcDbEntity
  8
0
100
AcDbLine
 10
4.000001242154779
 20
5.000000135403863
 30
0.0
 11
0.0000012421547809
 21
4.895256449126858
 31
0.0
  0
LINE
  5
CF0
330
1F
100
AcDbEntity
  8
0
100
AcDbLine
 10
31.10000124215473
 20
3.800000135402852
 30
0.0
 11
31.10000124215473
 21
0.0000001354038659
 31
0.0
  0
LINE
  5
CF1
330
1F
100
AcDbEntity
  8
0
100
AcDbLine
 10
26.90000124215378
 20
3.800000135402852
 30
0.0
 11
26.90000124215378
 21
0.0000001354038659
 31
0.0
  0
LINE
  5
CF2
330
1F
100
AcDbEntity
  8
0
100
AcDbLine
 10
23.50000124215476
 20
3.800000135402852
 30
0.0
 11
34.50000124215476
 21
3.800000135402852
 31
0.0
  0
LINE
  5
CF3
330
1F
100
AcDbEntity
  8
0
100
AcDbLine
 10
23.50000124215476
 20
4.489374664803903
 30
0.0
 11
23.50000124215476
 21
3.800000135402852
 31
0.0
  0
LINE
  5
CF4
330
1F
100
AcDbEntity
  8
0
100
AcDbLine
 10
34.50000124215476
 20
4.201329527543862
 30
0.0
 11
34.50000124215476
 21
3.800000135402852
 31
0.0
  0
LINE
  5
CF5
330
1F
100
AcDbEntity
  8
0
100
AcDbLine
 10
58.00000124215478
 20
0.0000001354038659
 30
0.0
 11
58.00000124215478
 21
3.585960370666839
 31
0.0
  0
LINE
  5
CF6
330
1F
100
AcDbEntity
  8
0
100
AcDbLine
 10
41.15000124215479
 20
120.9738142138347
 30
0.0
 11
41.15000124215479
 21
124.3738142138347
 31
0.0
  0
LINE
  5
CF7
330
1F
100
AcDbEntity
  8
0
100
AcDbLine
 10
41.15000124215479
 20
124.3738142138347
 30
0.0
 11
47.45000124215478
 21
124.3738142138347
 31
0.0
  0
LINE
  5
CF8
330
1F
100
AcDbEntity
  8
0
100
AcDbLine
 10
47.45000124215478
 20
124.3738142138347
 30
0.0
 11
47.45000124215478
 21
120.9738142138347
 31
0.0
  0
LINE
  5
CF9
330
1F
100
AcDbEntity
  8
0
100
AcDbLine
 10
15.60000124215376
 20
126.2738142138347
 30
0.0
 11
15.60000124215376
 21
127.5738142138347
 31
0.0
  0
LINE
  5
CFA
330
1F
100
AcDbEntity
  8
0
100
AcDbLine
 10
15.60000124215376
 20
127.5738142138347
 30
0.0
 11
24.94500124215385
 21
127.5738142138347
 31
0.0
  0
LINE
  5
CFB
330
1F
100
AcDbEntity
  8
0
100
AcDbLine
 10
24.94500124215385
 20
127.5738142138347
 30
0.0
 11
24.94500124215385
 21
120.9738142138347
 31
0.0
  0
LINE
  5
CFC
330
1F
100
AcDbEntity
  8
0
100
AcDbLine
 10
15.2000012421538
 20
121.9738142138347
 30
0.0
 11
15.2000012421538
 21
126.2738142138347
 31
0.0
  0
LINE
  5
CFD
330
1F
100
AcDbEntity
  8
0
100
AcDbLine
 10
15.2000012421538
 20
126.2738142138347
 30
0.0
 11
21.1000012421538
 21
126.2738142138347
 31
0.0
  0
LINE
  5
CFE
330
1F
100
AcDbEntity
  8
0
100
AcDbLine
 10
21.1000012421538
 20
126.2738142138347
 30
0.0
 11
21.1000012421538
 21
121.9738142138347
 31
0.0
  0
LINE
  5
CFF
330
1F
100
AcDbEntity
  8
0
100
AcDbLine
 10
14.1000012421548
 20
120.9738142138347
 30
0.0
 11
14.1000012421548
 21
121.9738142138347
 31
0.0
  0
LINE
  5
D00
330
1F
100
AcDbEntity
  8
0
100
AcDbLine
 10
14.1000012421548
 20
121.9738142138347
 30
0.0
 11
22.70000124215381
 21
121.9738142138347
 31
0.0
  0
LINE
  5
D01
330
1F
100
AcDbEntity
  8
0
100
AcDbLine
 10
22.70000124215381
 20
121.9738142138347
 30
0.0
 11
22.70000124215381
 21
120.9738142138347
 31
0.0
  0
LINE
  5
D6C
330
1F
100
AcDbEntity
  8
2_カバ_
  6
CONTINUOUS
100
AcDbLine
 10
55.00000124215478
 20
75.97381421383492
 30
0.0
 11
55.00000124215478
 21
77.9738142138359
 31
0.0
  0
LINE
  5
D6D
330
1F
100
AcDbEntity
  8
2_カバ_
  6
CONTINUOUS
100
AcDbLine
 10
56.00000124215478
 20
75.97381421383492
 30
0.0
 11
56.00000124215478
 21
77.9738142138359
 31
0.0
  0
LINE
  5
D6E
330
1F
100
AcDbEntity
  8
2_カバ_
  6
CONTINUOUS
100
AcDbLine
 10
54.50000124215478
 20
96.97381421383497
 30
0.0
 11
54.50000124215478
 21
70.97381421383591
 31
0.0
  0
LINE
  5
D6F
330
1F
100
AcDbEntity
  8
2_カバ_
  6
CONTINUOUS
100
AcDbLine
 10
33.00000124215475
 20
75.97381421383492
 30
0.0
 11
33.00000124215475
 21
77.97381421383495
 31
0.0
  0
LINE
  5
D70
330
1F
100
AcDbEntity
  8
2_カバ_
  6
CONTINUOUS
100
AcDbLine
 10
33.50000124215476
 20
70.97381421383492
 30
0.0
 11
33.50000124215476
 21
96.97381421383497
 31
0.0
  0
LINE
  5
D71
330
1F
100
AcDbEntity
  8
2_カバ_
  6
CONTINUOUS
100
AcDbLine
 10
57.00000124215478
 20
68.97381421383492
 30
0.0
 11
16.00000124215478
 21
68.97381421383492
 31
0.0
  0
LINE
  5
D72
330
1F
100
AcDbEntity
  8
2_カバ_
  6
CONTINUOUS
100
AcDbLine
 10
57.00000124215478
 20
70.97381421383492
 30
0.0
 11
16.00000124215478
 21
70.97381421383492
 31
0.0
  0
LINE
  5
D73
330
1F
100
AcDbEntity
  8
2_カバ_
  6
CONTINUOUS
100
AcDbLine
 10
39.00000124215477
 20
49.97381421383494
 30
0.0
 11
49.00000124215478
 21
49.97381421383494
 31
0.0
  0
LINE
  5
D74
330
1F
100
AcDbEntity
  8
2_カバ_
  6
CONTINUOUS
100
AcDbLine
 10
49.00000124215478
 20
53.47381421383493
 30
0.0
 11
39.00000124215477
 21
53.47381421383493
 31
0.0
  0
LINE
  5
D75
330
1F
100
AcDbEntity
  8
2_カバ_
  6
CONTINUOUS
100
AcDbLine
 10
54.50000124215478
 20
48.97381421383493
 30
0.0
 11
33.50000124215476
 21
48.97381421383493
 31
0.0
  0
LINE
  5
D76
330
1F
100
AcDbEntity
  8
2_カバ_
  6
CONTINUOUS
100
AcDbLine
 10
57.00000124215478
 20
54.97381421383494
 30
0.0
 11
16.00000124215478
 21
54.97381421383494
 31
0.0
  0
LINE
  5
D77
330
1F
100
AcDbEntity
  8
2_カバ_
  6
CONTINUOUS
100
AcDbLine
 10
57.00000124215478
 20
56.97381421383493
 30
0.0
 11
16.00000124215478
 21
56.97381421383493
 31
0.0
  0
LINE
  5
D78
330
1F
100
AcDbEntity
  8
2_カバ_
  6
CONTINUOUS
100
AcDbLine
 10
57.00000124215478
 20
61.97381421383493
 30
0.0
 11
16.00000124215478
 21
61.97381421383493
 31
0.0
  0
LINE
  5
D79
330
1F
100
AcDbEntity
  8
2_カバ_
  6
CONTINUOUS
100
AcDbLine
 10
57.00000124215478
 20
63.97381421383493
 30
0.0
 11
16.00000124215478
 21
63.97381421383588
 31
0.0
  0
LINE
  5
D7A
330
1F
100
AcDbEntity
  8
2_カバ_
  6
CONTINUOUS
100
AcDbLine
 10
33.00000124215475
 20
75.97381421383492
 30
0.0
 11
16.00000124215478
 21
75.97381421383492
 31
0.0
  0
LINE
  5
D7B
330
1F
100
AcDbEntity
  8
2_カバ_
  6
CONTINUOUS
100
AcDbLine
 10
33.00000124215475
 20
47.97381421383493
 30
0.0
 11
16.00000124215478
 21
47.97381421383493
 31
0.0
  0
LINE
  5
D7C
330
1F
100
AcDbEntity
  8
2_カバ_
  6
CONTINUOUS
100
AcDbLine
 10
33.00000124215475
 20
49.97381421383494
 30
0.0
 11
16.00000124215478
 21
49.97381421383494
 31
0.0
  0
LINE
  5
D7D
330
1F
100
AcDbEntity
  8
2_カバ_
  6
CONTINUOUS
100
AcDbLine
 10
33.50000124215476
 20
56.97381421383493
 30
0.0
 11
33.50000124215476
 21
61.97381421383493
 31
0.0
  0
LINE
  5
D7E
330
1F
100
AcDbEntity
  8
2_カバ_
  6
CONTINUOUS
100
AcDbLine
 10
33.50000124215476
 20
48.97381421383493
 30
0.0
 11
33.50000124215476
 21
54.97381421383494
 31
0.0
  0
LINE
  5
D7F
330
1F
100
AcDbEntity
  8
2_カバ_
  6
CONTINUOUS
100
AcDbLine
 10
33.00000124215475
 20
47.97381421383493
 30
0.0
 11
33.00000124215475
 21
49.97381421383494
 31
0.0
  0
ARC
  5
D80
330
1F
100
AcDbEntity
  8
2_カバ_
  6
CONTINUOUS
100
AcDbCircle
 10
39.00000124215477
 20
52.9738142138359
 30
0.0
 40
0.5
100
AcDbArc
 50
90.0
 51
180.0
  0
LINE
  5
D81
330
1F
100
AcDbEntity
  8
2_カバ_
  6
CONTINUOUS
100
AcDbLine
 10
38.50000124215475
 20
52.9738142138359
 30
0.0
 11
38.50000124215475
 21
50.47381421383493
 31
0.0
  0
ARC
  5
D82
330
1F
100
AcDbEntity
  8
2_カバ_
  6
CONTINUOUS
100
AcDbCircle
 10
39.00000124215477
 20
50.47381421383493
 30
0.0
 40
0.5
100
AcDbArc
 50
180.0
 51
270.0
  0
LINE
  5
D83
330
1F
100
AcDbEntity
  8
2_カバ_
  6
CONTINUOUS
100
AcDbLine
 10
33.50000124215476
 20
63.97381421383493
 30
0.0
 11
33.50000124215476
 21
68.97381421383492
 31
0.0
  0
LINE
  5
D84
330
1F
100
AcDbEntity
  8
2_カバ_
  6
CONTINUOUS
100
AcDbLine
 10
54.50000124215478
 20
61.97381421383493
 30
0.0
 11
54.50000124215478
 21
56.97381421383591
 31
0.0
  0
ARC
  5
D85
330
1F
100
AcDbEntity
  8
2_カバ_
  6
CONTINUOUS
100
AcDbCircle
 10
49.00000124215478
 20
52.97381421383493
 30
0.0
 40
0.5
100
AcDbArc
 50
0.0
 51
90.0
  0
LINE
  5
D86
330
1F
100
AcDbEntity
  8
2_カバ_
  6
CONTINUOUS
100
AcDbLine
 10
49.50000124215478
 20
50.47381421383493
 30
0.0
 11
49.50000124215478
 21
52.97381421383493
 31
0.0
  0
ARC
  5
D87
330
1F
100
AcDbEntity
  8
2_カバ_
  6
CONTINUOUS
100
AcDbCircle
 10
49.00000124215478
 20
50.47381421383493
 30
0.0
 40
0.5
100
AcDbArc
 50
270.0
 51
0.0
  0
LINE
  5
D88
330
1F
100
AcDbEntity
  8
2_カバ_
  6
CONTINUOUS
100
AcDbLine
 10
54.50000124215478
 20
54.97381421383494
 30
0.0
 11
54.50000124215478
 21
48.97381421383493
 31
0.0
  0
LINE
  5
D89
330
1F
100
AcDbEntity
  8
2_カバ_
  6
CONTINUOUS
100
AcDbLine
 10
57.00000124215478
 20
47.97381421383493
 30
0.0
 11
55.00000124215478
 21
47.97381421383493
 31
0.0
  0
LINE
  5
D8A
330
1F
100
AcDbEntity
  8
2_カバ_
  6
CONTINUOUS
100
AcDbLine
 10
57.00000124215478
 20
49.97381421383494
 30
0.0
 11
55.00000124215478
 21
49.97381421383494
 31
0.0
  0
LINE
  5
D8B
330
1F
100
AcDbEntity
  8
2_カバ_
  6
CONTINUOUS
100
AcDbLine
 10
55.00000124215478
 20
47.97381421383493
 30
0.0
 11
55.00000124215478
 21
49.97381421383494
 31
0.0
  0
LINE
  5
D8C
330
1F
100
AcDbEntity
  8
2_カバ_
  6
CONTINUOUS
100
AcDbLine
 10
56.00000124215478
 20
47.97381421383493
 30
0.0
 11
56.00000124215478
 21
49.97381421383494
 31
0.0
  0
LINE
  5
D8D
330
1F
100
AcDbEntity
  8
2_カバ_
  6
CONTINUOUS
100
AcDbLine
 10
55.00000124215478
 20
54.97381421383494
 30
0.0
 11
55.00000124215478
 21
56.97381421383493
 31
0.0
  0
LINE
  5
D8E
330
1F
100
AcDbEntity
  8
2_カバ_
  6
CONTINUOUS
100
AcDbLine
 10
56.00000124215478
 20
54.97381421383494
 30
0.0
 11
56.00000124215478
 21
56.97381421383493
 31
0.0
  0
LINE
  5
D8F
330
1F
100
AcDbEntity
  8
2_カバ_
  6
CONTINUOUS
100
AcDbLine
 10
55.00000124215478
 20
68.97381421383492
 30
0.0
 11
55.00000124215478
 21
70.97381421383492
 31
0.0
  0
LINE
  5
D90
330
1F
100
AcDbEntity
  8
2_カバ_
  6
CONTINUOUS
100
AcDbLine
 10
56.00000124215478
 20
68.97381421383492
 30
0.0
 11
56.00000124215478
 21
70.97381421383492
 31
0.0
  0
LINE
  5
D91
330
1F
100
AcDbEntity
  8
2_カバ_
  6
CONTINUOUS
100
AcDbLine
 10
55.00000124215478
 20
61.97381421383493
 30
0.0
 11
55.00000124215478
 21
63.97381421383493
 31
0.0
  0
LINE
  5
D92
330
1F
100
AcDbEntity
  8
2_カバ_
  6
CONTINUOUS
100
AcDbLine
 10
54.50000124215478
 20
68.97381421383492
 30
0.0
 11
54.50000124215478
 21
63.97381421383493
 31
0.0
  0
LINE
  5
D93
330
1F
100
AcDbEntity
  8
2_カバ_
  6
CONTINUOUS
100
AcDbLine
 10
56.00000124215478
 20
61.97381421383493
 30
0.0
 11
56.00000124215478
 21
63.97381421383493
 31
0.0
  0
LINE
  5
D94
330
1F
100
AcDbEntity
  8
2_カバ_
  6
CONTINUOUS
100
AcDbLine
 10
57.00000124215478
 20
75.97381421383492
 30
0.0
 11
55.00000124215478
 21
75.97381421383492
 31
0.0
  0
LINE
  5
D95
330
1F
100
AcDbEntity
  8
2_カバ_
  6
CONTINUOUS
100
AcDbLine
 10
57.00000124215478
 20
96.97381421383497
 30
0.0
 11
16.00000124215478
 21
96.97381421383497
 31
0.0
  0
LINE
  5
D96
330
1F
100
AcDbEntity
  8
2_カバ_
  6
CONTINUOUS
100
AcDbLine
 10
57.00000124215478
 20
98.97381421383492
 30
0.0
 11
16.00000124215478
 21
98.97381421383492
 31
0.0
  0
LINE
  5
D97
330
1F
100
AcDbEntity
  8
2_カバ_
  6
CONTINUOUS
100
AcDbLine
 10
16.00000124215478
 20
103.9738142138348
 30
0.0
 11
58.00000124215478
 21
103.9738142138348
 31
0.0
  0
LINE
  5
D98
330
1F
100
AcDbEntity
  8
2_カバ_
  6
CONTINUOUS
100
AcDbLine
 10
33.00000124215475
 20
77.97381421383495
 30
0.0
 11
16.00000124215478
 21
77.97381421383495
 31
0.0
  0
LINE
  5
D99
330
1F
100
AcDbEntity
  8
2_カバ_
  6
CONTINUOUS
100
AcDbLine
 10
33.00000124215475
 20
82.97381421383496
 30
0.0
 11
16.00000124215478
 21
82.97381421383496
 31
0.0
  0
LINE
  5
D9A
330
1F
100
AcDbEntity
  8
2_カバ_
  6
CONTINUOUS
100
AcDbLine
 10
33.00000124215475
 20
84.97381421383495
 30
0.0
 11
16.00000124215478
 21
84.97381421383495
 31
0.0
  0
LINE
  5
D9B
330
1F
100
AcDbEntity
  8
2_カバ_
  6
CONTINUOUS
100
AcDbLine
 10
33.00000124215475
 20
89.97381421383495
 30
0.0
 11
16.00000124215478
 21
89.97381421383495
 31
0.0
  0
LINE
  5
D9C
330
1F
100
AcDbEntity
  8
2_カバ_
  6
CONTINUOUS
100
AcDbLine
 10
33.00000124215475
 20
91.97381421383491
 30
0.0
 11
16.00000124215478
 21
91.97381421383491
 31
0.0
  0
CIRCLE
  5
D9D
330
1F
100
AcDbEntity
  8
2_カバ_
  6
CONTINUOUS
100
AcDbCircle
 10
35.50000124215475
 20
81.97381421383591
 30
0.0
 40
1.25
  0
LINE
  5
D9E
330
1F
100
AcDbEntity
  8
2_カバ_
  6
DASHDOT
100
AcDbLine
 10
38.16147423410079
 20
81.97381421383591
 30
0.0
 11
27.60032826106979
 21
81.97381421383591
 31
0.0
  0
LINE
  5
D9F
330
1F
100
AcDbEntity
  8
2_カバ_
  6
CONTINUOUS
100
AcDbLine
 10
33.00000124215475
 20
82.97381421383496
 30
0.0
 11
33.00000124215475
 21
84.97381421383495
 31
0.0
  0
LINE
  5
DA0
330
1F
100
AcDbEntity
  8
2_カバ_
  6
CONTINUOUS
100
AcDbLine
 10
33.00000124215475
 20
89.97381421383495
 30
0.0
 11
33.00000124215475
 21
91.97381421383491
 31
0.0
  0
LINE
  5
DA1
330
1F
100
AcDbEntity
  8
2_カバ_
  6
DASHDOT
100
AcDbLine
 10
35.50000124215475
 20
85.10321479022394
 30
0.0
 11
35.50000124215475
 21
79.01837345650388
 31
0.0
  0
LINE
  5
DA2
330
1F
100
AcDbEntity
  8
2_カバ_
  6
CONTINUOUS
100
AcDbLine
 10
33.50000124215476
 20
98.97381421383492
 30
0.0
 11
33.50000124215476
 21
103.9738142138348
 31
0.0
  0
LINE
  5
DA3
330
1F
100
AcDbEntity
  8
2_カバ_
  6
CONTINUOUS
100
AcDbLine
 10
53.00000124215478
 20
92.47381421383492
 30
0.0
 11
50.50000124215478
 21
92.47381421383591
 31
0.0
  0
LINE
  5
DA4
330
1F
100
AcDbEntity
  8
2_カバ_
  6
CONTINUOUS
100
AcDbLine
 10
53.00000124215478
 20
86.47381421383496
 30
0.0
 11
50.50000124215478
 21
86.47381421383496
 31
0.0
  0
LINE
  5
DA5
330
1F
100
AcDbEntity
  8
2_カバ_
  6
DASHDOT
100
AcDbLine
 10
48.92111136010377
 20
89.47381421383493
 30
0.0
 11
55.66961936615882
 21
89.47381421383493
 31
0.0
  0
ARC
  5
DA6
330
1F
100
AcDbEntity
  8
2_カバ_
  6
CONTINUOUS
100
AcDbCircle
 10
50.50000124215478
 20
91.97381421383592
 30
0.0
 40
0.5
100
AcDbArc
 50
89.99999999999673
 51
180.0
  0
ARC
  5
DA7
330
1F
100
AcDbEntity
  8
2_カバ_
  6
CONTINUOUS
100
AcDbCircle
 10
50.50000124215478
 20
86.97381421383493
 30
0.0
 40
0.5
100
AcDbArc
 50
180.0
 51
270.0
  0
LINE
  5
DA8
330
1F
100
AcDbEntity
  8
2_カバ_
  6
CONTINUOUS
100
AcDbLine
 10
50.00000124215478
 20
91.97381421383592
 30
0.0
 11
50.00000124215478
 21
86.97381421383493
 31
0.0
  0
LINE
  5
DA9
330
1F
100
AcDbEntity
  8
2_カバ_
  6
CONTINUOUS
100
AcDbLine
 10
57.00000124215478
 20
84.97381421383495
 30
0.0
 11
55.00000124215478
 21
84.97381421383495
 31
0.0
  0
LINE
  5
DAA
330
1F
100
AcDbEntity
  8
2_カバ_
  6
CONTINUOUS
100
AcDbLine
 10
57.00000124215478
 20
77.97381421383495
 30
0.0
 11
55.00000124215478
 21
77.97381421383495
 31
0.0
  0
LINE
  5
DAB
330
1F
100
AcDbEntity
  8
2_カバ_
  6
CONTINUOUS
100
AcDbLine
 10
57.00000124215478
 20
82.97381421383496
 30
0.0
 11
55.00000124215478
 21
82.97381421383496
 31
0.0
  0
LINE
  5
DAC
330
1F
100
AcDbEntity
  8
2_カバ_
  6
CONTINUOUS
100
AcDbLine
 10
55.00000124215478
 20
82.97381421383496
 30
0.0
 11
55.00000124215478
 21
84.97381421383495
 31
0.0
  0
LINE
  5
DAD
330
1F
100
AcDbEntity
  8
2_カバ_
  6
CONTINUOUS
100
AcDbLine
 10
56.00000124215478
 20
82.97381421383496
 30
0.0
 11
56.00000124215478
 21
84.97381421383495
 31
0.0
  0
LINE
  5
DAE
330
1F
100
AcDbEntity
  8
2_カバ_
  6
CONTINUOUS
100
AcDbLine
 10
57.00000124215478
 20
91.97381421383491
 30
0.0
 11
55.00000124215478
 21
91.97381421383491
 31
0.0
  0
LINE
  5
DAF
330
1F
100
AcDbEntity
  8
2_カバ_
  6
CONTINUOUS
100
AcDbLine
 10
57.00000124215478
 20
89.97381421383495
 30
0.0
 11
55.00000124215478
 21
89.97381421383495
 31
0.0
  0
LINE
  5
DB0
330
1F
100
AcDbEntity
  8
2_カバ_
  6
CONTINUOUS
100
AcDbLine
 10
55.00000124215478
 20
89.97381421383495
 30
0.0
 11
55.00000124215478
 21
91.97381421383491
 31
0.0
  0
ARC
  5
DB1
330
1F
100
AcDbEntity
  8
2_カバ_
  6
CONTINUOUS
100
AcDbCircle
 10
53.00000124215478
 20
91.97381421383491
 30
0.0
 40
0.5
100
AcDbArc
 50
0.0
 51
90.0
  0
ARC
  5
DB2
330
1F
100
AcDbEntity
  8
2_カバ_
  6
CONTINUOUS
100
AcDbCircle
 10
53.00000124215478
 20
86.97381421383493
 30
0.0
 40
0.5
100
AcDbArc
 50
270.0
 51
0.0
  0
LINE
  5
DB3
330
1F
100
AcDbEntity
  8
2_カバ_
  6
CONTINUOUS
100
AcDbLine
 10
53.50000124215478
 20
86.97381421383493
 30
0.0
 11
53.50000124215478
 21
91.97381421383491
 31
0.0
  0
LINE
  5
DB4
330
1F
100
AcDbEntity
  8
2_カバ_
  6
CONTINUOUS
100
AcDbLine
 10
56.00000124215478
 20
89.97381421383495
 30
0.0
 11
56.00000124215478
 21
91.97381421383491
 31
0.0
  0
LINE
  5
DB5
330
1F
100
AcDbEntity
  8
2_カバ_
  6
CONTINUOUS
100
AcDbLine
 10
54.50000124215478
 20
103.9738142138348
 30
0.0
 11
54.50000124215478
 21
98.97381421383492
 31
0.0
  0
LINE
  5
DB6
330
1F
100
AcDbEntity
  8
2_カバ_
  6
CONTINUOUS
100
AcDbLine
 10
55.00000124215478
 20
96.97381421383497
 30
0.0
 11
55.00000124215478
 21
98.97381421383492
 31
0.0
  0
LINE
  5
DB7
330
1F
100
AcDbEntity
  8
2_カバ_
  6
CONTINUOUS
100
AcDbLine
 10
56.00000124215478
 20
96.97381421383497
 30
0.0
 11
56.00000124215478
 21
98.97381421383492
 31
0.0
  0
ENDSEC
  0
SECTION
  2
OBJECTS
  0
DICTIONARY
  5
C
330
0
100
AcDbDictionary
  3
ACAD_GROUP
350
D
  3
ACAD_LAYOUT
350
1A
  3
ACAD_MLINESTYLE
350
17
  3
ACAD_PLOTSETTINGS
350
19
  3
ACAD_PLOTSTYLENAME
350
E
  3
ACDBHEADERROUNDTRIPXREC
350
E34
  3
ACDBVARIABLEDICTIONARY
350
AE8
  0
DICTIONARY
  5
2B2
330
2
100
AcDbDictionary
280
     1
  3
ACAD_LAYERSTATES
360
2B3
  0
DICTIONARY
  5
B0E
330
1F
100
AcDbDictionary
280
     1
  3
ACAD_LAYOUTSELFREF
360
E55
  0
DICTIONARY
  5
B0C
330
1B
100
AcDbDictionary
280
     1
  3
ACAD_LAYOUTSELFREF
360
E54
  0
DICTIONARY
  5
D
102
{ACAD_REACTORS
330
C
102
}
330
C
100
AcDbDictionary
  0
DICTIONARY
  5
1A
102
{ACAD_REACTORS
330
C
102
}
330
C
100
AcDbDictionary
  0
DICTIONARY
  5
17
102
{ACAD_REACTORS
330
C
102
}
330
C
100
AcDbDictionary
  3
STANDARD
350
18
  0
DICTIONARY
  5
19
102
{ACAD_REACTORS
330
C
102
}
330
C
100
AcDbDictionary
  0
ACDBDICTIONARYWDFLT
  5
E
102
{ACAD_REACTORS
330
C
102
}
330
C
100
AcDbDictionary
281
     1
  3
Normal
350
F
100
AcDbDictionaryWithDefault
340
F
  0
DICTIONARY
  5
E34
102
{ACAD_REACTORS
330
C
102
}
330
C
100
AcDbDictionary
  3
CEPSNTYPE
350
E3E
  3
FINGERPRINTGUID
350
E3F
  3
HYPERLINKBASE
350
E37
  3
INSUNITS
350
E3D
  3
LAYOUTDICT
350
E39
  3
LWETCUNION
350
E3C
  3
PLOTSETDICT
350
E3A
  3
PLOTSTYLNAMDICT
350
E3B
  3
PSVPSCALE
350
E41
  3
PUCSBASE
350
E44
  3
PUCSORGBACK
350
E4A
  3
PUCSORGBOTTOM
350
E46
  3
PUCSORGFRONT
350
E49
  3
PUCSORGLEFT
350
E47
  3
PUCSORGRIGHT
350
E48
  3
PUCSORGTOP
350
E45
  3
PUCSORTHOREF
350
E42
  3
PUCSORTHOVIEW
350
E43
  3
STYLESHEET
350
E38
  3
TSTACKALIGN
350
E35
  3
TSTACKSIZE
350
E36
  3
UCSBASE
350
E4D
  3
UCSORGBACK
350
E53
  3
UCSORGBOTTOM
350
E4F
  3
UCSORGFRONT
350
E52
  3
UCSORGLEFT
350
E50
  3
UCSORGRIGHT
350
E51
  3
UCSORGTOP
350
E4E
  3
UCSORTHOREF
350
E4B
  3
UCSORTHOVIEW
350
E4C
  3
VERSIONGUID
350
E40
  0
DICTIONARY
  5
AE8
102
{ACAD_REACTORS
330
C
102
}
330
C
100
AcDbDictionary
  3
DIMASSOC
350
AEA
  3
HIDETEXT
350
AE9
  0
DICTIONARY
  5
2B3
102
{ACAD_REACTORS
330
2B2
102
}
330
2B2
100
AcDbDictionary
  0
XRECORD
  5
E55
102
{ACAD_REACTORS
330
B0E
102
}
330
B0E
100
AcDbXrecord
340
1F
  0
XRECORD
  5
E54
102
{ACAD_REACTORS
330
B0C
102
}
330
B0C
100
AcDbXrecord
340
1B
  0
MLINESTYLE
  5
18
102
{ACAD_REACTORS
330
17
102
}
330
17
100
AcDbMlineStyle
  2
STANDARD
 70
     0
  3

 62
   256
 51
90.0
 52
90.0
 71
     2
 49
0.5
 62
   256
  6
BYLAYER
 49
-0.5
 62
   256
  6
BYLAYER
  0
ACDBPLACEHOLDER
  5
F
102
{ACAD_REACTORS
330
E
102
}
330
E
100
AcDbPlaceHolder
280
     0
  0
XRECORD
  5
E3E
102
{ACAD_REACTORS
330
E34
102
}
330
E34
100
AcDbXrecord
 90
        0
  0
XRECORD
  5
E3F
102
{ACAD_REACTORS
330
E34
102
}
330
E34
100
AcDbXrecord
  1
{DFE87AFF-CEDA-490C-9593-3352DB0660B4}
  0
XRECORD
  5
E37
102
{ACAD_REACTORS
330
E34
102
}
330
E34
100
AcDbXrecord
  1

  0
XRECORD
  5
E3D
102
{ACAD_REACTORS
330
E34
102
}
330
E34
100
AcDbXrecord
 90
        4
  0
XRECORD
  5
E39
102
{ACAD_REACTORS
330
E34
102
}
330
E34
100
AcDbXrecord
340
1A
  0
XRECORD
  5
E3C
102
{ACAD_REACTORS
330
E34
102
}
330
E34
100
AcDbXrecord
 90
    10781
  0
XRECORD
  5
E3A
102
{ACAD_REACTORS
330
E34
102
}
330
E34
100
AcDbXrecord
340
19
  0
XRECORD
  5
E3B
102
{ACAD_REACTORS
330
E34
102
}
330
E34
100
AcDbXrecord
340
E
  0
XRECORD
  5
E41
102
{ACAD_REACTORS
330
E34
102
}
330
E34
100
AcDbXrecord
 40
0.0
  0
XRECORD
  5
E44
102
{ACAD_REACTORS
330
E34
102
}
330
E34
100
AcDbXrecord
340
0
  0
XRECORD
  5
E4A
102
{ACAD_REACTORS
330
E34
102
}
330
E34
100
AcDbXrecord
 10
0.0
 20
0.0
 30
0.0
  0
XRECORD
  5
E46
102
{ACAD_REACTORS
330
E34
102
}
330
E34
100
AcDbXrecord
 10
0.0
 20
0.0
 30
0.0
  0
XRECORD
  5
E49
102
{ACAD_REACTORS
330
E34
102
}
330
E34
100
AcDbXrecord
 10
0.0
 20
0.0
 30
0.0
  0
XRECORD
  5
E47
102
{ACAD_REACTORS
330
E34
102
}
330
E34
100
AcDbXrecord
 10
0.0
 20
0.0
 30
0.0
  0
XRECORD
  5
E48
102
{ACAD_REACTORS
330
E34
102
}
330
E34
100
AcDbXrecord
 10
0.0
 20
0.0
 30
0.0
  0
XRECORD
  5
E45
102
{ACAD_REACTORS
330
E34
102
}
330
E34
100
AcDbXrecord
 10
0.0
 20
0.0
 30
0.0
  0
XRECORD
  5
E42
102
{ACAD_REACTORS
330
E34
102
}
330
E34
100
AcDbXrecord
340
0
  0
XRECORD
  5
E43
102
{ACAD_REACTORS
330
E34
102
}
330
E34
100
AcDbXrecord
 70
     0
  0
XRECORD
  5
E38
102
{ACAD_REACTORS
330
E34
102
}
330
E34
100
AcDbXrecord
  1

  0
XRECORD
  5
E35
102
{ACAD_REACTORS
330
E34
102
}
330
E34
100
AcDbXrecord
 90
        1
  0
XRECORD
  5
E36
102
{ACAD_REACTORS
330
E34
102
}
330
E34
100
AcDbXrecord
 90
       70
  0
XRECORD
  5
E4D
102
{ACAD_REACTORS
330
E34
102
}
330
E34
100
AcDbXrecord
340
0
  0
XRECORD
  5
E53
102
{ACAD_REACTORS
330
E34
102
}
330
E34
100
AcDbXrecord
 10
0.0
 20
0.0
 30
0.0
  0
XRECORD
  5
E4F
102
{ACAD_REACTORS
330
E34
102
}
330
E34
100
AcDbXrecord
 10
0.0
 20
0.0
 30
0.0
  0
XRECORD
  5
E52
102
{ACAD_REACTORS
330
E34
102
}
330
E34
100
AcDbXrecord
 10
0.0
 20
0.0
 30
0.0
  0
XRECORD
  5
E50
102
{ACAD_REACTORS
330
E34
102
}
330
E34
100
AcDbXrecord
 10
0.0
 20
0.0
 30
0.0
  0
XRECORD
  5
E51
102
{ACAD_REACTORS
330
E34
102
}
330
E34
100
AcDbXrecord
 10
0.0
 20
0.0
 30
0.0
  0
XRECORD
  5
E4E
102
{ACAD_REACTORS
330
E34
102
}
330
E34
100
AcDbXrecord
 10
0.0
 20
0.0
 30
0.0
  0
XRECORD
  5
E4B
102
{ACAD_REACTORS
330
E34
102
}
330
E34
100
AcDbXrecord
340
0
  0
XRECORD
  5
E4C
102
{ACAD_REACTORS
330
E34
102
}
330
E34
100
AcDbXrecord
 70
     0
  0
XRECORD
  5
E40
102
{ACAD_REACTORS
330
E34
102
}
330
E34
100
AcDbXrecord
  1
{16ECE528-AF82-47E6-AFC4-E5CC7CDD1A57}
  0
DICTIONARYVAR
  5
AEA
102
{ACAD_REACTORS
330
AE8
102
}
330
AE8
100
DictionaryVariables
280
     0
  1
2
  0
DICTIONARYVAR
  5
AE9
102
{ACAD_REACTORS
330
AE8
102
}
330
AE8
100
DictionaryVariables
280
     0
  1
1
  0
ENDSEC
  0
EOF
