  0
SECTION
  2
HEADER
  9
$ACADVER
  1
AC1014
  9
$ACADMAINTVER
 70
     9
  9
$DWGCODEPAGE
  3
ANSI_932
  9
$INSBASE
 10
0.0
 20
0.0
 30
0.0
  9
$EXTMIN
 10
36.70726744894567
 20
0.0000036460284533
 30
0.0
  9
$EXTMAX
 10
330.1845496230138
 20
404.9366685723844
 30
6.483974233579615E+99
  9
$LIMMIN
 10
0.0
 20
0.0
  9
$LIMMAX
 10
420.0
 20
297.0
  9
$ORTHOMODE
 70
     0
  9
$REGENMODE
 70
     1
  9
$FILLMODE
 70
     1
  9
$QTEXTMODE
 70
     0
  9
$MIRRTEXT
 70
     1
  9
$DRAGMODE
 70
     2
  9
$LTSCALE
 40
1.0
  9
$OSMODE
 70
    55
  9
$ATTMODE
 70
     1
  9
$TEXTSIZE
 40
2.5
  9
$TRACEWID
 40
1.0
  9
$TEXTSTYLE
  7
STANDARD
  9
$CLAYER
  8
0
  9
$CELTYPE
  6
BYLAYER
  9
$CECOLOR
 62
   256
  9
$CELTSCALE
 40
1.0
  9
$DELOBJ
 70
     1
  9
$DISPSILH
 70
     0
  9
$DIMSCALE
 40
1.0
  9
$DIMASZ
 40
2.5
  9
$DIMEXO
 40
0.625
  9
$DIMDLI
 40
3.75
  9
$DIMRND
 40
0.0
  9
$DIMDLE
 40
0.0
  9
$DIMEXE
 40
1.25
  9
$DIMTP
 40
0.0
  9
$DIMTM
 40
0.0
  9
$DIMTXT
 40
2.5
  9
$DIMCEN
 40
2.5
  9
$DIMTSZ
 40
0.0
  9
$DIMTOL
 70
     0
  9
$DIMLIM
 70
     0
  9
$DIMTIH
 70
     0
  9
$DIMTOH
 70
     0
  9
$DIMSE1
 70
     0
  9
$DIMSE2
 70
     0
  9
$DIMTAD
 70
     1
  9
$DIMZIN
 70
     8
  9
$DIMBLK
  1

  9
$DIMASO
 70
     1
  9
$DIMSHO
 70
     1
  9
$DIMPOST
  1

  9
$DIMAPOST
  1

  9
$DIMALT
 70
     0
  9
$DIMALTD
 70
     3
  9
$DIMALTF
 40
0.03937007874016
  9
$DIMLFAC
 40
1.0
  9
$DIMTOFL
 70
     1
  9
$DIMTVP
 40
0.0
  9
$DIMTIX
 70
     0
  9
$DIMSOXD
 70
     0
  9
$DIMSAH
 70
     0
  9
$DIMBLK1
  1

  9
$DIMBLK2
  1

  9
$DIMSTYLE
  2
ISO-25
  9
$DIMCLRD
 70
     0
  9
$DIMCLRE
 70
     0
  9
$DIMCLRT
 70
     0
  9
$DIMTFAC
 40
1.0
  9
$DIMGAP
 40
0.625
  9
$DIMJUST
 70
     0
  9
$DIMSD1
 70
     0
  9
$DIMSD2
 70
     0
  9
$DIMTOLJ
 70
     0
  9
$DIMTZIN
 70
     8
  9
$DIMALTZ
 70
     0
  9
$DIMALTTZ
 70
     0
  9
$DIMFIT
 70
     3
  9
$DIMUPT
 70
     0
  9
$DIMUNIT
 70
     2
  9
$DIMDEC
 70
     2
  9
$DIMTDEC
 70
     2
  9
$DIMALTU
 70
     2
  9
$DIMALTTD
 70
     3
  9
$DIMTXSTY
  7
STANDARD
  9
$DIMAUNIT
 70
     0
  9
$LUNITS
 70
     2
  9
$LUPREC
 70
     4
  9
$SKETCHINC
 40
1.0
  9
$FILLETRAD
 40
10.0
  9
$AUNITS
 70
     0
  9
$AUPREC
 70
     0
  9
$MENU
  1
.
  9
$ELEVATION
 40
0.0
  9
$PELEVATION
 40
0.0
  9
$THICKNESS
 40
0.0
  9
$LIMCHECK
 70
     0
  9
$BLIPMODE
 70
     0
  9
$CHAMFERA
 40
10.0
  9
$CHAMFERB
 40
10.0
  9
$CHAMFERC
 40
20.0
  9
$CHAMFERD
 40
0.0
  9
$SKPOLY
 70
     0
  9
$TDCREATE
 40
2455874.703989039
  9
$TDUPDATE
 40
2456013.788527511
  9
$TDINDWG
 40
0.0099598843
  9
$TDUSRTIMER
 40
0.0099591551
  9
$USRTIMER
 70
     1
  9
$ANGBASE
 50
0.0
  9
$ANGDIR
 70
     0
  9
$PDMODE
 70
     0
  9
$PDSIZE
 40
0.0
  9
$PLINEWID
 40
0.0
  9
$COORDS
 70
     1
  9
$SPLFRAME
 70
     0
  9
$SPLINETYPE
 70
     6
  9
$SPLINESEGS
 70
     8
  9
$ATTDIA
 70
     0
  9
$ATTREQ
 70
     1
  9
$HANDLING
 70
 22529
  9
$HANDSEED
  5
D0D
  9
$SURFTAB1
 70
     6
  9
$SURFTAB2
 70
     6
  9
$SURFTYPE
 70
     6
  9
$SURFU
 70
     6
  9
$SURFV
 70
     6
  9
$UCSNAME
  2

  9
$UCSORG
 10
0.0
 20
0.0
 30
0.0
  9
$UCSXDIR
 10
1.0
 20
0.0
 30
0.0
  9
$UCSYDIR
 10
0.0
 20
1.0
 30
0.0
  9
$PUCSNAME
  2

  9
$PUCSORG
 10
0.0
 20
0.0
 30
0.0
  9
$PUCSXDIR
 10
1.0
 20
0.0
 30
0.0
  9
$PUCSYDIR
 10
0.0
 20
1.0
 30
0.0
  9
$USERI1
 70
     0
  9
$USERI2
 70
     0
  9
$USERI3
 70
     0
  9
$USERI4
 70
     0
  9
$USERI5
 70
     0
  9
$USERR1
 40
0.0
  9
$USERR2
 40
0.0
  9
$USERR3
 40
0.0
  9
$USERR4
 40
0.0
  9
$USERR5
 40
0.0
  9
$WORLDVIEW
 70
     1
  9
$SHADEDGE
 70
     3
  9
$SHADEDIF
 70
    70
  9
$TILEMODE
 70
     1
  9
$MAXACTVP
 70
    64
  9
$PINSBASE
 10
0.0
 20
0.0
 30
0.0
  9
$PLIMCHECK
 70
     0
  9
$PEXTMIN
 10
1.000000000000000E+20
 20
1.000000000000000E+20
 30
1.000000000000000E+20
  9
$PEXTMAX
 10
-1.000000000000000E+20
 20
-1.000000000000000E+20
 30
-1.000000000000000E+20
  9
$PLIMMIN
 10
0.0
 20
0.0
  9
$PLIMMAX
 10
420.0
 20
297.0
  9
$UNITMODE
 70
     0
  9
$VISRETAIN
 70
     1
  9
$PLINEGEN
 70
     0
  9
$PSLTSCALE
 70
     1
  9
$TREEDEPTH
 70
  3020
  9
$PICKSTYLE
 70
     1
  9
$CMLSTYLE
  2
STANDARD
  9
$CMLJUST
 70
     0
  9
$CMLSCALE
 40
20.0
  9
$PROXYGRAPHICS
 70
     1
  9
$MEASUREMENT
 70
     1
  0
ENDSEC
  0
SECTION
  2
CLASSES
  0
CLASS
  1
ACDBDICTIONARYWDFLT
  2
AcDbDictionaryWithDefault
  3
AutoCAD 2000
 90
        0
280
     0
281
     0
  0
CLASS
  1
ACDBPLACEHOLDER
  2
AcDbPlaceHolder
  3
AutoCAD 2000
 90
        0
280
     0
281
     0
  0
CLASS
  1
LAYOUT
  2
AcDbLayout
  3
AutoCAD 2000
 90
        0
280
     0
281
     0
  0
CLASS
  1
DICTIONARYVAR
  2
AcDbDictionaryVar
  3
AutoCAD 2000
 90
        0
280
     0
281
     0
  0
CLASS
  1
LONG_TRANSACTION
  2
AcDbLongTransaction
  3
AutoCAD 2000
 90
        0
280
     0
281
     0
  0
CLASS
  1
LWPOLYLINE
  2
AcDbPolyline
  3
AutoCAD 2000
 90
        0
280
     0
281
     1
  0
CLASS
  1
HATCH
  2
AcDbHatch
  3
AutoCAD 2000
 90
        0
280
     0
281
     1
  0
CLASS
  1
XRECORD
  2
AcDbXrecord
  3
AutoCAD 2000
 90
        0
280
     0
281
     0
  0
CLASS
  1
LONG_TRANSACTION
  2
AcDbLongTransaction
  3
AutoCAD 2000
 90
        0
280
     0
281
     0
  0
CLASS
  1
LWPOLYLINE
  2
AcDbPolyline
  3
AutoCAD 2000
 90
        0
280
     0
281
     1
  0
CLASS
  1
HATCH
  2
AcDbHatch
  3
AutoCAD 2000
 90
        0
280
     0
281
     1
  0
CLASS
  1
XRECORD
  2
AcDbXrecord
  3
AutoCAD 2000
 90
        0
280
     0
281
     0
  0
CLASS
  1
LONG_TRANSACTION
  2
AcDbLongTransaction
  3
AutoCAD 2000
 90
        0
280
     0
281
     0
  0
CLASS
  1
LWPOLYLINE
  2
AcDbPolyline
  3
AutoCAD 2000
 90
        0
280
     0
281
     1
  0
CLASS
  1
HATCH
  2
AcDbHatch
  3
AutoCAD 2000
 90
        0
280
     0
281
     1
  0
CLASS
  1
XRECORD
  2
AcDbXrecord
  3
AutoCAD 2000
 90
        0
280
     0
281
     0
  0
CLASS
  1
LONG_TRANSACTION
  2
AcDbLongTransaction
  3
AutoCAD 2000
 90
        0
280
     0
281
     0
  0
CLASS
  1
LWPOLYLINE
  2
AcDbPolyline
  3
AutoCAD 2000
 90
        0
280
     0
281
     1
  0
CLASS
  1
HATCH
  2
AcDbHatch
  3
AutoCAD 2000
 90
        0
280
     0
281
     1
  0
CLASS
  1
XRECORD
  2
AcDbXrecord
  3
AutoCAD 2000
 90
        0
280
     0
281
     0
  0
CLASS
  1
LONG_TRANSACTION
  2
AcDbLongTransaction
  3
AutoCAD 2000
 90
        0
280
     0
281
     0
  0
CLASS
  1
LWPOLYLINE
  2
AcDbPolyline
  3
AutoCAD 2000
 90
        0
280
     0
281
     1
  0
CLASS
  1
HATCH
  2
AcDbHatch
  3
AutoCAD 2000
 90
        0
280
     0
281
     1
  0
CLASS
  1
XRECORD
  2
AcDbXrecord
  3
AutoCAD 2000
 90
        0
280
     0
281
     0
  0
CLASS
  1
LONG_TRANSACTION
  2
AcDbLongTransaction
  3
AutoCAD 2000
 90
        0
280
     0
281
     0
  0
CLASS
  1
LWPOLYLINE
  2
AcDbPolyline
  3
AutoCAD 2000
 90
        0
280
     0
281
     1
  0
CLASS
  1
HATCH
  2
AcDbHatch
  3
AutoCAD 2000
 90
        0
280
     0
281
     1
  0
CLASS
  1
XRECORD
  2
AcDbXrecord
  3
AutoCAD 2000
 90
        0
280
     0
281
     0
  0
CLASS
  1
LONG_TRANSACTION
  2
AcDbLongTransaction
  3
AutoCAD 2000
 90
        0
280
     0
281
     0
  0
CLASS
  1
LWPOLYLINE
  2
AcDbPolyline
  3
AutoCAD 2000
 90
        0
280
     0
281
     1
  0
CLASS
  1
HATCH
  2
AcDbHatch
  3
AutoCAD 2000
 90
        0
280
     0
281
     1
  0
CLASS
  1
XRECORD
  2
AcDbXrecord
  3
AutoCAD 2000
 90
        0
280
     0
281
     0
  0
ENDSEC
  0
SECTION
  2
TABLES
  0
TABLE
  2
VPORT
  5
8
330
0
100
AcDbSymbolTable
 70
     2
  0
VPORT
  5
CEA
330
8
100
AcDbSymbolTableRecord
100
AcDbViewportTableRecord
  2
*ACTIVE
 70
     0
 10
0.0
 20
0.0
 11
1.0
 21
1.0
 12
182.3256780865397
 22
207.8121267553691
 13
0.0
 23
0.0
 14
10.0
 24
10.0
 15
10.0
 25
10.0
 16
0.0
 26
0.0
 36
1.0
 17
0.0
 27
0.0
 37
0.0
 40
418.6506363610506
 41
1.46415552855407
 42
50.0
 43
0.0
 44
0.0
 50
0.0
 51
0.0
 71
     0
 72
   100
 73
     1
 74
     3
 75
     0
 76
     0
 77
     0
 78
     0
  0
ENDTAB
  0
TABLE
  2
LTYPE
  5
5
330
0
100
AcDbSymbolTable
 70
     3
  0
LTYPE
  5
14
330
5
100
AcDbSymbolTableRecord
100
AcDbLinetypeTableRecord
  2
BYBLOCK
 70
     0
  3

 72
    65
 73
     0
 40
0.0
  0
LTYPE
  5
15
330
5
100
AcDbSymbolTableRecord
100
AcDbLinetypeTableRecord
  2
BYLAYER
 70
     0
  3

 72
    65
 73
     0
 40
0.0
  0
LTYPE
  5
16
330
5
100
AcDbSymbolTableRecord
100
AcDbLinetypeTableRecord
  2
CONTINUOUS
 70
     0
  3
Solid line
 72
    65
 73
     0
 40
0.0
  0
LTYPE
  5
2D9
330
5
100
AcDbSymbolTableRecord
100
AcDbLinetypeTableRecord
  2
CENTER
 70
     0
  3
__ . __ . __ . __ . __ . __ . __ . __ . __ . __
 72
    65
 73
     4
 40
1.0
 49
0.5
 74
     0
 49
-0.25
 74
     0
 49
0.0
 74
     0
 49
-0.25
 74
     0
  0
LTYPE
  5
AA9
330
5
100
AcDbSymbolTableRecord
100
AcDbLinetypeTableRecord
  2
DASHDOT
 70
     0
  3
__ . __ . __ . __ . __ . __ . __ . __ . __ . __
 72
    65
 73
     4
 40
7.5
 49
6.0
 74
     0
 49
-0.5
 74
     0
 49
0.5
 74
     0
 49
-0.5
 74
     0
  0
ENDTAB
  0
TABLE
  2
LAYER
  5
2
102
{ACAD_XDICTIONARY
360
2DF
102
}
330
0
100
AcDbSymbolTable
 70
     4
  0
LAYER
  5
10
330
2
100
AcDbSymbolTableRecord
100
AcDbLayerTableRecord
  2
0
 70
     0
 62
     7
  6
CONTINUOUS
  0
LAYER
  5
2DB
330
2
100
AcDbSymbolTableRecord
100
AcDbLayerTableRecord
  2
DEFPOINTS
 70
     0
 62
    -7
  6
CONTINUOUS
  0
LAYER
  5
2DC
330
2
100
AcDbSymbolTableRecord
100
AcDbLayerTableRecord
  2
1
 70
     0
 62
     3
  6
CONTINUOUS
  0
LAYER
  5
AAA
330
2
100
AcDbSymbolTableRecord
100
AcDbLayerTableRecord
  2
2_カバ_
 70
     0
 62
     7
  6
CONTINUOUS
  0
ENDTAB
  0
TABLE
  2
STYLE
  5
3
330
0
100
AcDbSymbolTable
 70
     1
  0
STYLE
  5
11
330
3
100
AcDbSymbolTableRecord
100
AcDbTextStyleTableRecord
  2
STANDARD
 70
     0
 40
0.0
 41
1.0
 50
0.0
 71
     0
 42
2.5
  3
txt
  4

  0
ENDTAB
  0
TABLE
  2
VIEW
  5
6
330
0
100
AcDbSymbolTable
 70
     0
  0
ENDTAB
  0
TABLE
  2
UCS
  5
7
330
0
100
AcDbSymbolTable
 70
     0
  0
ENDTAB
  0
TABLE
  2
APPID
  5
9
330
0
100
AcDbSymbolTable
 70
     1
  0
APPID
  5
12
330
9
100
AcDbSymbolTableRecord
100
AcDbRegAppTableRecord
  2
ACAD
 70
     0
  0
ENDTAB
  0
TABLE
  2
DIMSTYLE
  5
A
330
0
100
AcDbSymbolTable
 70
     2
  0
DIMSTYLE
105
27
330
A
100
AcDbSymbolTableRecord
100
AcDbDimStyleTableRecord
  2
ISO-25
 70
     0
  3

  4

  5

  6

  7

 40
1.0
 41
2.5
 42
0.625
 43
3.75
 44
1.25
 45
0.0
 46
0.0
 47
0.0
 48
0.0
140
2.5
141
2.5
142
0.0
143
0.03937007874016
144
1.0
145
0.0
146
1.0
147
0.625
 71
     0
 72
     0
 73
     0
 74
     0
 75
     0
 76
     0
 77
     1
 78
     8
170
     0
171
     3
172
     1
173
     0
174
     0
175
     0
176
     0
177
     0
178
     0
270
     2
271
     2
272
     2
273
     2
274
     3
340
11
275
     0
280
     0
281
     0
282
     0
283
     0
284
     8
285
     0
286
     0
287
     3
288
     0
  0
DIMSTYLE
105
2DE
330
A
100
AcDbSymbolTableRecord
100
AcDbDimStyleTableRecord
  2
STANDARD
 70
     0
  3

  4

  5

  6

  7

 40
1.0
 41
2.5
 42
0.625
 43
3.75
 44
1.25
 45
0.0
 46
0.0
 47
0.0
 48
0.0
140
2.5
141
2.5
142
0.0
143
0.0394
144
1.0
145
0.0
146
1.0
147
0.625
 71
     0
 72
     0
 73
     0
 74
     0
 75
     0
 76
     0
 77
     1
 78
     8
170
     0
171
     4
172
     1
173
     0
174
     0
175
     0
176
     0
177
     0
178
     0
270
     2
271
     4
272
     4
273
     8
274
     4
340
11
275
     0
280
     0
281
     0
282
     0
283
     1
284
     0
285
     0
286
     0
287
     3
288
     0
  0
ENDTAB
  0
TABLE
  2
BLOCK_RECORD
  5
1
330
0
100
AcDbSymbolTable
 70
     1
  0
BLOCK_RECORD
  5
1F
102
{ACAD_XDICTIONARY
360
93B
102
}
330
1
100
AcDbSymbolTableRecord
100
AcDbBlockTableRecord
  2
*MODEL_SPACE
  0
BLOCK_RECORD
  5
1B
102
{ACAD_XDICTIONARY
360
939
102
}
330
1
100
AcDbSymbolTableRecord
100
AcDbBlockTableRecord
  2
*PAPER_SPACE
  0
BLOCK_RECORD
  5
2D2
330
1
100
AcDbSymbolTableRecord
100
AcDbBlockTableRecord
  2
A$C5CFD6E8C
  0
ENDTAB
  0
ENDSEC
  0
SECTION
  2
BLOCKS
  0
BLOCK
  5
20
330
1F
100
AcDbEntity
  8
0
100
AcDbBlockBegin
  2
*MODEL_SPACE
 70
     0
 10
0.0
 20
0.0
 30
0.0
  3
*MODEL_SPACE
  1

  0
ENDBLK
  5
21
330
1F
100
AcDbEntity
  8
0
100
AcDbBlockEnd
  0
BLOCK
  5
1C
330
1B
100
AcDbEntity
 67
     1
  8
0
100
AcDbBlockBegin
  2
*PAPER_SPACE
 70
     0
 10
0.0
 20
0.0
 30
0.0
  3
*PAPER_SPACE
  1

  0
ENDBLK
  5
1D
330
1B
100
AcDbEntity
 67
     1
  8
0
100
AcDbBlockEnd
  0
BLOCK
  5
2D7
330
2D2
100
AcDbEntity
  8
0
 48
5.0
100
AcDbBlockBegin
  2
A$C5CFD6E8C
 70
     0
 10
0.0
 20
0.0
 30
0.0
  3
A$C5CFD6E8C
  1

  0
LINE
  5
2D3
330
2D2
100
AcDbEntity
  8
0
 62
     0
100
AcDbLine
 10
1.599997211020308
 20
2.70000247964549
 30
0.0
 11
1.599997211020308
 21
0.0000024796447633
 31
0.0
  0
LINE
  5
2D4
330
2D2
100
AcDbEntity
  8
0
 62
     0
100
AcDbLine
 10
-0.0000027889800549
 20
0.0000024796447633
 30
0.0
 11
-0.0000027889800549
 21
2.70000247964549
 31
0.0
  0
LINE
  5
2D5
330
2D2
100
AcDbEntity
  8
0
  6
CENTER
 62
     0
100
AcDbLine
 10
1.599997211020308
 20
2.70000247964549
 30
0.0
 11
-0.0000027889800549
 21
2.70000247964549
 31
0.0
  0
LINE
  5
2D6
330
2D2
100
AcDbEntity
  8
0
  6
CENTER
 62
     0
100
AcDbLine
 10
1.599997211020308
 20
0.0000024796447633
 30
0.0
 11
-0.0000027889800549
 21
0.0000024796447633
 31
0.0
  0
ENDBLK
  5
2D8
330
2D2
100
AcDbEntity
  8
0
 48
5.0
100
AcDbBlockEnd
  0
ENDSEC
  0
SECTION
  2
ENTITIES
  0
LINE
  5
59A
330
1F
100
AcDbEntity
  8
1
100
AcDbLine
 10
72.68454962301518
 20
175.9738177244594
 30
0.0
 11
87.6845496230152
 21
175.9738177244594
 31
0.0
  0
LINE
  5
59B
330
1F
100
AcDbEntity
  8
1
100
AcDbLine
 10
80.18454962301518
 20
168.4738177244593
 30
0.0
 11
80.18454962301518
 21
183.4738177244594
 31
0.0
  0
LINE
  5
59C
330
1F
100
AcDbEntity
  8
1
100
AcDbLine
 10
80.18454962301484
 20
352.4738177244593
 30
0.0
 11
80.18454962301484
 21
367.4738177244593
 31
0.0
  0
LINE
  5
59D
330
1F
100
AcDbEntity
  8
1
100
AcDbLine
 10
72.68454962301518
 20
359.9738177244595
 30
0.0
 11
87.6845496230152
 21
359.9738177244595
 31
0.0
  0
LINE
  5
5AC
330
1F
100
AcDbEntity
  8
0
100
AcDbLine
 10
98.63454962301524
 20
204.0901008670513
 30
0.0
 11
98.63454962301524
 21
219.0575345818678
 31
0.0
  0
LINE
  5
5AD
330
1F
100
AcDbEntity
  8
0
100
AcDbLine
 10
92.33454962301513
 20
219.6738177244593
 30
0.0
 11
92.33454962301513
 21
203.4738177244594
 31
0.0
  0
LINE
  5
5AE
330
1F
100
AcDbEntity
  8
0
100
AcDbLine
 10
93.88454962301523
 20
220.1738177244594
 30
0.0
 11
93.88454962301523
 21
202.9738177244594
 31
0.0
  0
LINE
  5
5AF
330
1F
100
AcDbEntity
  8
0
100
AcDbLine
 10
97.08454962301516
 20
202.9738177244594
 30
0.0
 11
97.08454962301516
 21
220.1738177244594
 31
0.0
  0
LINE
  5
5B0
330
1F
100
AcDbEntity
  8
0
100
AcDbLine
 10
90.88454962301524
 20
229.1738177244594
 30
0.0
 11
90.88454962301524
 21
193.9738177244594
 31
0.0
  0
LINE
  5
5B1
330
1F
100
AcDbEntity
  8
0
100
AcDbLine
 10
99.98454962301515
 20
192.9738177244594
 30
0.0
 11
99.98454962301515
 21
230.1738177244593
 31
0.0
  0
LINE
  5
5B2
330
1F
100
AcDbEntity
  8
0
100
AcDbLine
 10
101.184549744933
 20
230.6738175651153
 30
0.0
 11
101.184549744933
 21
185.1738175651153
 31
0.0
  0
LINE
  5
5B3
330
1F
100
AcDbEntity
  8
0
100
AcDbLine
 10
89.7845497449323
 20
230.6738175651153
 30
0.0
 11
89.7845497449323
 21
185.1738175651153
 31
0.0
  0
LINE
  5
5B4
330
1F
100
AcDbEntity
  8
0
100
AcDbLine
 10
100.284549623015
 20
230.6738175651153
 30
0.0
 11
100.284549623015
 21
185.1738175651153
 31
0.0
  0
LINE
  5
5B5
330
1F
100
AcDbEntity
  8
0
100
AcDbLine
 10
74.78454974493229
 20
239.5738175651154
 30
0.0
 11
74.78454974493229
 21
185.1738175651153
 31
0.0
  0
LINE
  5
5B6
330
1F
100
AcDbEntity
  8
0
100
AcDbLine
 10
73.88454962301421
 20
185.9738177244594
 30
0.0
 11
73.88454962301421
 21
226.6138177244594
 31
0.0
  0
LINE
  5
5B7
330
1F
100
AcDbEntity
  8
0
100
AcDbLine
 10
65.28454962301418
 20
226.6138177244594
 30
0.0
 11
65.28454962301418
 21
185.9738177244594
 31
0.0
  0
LINE
  5
5B8
330
1F
100
AcDbEntity
  8
0
100
AcDbLine
 10
64.18454974493204
 20
271.4738175651153
 30
0.0
 11
64.18454974493204
 21
185.1738175651153
 31
0.0
  0
LINE
  5
5B9
330
1F
100
AcDbEntity
  8
0
100
AcDbLine
 10
65.28454962301509
 20
185.1738175651153
 30
0.0
 11
65.28454962301509
 21
271.4738175651153
 31
0.0
  0
LINE
  5
5BA
330
1F
100
AcDbEntity
  8
0
100
AcDbLine
 10
56.18454962301519
 20
201.6069981493723
 30
0.0
 11
56.18454962301519
 21
354.9476318028903
 31
0.0
  0
LINE
  5
5BB
330
1F
100
AcDbEntity
  8
0
100
AcDbLine
 10
57.18454962301507
 20
354.9738177244593
 30
0.0
 11
57.18454962301414
 21
202.3555981844971
 31
0.0
  0
LINE
  5
5BC
330
1F
100
AcDbEntity
  8
0
100
AcDbLine
 10
59.18454962301519
 20
352.9738177244593
 30
0.0
 11
59.18454962301405
 21
203.5595137419633
 31
0.0
  0
LINE
  5
5BD
330
1F
100
AcDbEntity
  8
0
100
AcDbLine
 10
56.18454962301519
 20
201.6069981493733
 30
0.0
 11
56.18454962301519
 21
354.4738177244591
 31
0.0
  0
LINE
  5
5BE
330
1F
100
AcDbEntity
  8
0
100
AcDbLine
 10
59.28454962301419
 20
352.7738177244593
 30
0.0
 11
59.28454962301419
 21
203.6659175127584
 31
0.0
  0
LINE
  5
5BF
330
1F
100
AcDbEntity
  8
0
100
AcDbLine
 10
109.1845496230151
 20
363.9738177244593
 30
0.0
 11
109.1845496230151
 21
171.9738177244594
 31
0.0
  0
LINE
  5
5C0
330
1F
100
AcDbEntity
  8
0
100
AcDbLine
 10
107.184549623015
 20
182.9738177244594
 30
0.0
 11
107.184549623015
 21
352.9738177244593
 31
0.0
  0
LINE
  5
5C1
330
1F
100
AcDbEntity
  8
0
100
AcDbLine
 10
109.1845496230151
 20
180.9738177244594
 30
0.0
 11
109.1845496230151
 21
354.9738177244593
 31
0.0
  0
LINE
  5
5C2
330
1F
100
AcDbEntity
  8
0
100
AcDbLine
 10
106.8845496230142
 20
352.7738177244593
 30
0.0
 11
106.8845496230142
 21
183.1738177244594
 31
0.0
  0
LINE
  5
5C3
330
1F
100
AcDbEntity
  8
0
100
AcDbLine
 10
37.18454962301517
 20
363.5283142652923
 30
0.0
 11
37.18454962301517
 21
172.4193211836264
 31
0.0
  0
ARC
  5
5C4
330
1F
100
AcDbEntity
  8
0
100
AcDbCircle
 10
80.18454962301518
 20
175.9738177244594
 30
0.0
 40
5.5
100
AcDbArc
 50
0.0
 51
65.38002267134427
  0
LINE
  5
5C6
330
1F
100
AcDbEntity
  8
0
100
AcDbLine
 10
57.18454962301414
 20
180.9738177244594
 30
0.0
 11
109.1845496230151
 21
180.9738177244594
 31
0.0
  0
LINE
  5
5C7
330
1F
100
AcDbEntity
  8
0
100
AcDbLine
 10
107.184549623015
 20
182.9738177244594
 30
0.0
 11
62.1845496230103
 21
182.9738177244594
 31
0.0
  0
LINE
  5
5C8
330
1F
100
AcDbEntity
  8
0
100
AcDbLine
 10
62.28454962301009
 20
183.1738177244594
 30
0.0
 11
106.8845496230142
 21
183.1738177244594
 31
0.0
  0
LINE
  5
5C9
330
1F
100
AcDbEntity
  8
0
100
AcDbLine
 10
37.6714611488611
 20
181.4324140856784
 30
0.0
 11
55.18454962301518
 21
180.9738177244594
 31
0.0
  0
LINE
  5
5CA
330
1F
100
AcDbEntity
  8
0
100
AcDbLine
 10
55.18454962301518
 20
170.9738177244593
 30
0.0
 11
38.15837267470692
 21
171.4196638586513
 31
0.0
  0
ARC
  5
5CB
330
1F
100
AcDbEntity
  8
0
100
AcDbCircle
 10
38.18454962301519
 20
172.4193211836264
 30
0.0
 40
1.0
100
AcDbArc
 50
180.0
 51
268.5000000000038
  0
ARC
  5
5CC
330
1F
100
AcDbEntity
  8
0
100
AcDbCircle
 10
37.68454962301518
 20
181.9322427481663
 30
0.0
 40
0.5
100
AcDbArc
 50
180.0
 51
268.5000000000038
  0
LINE
  5
5CD
330
1F
100
AcDbEntity
  8
0
100
AcDbLine
 10
78.08454962301515
 20
175.9738177244594
 30
0.0
 11
78.08454962301515
 21
170.9738177244593
 31
0.0
  0
LINE
  5
5CE
330
1F
100
AcDbEntity
  8
0
100
AcDbLine
 10
82.2845496230151
 20
175.9738177244594
 30
0.0
 11
82.2845496230151
 21
170.9738177244593
 31
0.0
  0
LINE
  5
5CF
330
1F
100
AcDbEntity
  8
0
100
AcDbLine
 10
74.68454962301518
 20
175.9738177244594
 30
0.0
 11
74.68454962301518
 21
170.9738177244593
 31
0.0
  0
LINE
  5
5D0
330
1F
100
AcDbEntity
  8
0
100
AcDbLine
 10
55.18454962301518
 20
170.9738177244593
 30
0.0
 11
78.08454962301515
 21
170.9738177244593
 31
0.0
  0
LINE
  5
5D1
330
1F
100
AcDbEntity
  8
0
100
AcDbLine
 10
55.18454962301518
 20
170.9738177244593
 30
0.0
 11
77.93454962301519
 21
170.9738177244593
 31
0.0
  0
LINE
  5
5D2
330
1F
100
AcDbEntity
  8
0
100
AcDbLine
 10
74.78454974493229
 20
185.1738175651153
 30
0.0
 11
64.18454974493204
 21
185.1738175651153
 31
0.0
  0
LINE
  5
5D3
330
1F
100
AcDbEntity
  8
0
100
AcDbLine
 10
65.28454962301418
 20
185.9738177244594
 30
0.0
 11
73.88454962301421
 21
185.9738177244594
 31
0.0
  0
LINE
  5
5D4
330
1F
100
AcDbEntity
  8
0
100
AcDbLine
 10
59.18454962301109
 20
197.9738177244594
 30
0.0
 11
59.1845496230103
 21
181.0785614107363
 31
0.0
  0
LINE
  5
5D5
330
1F
100
AcDbEntity
  8
0
100
AcDbLine
 10
60.1845496230111
 20
197.9738177244594
 30
0.0
 11
60.1845496230103
 21
180.9738177244594
 31
0.0
  0
LINE
  5
5D6
330
1F
100
AcDbEntity
  8
0
100
AcDbLine
 10
62.18454962301098
 20
197.9738177244594
 30
0.0
 11
62.1845496230103
 21
182.9738177244594
 31
0.0
  0
LINE
  5
5D7
330
1F
100
AcDbEntity
  8
0
100
AcDbLine
 10
59.18454962301109
 20
197.9738177244594
 30
0.0
 11
59.1845496230103
 21
181.4738177244594
 31
0.0
  0
LINE
  5
5D8
330
1F
100
AcDbEntity
  8
0
100
AcDbLine
 10
62.2845496230111
 20
197.9738177244594
 30
0.0
 11
62.28454962301009
 21
183.1738177244594
 31
0.0
  0
LINE
  5
5D9
330
1F
100
AcDbEntity
  8
0
100
AcDbLine
 10
55.18454962301518
 20
180.9738177244594
 30
0.0
 11
59.1845496230103
 21
181.0785614107363
 31
0.0
  0
LINE
  5
5DA
330
1F
100
AcDbEntity
  8
0
100
AcDbLine
 10
55.18454962301518
 20
180.9738177244594
 30
0.0
 11
59.18454962301109
 21
181.0785614107363
 31
0.0
  0
CIRCLE
  5
5DB
330
1F
100
AcDbEntity
  8
0
100
AcDbCircle
 10
55.18454962301518
 20
185.9738177244594
 30
0.0
 40
1.6
  0
CIRCLE
  5
5DC
330
1F
100
AcDbEntity
  8
0
100
AcDbCircle
 10
55.18454962301518
 20
185.9738177244594
 30
0.0
 40
2.0
  0
LINE
  5
5DD
330
1F
100
AcDbEntity
  8
0
100
AcDbLine
 10
57.18454962301269
 20
181.0261895675978
 30
0.0
 11
57.18454962301414
 21
180.9738177244594
 31
0.0
  0
LINE
  5
5DE
330
1F
100
AcDbEntity
  8
0
100
AcDbLine
 10
60.1845496230103
 20
181.4738177244594
 30
0.0
 11
59.1845496230103
 21
181.4738177244592
 31
0.0
  0
ARC
  5
5DF
330
1F
100
AcDbEntity
  8
0
100
AcDbCircle
 10
55.48454962301513
 20
197.9738177244594
 30
0.0
 40
3.699999999995998
100
AcDbArc
 50
0.0
 51
79.09453000326441
  0
ARC
  5
5E0
330
1F
100
AcDbEntity
  8
0
100
AcDbCircle
 10
55.48454962301513
 20
197.9738177244594
 30
0.0
 40
4.699999999995998
100
AcDbArc
 50
0.0
 51
68.79523363710098
  0
ARC
  5
5E1
330
1F
100
AcDbEntity
  8
0
100
AcDbCircle
 10
55.48454962301513
 20
197.9738177244594
 30
0.0
 40
3.699999999995998
100
AcDbArc
 50
0.0
 51
79.09453000326441
  0
LINE
  5
5E2
330
1F
100
AcDbEntity
  8
0
100
AcDbLine
 10
53.53454962301508
 20
203.9738177244594
 30
0.0
 11
53.53454962301508
 21
205.3238177244593
 31
0.0
  0
LINE
  5
5E3
330
1F
100
AcDbEntity
  8
0
100
AcDbLine
 10
53.83454962301424
 20
203.9738177244594
 30
0.0
 11
53.83454962301424
 21
205.3238177244593
 31
0.0
  0
ARC
  5
5E4
330
1F
100
AcDbEntity
  8
0
100
AcDbCircle
 10
53.68454962301519
 20
205.3238177244593
 30
0.0
 40
0.15
100
AcDbArc
 50
0.0
 51
180.0
  0
ARC
  5
5E5
330
1F
100
AcDbEntity
  8
0
100
AcDbCircle
 10
55.0345496230151
 20
203.8238177244594
 30
0.0
 40
0.15
100
AcDbArc
 50
270.0
 51
90.0
  0
LINE
  5
5E6
330
1F
100
AcDbEntity
  8
0
100
AcDbLine
 10
53.83454962301424
 20
203.9738177244594
 30
0.0
 11
55.0345496230151
 21
203.9738177244594
 31
0.0
  0
LINE
  5
5E7
330
1F
100
AcDbEntity
  8
0
100
AcDbLine
 10
52.73454962301514
 20
203.3238177244593
 30
0.0
 11
54.63454962301421
 21
203.3238177244593
 31
0.0
  0
LINE
  5
5E8
330
1F
100
AcDbEntity
  8
0
100
AcDbLine
 10
52.73454962301514
 20
203.023817724459
 30
0.0
 11
54.63454962301421
 21
203.023817724459
 31
0.0
  0
LINE
  5
5E9
330
1F
100
AcDbEntity
  8
0
100
AcDbLine
 10
53.13454962301523
 20
202.6738177244594
 30
0.0
 11
54.23454962301423
 21
202.6738177244594
 31
0.0
  0
LINE
  5
5EA
330
1F
100
AcDbEntity
  8
0
100
AcDbLine
 10
53.13454962301523
 20
202.3738177244594
 30
0.0
 11
54.23454962301423
 21
202.3738177244594
 31
0.0
  0
ARC
  5
5EB
330
1F
100
AcDbEntity
  8
0
100
AcDbCircle
 10
53.13454962301523
 20
202.5238177244593
 30
0.0
 40
0.15
100
AcDbArc
 50
90.0
 51
270.0
  0
ARC
  5
5EC
330
1F
100
AcDbEntity
  8
0
100
AcDbCircle
 10
54.23454962301423
 20
202.5238177244593
 30
0.0
 40
0.15
100
AcDbArc
 50
270.0
 51
90.0
  0
ARC
  5
5ED
330
1F
100
AcDbEntity
  8
0
100
AcDbCircle
 10
52.73454962301514
 20
203.1738177244593
 30
0.0
 40
0.15
100
AcDbArc
 50
90.0
 51
270.0
  0
ARC
  5
5EE
330
1F
100
AcDbEntity
  8
0
100
AcDbCircle
 10
54.63454962301421
 20
203.1738177244593
 30
0.0
 40
0.15
100
AcDbArc
 50
270.0
 51
90.0
  0
ARC
  5
5EF
330
1F
100
AcDbEntity
  8
0
100
AcDbCircle
 10
52.33454962301514
 20
203.8238177244594
 30
0.0
 40
0.15
100
AcDbArc
 50
90.0
 51
270.0
  0
CIRCLE
  5
5F0
330
1F
100
AcDbEntity
  8
0
100
AcDbCircle
 10
53.68454962301519
 20
203.9738177244594
 30
0.0
 40
2.149999999999999
  0
CIRCLE
  5
5F1
330
1F
100
AcDbEntity
  8
0
100
AcDbCircle
 10
53.68454962301519
 20
203.9738177244594
 30
0.0
 40
1.85
  0
LINE
  5
5F2
330
1F
100
AcDbEntity
  8
0
100
AcDbLine
 10
52.33454962301514
 20
203.6738177244594
 30
0.0
 11
55.0345496230151
 21
203.6738177244594
 31
0.0
  0
LINE
  5
5F3
330
1F
100
AcDbEntity
  8
0
100
AcDbLine
 10
52.33454962301514
 20
203.9738177244594
 30
0.0
 11
53.53454962301508
 21
203.9738177244594
 31
0.0
  0
CIRCLE
  5
5F4
330
1F
100
AcDbEntity
  8
0
100
AcDbCircle
 10
55.18454962301518
 20
195.9738177244594
 30
0.0
 40
2.0
  0
CIRCLE
  5
5F5
330
1F
100
AcDbEntity
  8
0
100
AcDbCircle
 10
55.18454962301518
 20
195.9738177244594
 30
0.0
 40
1.6
  0
ARC
  5
5F6
330
1F
100
AcDbEntity
  8
0
100
AcDbCircle
 10
55.48454962301513
 20
197.9738177244594
 30
0.0
 40
6.699999999996
100
AcDbArc
 50
0.0
 51
56.47925960398296
  0
ARC
  5
5F7
330
1F
100
AcDbEntity
  8
0
100
AcDbCircle
 10
55.38454962301421
 20
197.9738177244594
 30
0.0
 40
6.899999999996
100
AcDbArc
 50
0.0
 51
55.58261128953329
  0
CIRCLE
  5
5F8
330
1F
100
AcDbEntity
  8
0
100
AcDbCircle
 10
69.28454962301419
 20
193.5938177244593
 30
0.0
 40
2.0
  0
ARC
  5
5F9
330
1F
100
AcDbEntity
  8
0
100
AcDbCircle
 10
80.18454962301518
 20
175.9738177244594
 30
0.0
 40
5.5
100
AcDbArc
 50
114.6199773286557
 51
179.9999999999966
  0
CIRCLE
  5
5FA
330
1F
100
AcDbEntity
  8
0
100
AcDbCircle
 10
69.28454962301419
 20
188.8438177244593
 30
0.0
 40
1.0
  0
CIRCLE
  5
5FB
330
1F
100
AcDbEntity
  8
0
100
AcDbCircle
 10
69.28454962301419
 20
188.8438177244593
 30
0.0
 40
1.5
  0
ARC
  5
5FC
330
1F
100
AcDbEntity
  8
0
100
AcDbCircle
 10
80.18454962301518
 20
175.9738177244594
 30
0.0
 40
2.1
100
AcDbArc
 50
0.0
 51
180.0
  0
CIRCLE
  5
5FD
330
1F
100
AcDbEntity
  8
0
100
AcDbCircle
 10
69.28454962301419
 20
203.7538177244604
 30
0.0
 40
2.0
  0
CIRCLE
  5
5FE
330
1F
100
AcDbEntity
  8
0
100
AcDbCircle
 10
69.28454962301419
 20
203.7538177244604
 30
0.0
 40
2.0
  0
CIRCLE
  5
5FF
330
1F
100
AcDbEntity
  8
0
100
AcDbCircle
 10
69.28454962301419
 20
198.6738177244594
 30
0.0
 40
2.0
  0
CIRCLE
  5
600
330
1F
100
AcDbEntity
  8
0
100
AcDbCircle
 10
69.28454962301419
 20
198.6738177244594
 30
0.0
 40
2.0
  0
CIRCLE
  5
601
330
1F
100
AcDbEntity
  8
0
100
AcDbCircle
 10
69.28454962301419
 20
208.8338177244593
 30
0.0
 40
2.0
  0
LINE
  5
603
330
1F
100
AcDbEntity
  8
0
100
AcDbLine
 10
85.68454962301519
 20
175.9738177244594
 30
0.0
 11
85.68454962301519
 21
170.9738177244593
 31
0.0
  0
LINE
  5
609
330
1F
100
AcDbEntity
  8
0
100
AcDbLine
 10
82.2845496230151
 20
170.9738177244593
 30
0.0
 11
108.1845496230151
 21
170.9738177244593
 31
0.0
  0
ARC
  5
60B
330
1F
100
AcDbEntity
  8
0
100
AcDbCircle
 10
108.1845496230151
 20
171.9738177244594
 30
0.0
 40
1.0
100
AcDbArc
 50
270.0
 51
0.0
  0
LINE
  5
60C
330
1F
100
AcDbEntity
  8
0
100
AcDbLine
 10
100.2845496230138
 20
191.4738177244594
 30
0.0
 11
93.78454962301418
 21
191.4738177244594
 31
0.0
  0
LINE
  5
60D
330
1F
100
AcDbEntity
  8
0
100
AcDbLine
 10
91.6845496230152
 20
192.9738177244594
 30
0.0
 11
99.98454962301515
 21
192.9738177244594
 31
0.0
  0
LINE
  5
60E
330
1F
100
AcDbEntity
  8
0
100
AcDbLine
 10
90.88454962301524
 20
193.9738177244594
 30
0.0
 11
99.98454962301515
 21
193.9738177244594
 31
0.0
  0
LINE
  5
60F
330
1F
100
AcDbEntity
  8
0
100
AcDbLine
 10
93.78454962301418
 20
185.9738177244594
 30
0.0
 11
100.2845496230138
 21
185.9738177244594
 31
0.0
  0
LINE
  5
610
330
1F
100
AcDbEntity
  8
0
100
AcDbLine
 10
101.184549744933
 20
185.1738175651153
 30
0.0
 11
89.7845497449323
 21
185.1738175651153
 31
0.0
  0
CIRCLE
  5
612
330
1F
100
AcDbEntity
  8
0
100
AcDbCircle
 10
96.85454962301399
 20
189.9738177244594
 30
0.0
 40
0.32
  0
LINE
  5
613
330
1F
100
AcDbEntity
  8
0
100
AcDbLine
 10
94.78454962301418
 20
189.4738177244594
 30
0.0
 11
93.78454962301418
 21
189.4738177244594
 31
0.0
  0
CIRCLE
  5
614
330
1F
100
AcDbEntity
  8
0
100
AcDbCircle
 10
96.85454962301399
 20
187.4738177244594
 30
0.0
 40
0.32
  0
LINE
  5
615
330
1F
100
AcDbEntity
  8
0
100
AcDbLine
 10
93.78454962301418
 20
187.9738177244594
 30
0.0
 11
94.78454962301418
 21
187.9738177244594
 31
0.0
  0
LINE
  5
616
330
1F
100
AcDbEntity
  8
0
100
AcDbLine
 10
93.78454962301418
 20
185.9738177244594
 30
0.0
 11
94.78454962301418
 21
185.9738177244594
 31
0.0
  0
LINE
  5
617
330
1F
100
AcDbEntity
  8
0
100
AcDbLine
 10
94.78454962301418
 20
187.9738177244594
 30
0.0
 11
94.78454962301418
 21
189.4738177244594
 31
0.0
  0
LINE
  5
618
330
1F
100
AcDbEntity
  8
0
100
AcDbLine
 10
93.78454962301418
 20
189.4738177244594
 30
0.0
 11
93.78454962301418
 21
187.9738177244594
 31
0.0
  0
LINE
  5
619
330
1F
100
AcDbEntity
  8
0
100
AcDbLine
 10
94.78454962301418
 20
185.9738177244594
 30
0.0
 11
94.78454962301418
 21
191.4738177244594
 31
0.0
  0
LINE
  5
61A
330
1F
100
AcDbEntity
  8
0
100
AcDbLine
 10
93.78454962301418
 20
191.4738177244594
 30
0.0
 11
93.78454962301418
 21
185.9738177244594
 31
0.0
  0
ARC
  5
61B
330
1F
100
AcDbEntity
  8
0
100
AcDbCircle
 10
91.6845496230152
 20
193.4738177244594
 30
0.0
 40
0.5
100
AcDbArc
 50
180.0
 51
270.0
  0
LINE
  5
61C
330
1F
100
AcDbEntity
  8
0
100
AcDbLine
 10
91.1845496230152
 20
193.9738177244594
 30
0.0
 11
91.1845496230152
 21
193.4738177244594
 31
0.0
  0
ARC
  5
61D
330
1F
100
AcDbEntity
  8
0
100
AcDbCircle
 10
96.63454962301523
 20
204.0901008670513
 30
0.0
 40
2.0
100
AcDbArc
 50
285.0000000000008
 51
0.0
  0
LINE
  5
61E
330
1F
100
AcDbEntity
  8
0
100
AcDbLine
 10
98.63454962301524
 20
197.9738177244594
 30
0.0
 11
98.63454962301524
 21
200.3738177244594
 31
0.0
  0
ARC
  5
61F
330
1F
100
AcDbEntity
  8
0
100
AcDbCircle
 10
94.33454962301516
 20
203.4738177244594
 30
0.0
 40
2.0
100
AcDbArc
 50
180.0
 51
285.0000000000008
  0
LINE
  5
620
330
1F
100
AcDbEntity
  8
0
100
AcDbLine
 10
92.33454962301513
 20
200.3738177244594
 30
0.0
 11
92.33454962301513
 21
197.9738177244594
 31
0.0
  0
LINE
  5
621
330
1F
100
AcDbEntity
  8
0
100
AcDbLine
 10
94.85218771322022
 20
201.5419660718813
 30
0.0
 11
97.15218771322021
 21
202.1582492144723
 31
0.0
  0
LINE
  5
622
330
1F
100
AcDbEntity
  8
0
100
AcDbLine
 10
93.88454962301523
 20
202.9738177244594
 30
0.0
 11
97.08454962301516
 21
202.9738177244594
 31
0.0
  0
LINE
  5
623
330
1F
100
AcDbEntity
  8
0
100
AcDbLine
 10
92.33454962301513
 20
200.3738177244594
 30
0.0
 11
98.63454962301524
 21
200.3738177244594
 31
0.0
  0
LINE
  5
624
330
1F
100
AcDbEntity
  8
0
100
AcDbLine
 10
92.33454962301513
 20
198.4738177244594
 30
0.0
 11
98.63454962301524
 21
198.4738177244594
 31
0.0
  0
LINE
  5
625
330
1F
100
AcDbEntity
  8
0
100
AcDbLine
 10
92.33454962301513
 20
197.9738177244594
 30
0.0
 11
98.63454962301524
 21
197.9738177244594
 31
0.0
  0
CIRCLE
  5
626
330
1F
100
AcDbEntity
  8
0
100
AcDbCircle
 10
95.48454962301523
 20
195.9438177244589
 30
0.0
 40
1.399999999999999
  0
LINE
  5
628
330
1F
100
AcDbEntity
  8
0
100
AcDbLine
 10
100.2845496230138
 20
185.9738177244594
 30
0.0
 11
100.2845496230138
 21
191.4738177244594
 31
0.0
  0
LINE
  5
629
330
1F
100
AcDbEntity
  8
0
100
AcDbLine
 10
99.98454962301515
 20
210.3038177244604
 30
0.0
 11
100.284549623015
 21
210.3038177244604
 31
0.0
  0
LINE
  5
62A
330
1F
100
AcDbEntity
  8
0
100
AcDbLine
 10
99.98454962301515
 20
209.0338177244604
 30
0.0
 11
100.284549623015
 21
209.0338177244604
 31
0.0
  0
LINE
  5
62B
330
1F
100
AcDbEntity
  8
0
100
AcDbLine
 10
99.98454962301515
 20
207.7638177244601
 30
0.0
 11
100.284549623015
 21
207.7638177244601
 31
0.0
  0
LINE
  5
62C
330
1F
100
AcDbEntity
  8
0
100
AcDbLine
 10
99.98454962301515
 20
207.7638177244601
 30
0.0
 11
100.284549623015
 21
207.7638177244601
 31
0.0
  0
LINE
  5
62D
330
1F
100
AcDbEntity
  8
0
100
AcDbLine
 10
99.98454962301515
 20
206.4938177244604
 30
0.0
 11
100.284549623015
 21
206.4938177244604
 31
0.0
  0
LINE
  5
62E
330
1F
100
AcDbEntity
  8
0
100
AcDbLine
 10
99.98454962301515
 20
205.2238177244604
 30
0.0
 11
100.284549623015
 21
205.2238177244604
 31
0.0
  0
LINE
  5
62F
330
1F
100
AcDbEntity
  8
0
100
AcDbLine
 10
99.98454962301515
 20
203.9538177244601
 30
0.0
 11
100.284549623015
 21
203.9538177244601
 31
0.0
  0
LINE
  5
630
330
1F
100
AcDbEntity
  8
0
100
AcDbLine
 10
99.98454962301515
 20
200.3738177244594
 30
0.0
 11
100.284549623015
 21
200.3738177244594
 31
0.0
  0
ARC
  5
631
330
1F
100
AcDbEntity
  8
0
100
AcDbCircle
 10
99.98454962301515
 20
193.2738177244594
 30
0.0
 40
0.3
100
AcDbArc
 50
270.0
 51
0.0
  0
LINE
  5
632
330
1F
100
AcDbEntity
  8
0
100
AcDbLine
 10
100.284549623015
 20
200.3738177244594
 30
0.0
 11
100.284549623015
 21
193.2738177244594
 31
0.0
  0
ARC
  5
633
330
1F
100
AcDbEntity
  8
0
100
AcDbCircle
 10
80.18454962301518
 20
359.9738177244595
 30
0.0
 40
5.5
100
AcDbArc
 50
294.6199773286556
 51
0.0
  0
LINE
  5
634
330
1F
100
AcDbEntity
  8
0
100
AcDbLine
 10
55.18454962301518
 20
364.9738177244593
 30
0.0
 11
108.1845496230151
 21
364.9738177244593
 31
0.0
  0
LINE
  5
635
330
1F
100
AcDbEntity
  8
0
100
AcDbLine
 10
57.18454962301507
 20
354.9738177244593
 30
0.0
 11
109.1845496230151
 21
354.9738177244593
 31
0.0
  0
LINE
  5
636
330
1F
100
AcDbEntity
  8
0
100
AcDbLine
 10
107.184549623015
 20
352.9738177244593
 30
0.0
 11
59.18454962301519
 21
352.9738177244593
 31
0.0
  0
LINE
  5
637
330
1F
100
AcDbEntity
  8
0
100
AcDbLine
 10
106.8845496230142
 20
352.7738177244593
 30
0.0
 11
59.28454962301419
 21
352.7738177244593
 31
0.0
  0
LINE
  5
638
330
1F
100
AcDbEntity
  8
0
100
AcDbLine
 10
55.18454962301518
 20
364.9738177244593
 30
0.0
 11
108.1845496230151
 21
364.9738177244593
 31
0.0
  0
CIRCLE
  5
639
330
1F
100
AcDbEntity
  8
0
100
AcDbCircle
 10
80.18454962301518
 20
359.9738177244595
 30
0.0
 40
2.1
  0
LINE
  5
63A
330
1F
100
AcDbEntity
  8
0
100
AcDbLine
 10
74.68454962301518
 20
359.9738177244595
 30
0.0
 11
74.68454962301518
 21
364.9738177244593
 31
0.0
  0
LINE
  5
63B
330
1F
100
AcDbEntity
  8
0
100
AcDbLine
 10
76.1295496230142
 20
301.1338177244591
 30
0.0
 11
76.1295496230142
 21
276.9738177244594
 31
0.0
  0
LINE
  5
63C
330
1F
100
AcDbEntity
  8
0
100
AcDbLine
 10
76.58454974493213
 20
302.1738175651151
 30
0.0
 11
76.58454974493213
 21
275.9738175651154
 31
0.0
  0
LINE
  5
63D
330
1F
100
AcDbEntity
  8
0
100
AcDbLine
 10
67.78454962301418
 20
301.1338177244591
 30
0.0
 11
67.78454962301418
 21
276.9738177244594
 31
0.0
  0
LINE
  5
63E
330
1F
100
AcDbEntity
  8
0
100
AcDbLine
 10
74.76954962301419
 20
301.1338177244591
 30
0.0
 11
74.76954962301419
 21
276.9738177244594
 31
0.0
  0
LINE
  5
63F
330
1F
100
AcDbEntity
  8
0
100
AcDbLine
 10
66.78454962301419
 20
301.1338177244591
 30
0.0
 11
66.78454962301419
 21
276.9738177244594
 31
0.0
  0
LINE
  5
640
330
1F
100
AcDbEntity
  8
0
100
AcDbLine
 10
64.18454974493204
 20
302.1738175651151
 30
0.0
 11
64.18454974493204
 21
275.9738175651154
 31
0.0
  0
LINE
  5
641
330
1F
100
AcDbEntity
  8
0
100
AcDbLine
 10
65.28454962301509
 20
275.9738175651154
 30
0.0
 11
65.28454962301509
 21
302.1738175651151
 31
0.0
  0
LINE
  5
642
330
1F
100
AcDbEntity
  8
0
100
AcDbLine
 10
72.28454962301419
 20
252.5438177244594
 30
0.0
 11
72.28454962301419
 21
247.5438177244594
 31
0.0
  0
LINE
  5
643
330
1F
100
AcDbEntity
  8
0
100
AcDbLine
 10
67.28454962301419
 20
251.7538177244594
 30
0.0
 11
67.28454962301419
 21
248.3338177244589
 31
0.0
  0
LINE
  5
644
330
1F
100
AcDbEntity
  8
0
100
AcDbLine
 10
74.78454974493229
 20
256.5738175651154
 30
0.0
 11
74.78454974493229
 21
243.1738175651153
 31
0.0
  0
LINE
  5
645
330
1F
100
AcDbEntity
  8
0
100
AcDbLine
 10
73.78454962301418
 20
234.6138177244593
 30
0.0
 11
73.78454962301418
 21
265.113817724459
 31
0.0
  0
LINE
  5
646
330
1F
100
AcDbEntity
  8
0
100
AcDbLine
 10
65.28454962301418
 20
270.4738177244594
 30
0.0
 11
65.28454962301418
 21
229.6138177244594
 31
0.0
  0
ARC
  5
647
330
1F
100
AcDbEntity
  8
0
100
AcDbCircle
 10
69.28454962301419
 20
238.6138177244593
 30
0.0
 40
2.9
100
AcDbArc
 50
133.6028189726984
 51
226.3971810273015
  0
LINE
  5
648
330
1F
100
AcDbEntity
  8
0
100
AcDbLine
 10
65.28454962301418
 20
229.6138177244594
 30
0.0
 11
72.28454962301419
 21
229.6138177244594
 31
0.0
  0
LINE
  5
649
330
1F
100
AcDbEntity
  8
0
100
AcDbLine
 10
65.28454962301418
 20
229.6138177244594
 30
0.0
 11
72.28454962301419
 21
229.6138177244594
 31
0.0
  0
LINE
  5
64A
330
1F
100
AcDbEntity
  8
0
100
AcDbLine
 10
73.88454962301421
 20
226.6138177244594
 30
0.0
 11
65.28454962301418
 21
226.6138177244594
 31
0.0
  0
ARC
  5
64B
330
1F
100
AcDbEntity
  8
0
100
AcDbCircle
 10
69.28454962301419
 20
246.2338177244594
 30
0.0
 40
2.9
100
AcDbArc
 50
133.6028189726984
 51
226.3971810273015
  0
LINE
  5
64C
330
1F
100
AcDbEntity
  8
0
100
AcDbLine
 10
65.28454962301418
 20
234.8538177244594
 30
0.0
 11
65.28454962301418
 21
229.6138177244594
 31
0.0
  0
LINE
  5
64D
330
1F
100
AcDbEntity
  8
0
100
AcDbLine
 10
72.28454962301419
 20
229.6138177244594
 30
0.0
 11
72.28454962301419
 21
234.6138177244593
 31
0.0
  0
LINE
  5
64E
330
1F
100
AcDbEntity
  8
0
100
AcDbLine
 10
72.28454962301419
 20
229.6138177244594
 30
0.0
 11
72.28454962301419
 21
234.8538177244594
 31
0.0
  0
CIRCLE
  5
64F
330
1F
100
AcDbEntity
  8
0
100
AcDbCircle
 10
69.28454962301419
 20
223.7438177244603
 30
0.0
 40
1.0
  0
CIRCLE
  5
650
330
1F
100
AcDbEntity
  8
0
100
AcDbCircle
 10
69.28454962301419
 20
223.7438177244603
 30
0.0
 40
1.5
  0
CIRCLE
  5
651
330
1F
100
AcDbEntity
  8
0
100
AcDbCircle
 10
69.28454962301419
 20
213.9138177244594
 30
0.0
 40
2.0
  0
CIRCLE
  5
652
330
1F
100
AcDbEntity
  8
0
100
AcDbCircle
 10
69.28454962301419
 20
213.9138177244594
 30
0.0
 40
2.0
  0
CIRCLE
  5
653
330
1F
100
AcDbEntity
  8
0
100
AcDbCircle
 10
69.28454962301419
 20
218.9938177244601
 30
0.0
 40
2.0
  0
LINE
  5
654
330
1F
100
AcDbEntity
  8
0
100
AcDbLine
 10
74.78454974493229
 20
243.1738175651153
 30
0.0
 11
76.38454974493196
 21
243.1738175651153
 31
0.0
  0
LINE
  5
655
330
1F
100
AcDbEntity
  8
0
100
AcDbLine
 10
73.78454962301418
 20
242.1638177244594
 30
0.0
 11
75.48454962301423
 21
242.1638177244594
 31
0.0
  0
LINE
  5
656
330
1F
100
AcDbEntity
  8
0
100
AcDbLine
 10
75.48454962301423
 20
240.5638177244593
 30
0.0
 11
73.78454962301418
 21
240.5638177244593
 31
0.0
  0
LINE
  5
657
330
1F
100
AcDbEntity
  8
0
100
AcDbLine
 10
74.78454974493229
 20
239.5738175651154
 30
0.0
 11
76.38454974493196
 21
239.5738175651154
 31
0.0
  0
LINE
  5
658
330
1F
100
AcDbEntity
  8
0
100
AcDbLine
 10
71.48454962301423
 20
247.5438177244594
 30
0.0
 11
72.28454962301419
 21
247.5438177244594
 31
0.0
  0
LINE
  5
659
330
1F
100
AcDbEntity
  8
0
100
AcDbLine
 10
71.48454962301423
 20
244.9238177244594
 30
0.0
 11
72.28454962301419
 21
244.9238177244594
 31
0.0
  0
LINE
  5
65A
330
1F
100
AcDbEntity
  8
0
100
AcDbLine
 10
71.48454962301423
 20
247.5438177244594
 30
0.0
 11
71.48454962301423
 21
244.9238177244594
 31
0.0
  0
CIRCLE
  5
65B
330
1F
100
AcDbEntity
  8
0
100
AcDbCircle
 10
69.28454962301419
 20
246.2338177244594
 30
0.0
 40
0.75
  0
LINE
  5
65C
330
1F
100
AcDbEntity
  8
0
100
AcDbLine
 10
71.48454962301423
 20
239.9238177244594
 30
0.0
 11
72.28454962301419
 21
239.9238177244594
 31
0.0
  0
LINE
  5
65D
330
1F
100
AcDbEntity
  8
0
100
AcDbLine
 10
72.28454962301419
 20
234.6138177244593
 30
0.0
 11
73.78454962301418
 21
234.6138177244593
 31
0.0
  0
LINE
  5
65E
330
1F
100
AcDbEntity
  8
0
100
AcDbLine
 10
71.48454962301423
 20
237.3038177244594
 30
0.0
 11
72.28454962301419
 21
237.3038177244594
 31
0.0
  0
LINE
  5
65F
330
1F
100
AcDbEntity
  8
0
100
AcDbLine
 10
72.28454962301419
 20
237.3038177244594
 30
0.0
 11
72.28454962301419
 21
235.6138177244594
 31
0.0
  0
LINE
  5
660
330
1F
100
AcDbEntity
  8
0
100
AcDbLine
 10
71.48454962301423
 20
239.9238177244594
 30
0.0
 11
71.48454962301423
 21
237.3038177244594
 31
0.0
  0
LINE
  5
661
330
1F
100
AcDbEntity
  8
0
100
AcDbLine
 10
67.28454962301419
 20
244.1338177244594
 30
0.0
 11
67.28454962301419
 21
240.7138177244593
 31
0.0
  0
LINE
  5
662
330
1F
100
AcDbEntity
  8
0
100
AcDbLine
 10
67.28454962301419
 20
236.5138177244594
 30
0.0
 11
67.28454962301419
 21
235.6138177244594
 31
0.0
  0
CIRCLE
  5
663
330
1F
100
AcDbEntity
  8
0
100
AcDbCircle
 10
69.28454962301419
 20
238.6138177244593
 30
0.0
 40
0.75
  0
CIRCLE
  5
664
330
1F
100
AcDbEntity
  8
0
100
AcDbCircle
 10
69.24816356261111
 20
232.5138177244594
 30
0.0
 40
0.9
  0
LINE
  5
665
330
1F
100
AcDbEntity
  8
0
100
AcDbLine
 10
67.28454962301419
 20
235.6138177244594
 30
0.0
 11
72.28454962301419
 21
235.6138177244594
 31
0.0
  0
CIRCLE
  5
666
330
1F
100
AcDbEntity
  8
0
100
AcDbCircle
 10
69.28454962301419
 20
238.6138177244593
 30
0.0
 40
1.5
  0
CIRCLE
  5
667
330
1F
100
AcDbEntity
  8
0
100
AcDbCircle
 10
69.24816356261111
 20
232.5138177244594
 30
0.0
 40
2.0
  0
LINE
  5
668
330
1F
100
AcDbEntity
  8
0
100
AcDbLine
 10
72.28454962301419
 20
244.9238177244594
 30
0.0
 11
72.28454962301419
 21
239.9238177244594
 31
0.0
  0
CIRCLE
  5
669
330
1F
100
AcDbEntity
  8
0
100
AcDbCircle
 10
69.28454962301419
 20
246.2338177244594
 30
0.0
 40
1.5
  0
LINE
  5
66A
330
1F
100
AcDbEntity
  8
0
100
AcDbLine
 10
75.48454962301423
 20
242.1638177244594
 30
0.0
 11
75.48454962301423
 21
240.5638177244593
 31
0.0
  0
LINE
  5
66B
330
1F
100
AcDbEntity
  8
0
100
AcDbLine
 10
76.38454974493196
 20
243.1738175651153
 30
0.0
 11
76.38454974493196
 21
239.5738175651154
 31
0.0
  0
LINE
  5
66C
330
1F
100
AcDbEntity
  8
0
100
AcDbLine
 10
66.78454962301419
 20
276.9738177244594
 30
0.0
 11
76.1295496230142
 21
276.9738177244594
 31
0.0
  0
LINE
  5
66D
330
1F
100
AcDbEntity
  8
0
100
AcDbLine
 10
64.18454974493204
 20
271.4738175651153
 30
0.0
 11
74.78454974493229
 21
271.4738175651153
 31
0.0
  0
LINE
  5
66E
330
1F
100
AcDbEntity
  8
0
100
AcDbLine
 10
65.28454962301418
 20
270.4738177244594
 30
0.0
 11
72.28454962301419
 21
270.4738177244594
 31
0.0
  0
LINE
  5
66F
330
1F
100
AcDbEntity
  8
0
100
AcDbLine
 10
65.28454962301418
 20
270.4738177244594
 30
0.0
 11
72.28454962301419
 21
270.4738177244594
 31
0.0
  0
ARC
  5
670
330
1F
100
AcDbEntity
  8
0
100
AcDbCircle
 10
69.28454962301419
 20
253.853817724459
 30
0.0
 40
2.9
100
AcDbArc
 50
133.6028189726984
 51
226.3971810273015
  0
ARC
  5
671
330
1F
100
AcDbEntity
  8
0
100
AcDbCircle
 10
69.28454962301419
 20
261.4738177244594
 30
0.0
 40
2.9
100
AcDbArc
 50
133.6028189726984
 51
226.3971810273015
  0
LINE
  5
672
330
1F
100
AcDbEntity
  8
0
100
AcDbLine
 10
64.18454974493204
 20
275.9738175651154
 30
0.0
 11
76.58454974493213
 21
275.9738175651154
 31
0.0
  0
LINE
  5
673
330
1F
100
AcDbEntity
  8
0
100
AcDbLine
 10
65.28454962301418
 20
265.2338177244593
 30
0.0
 11
65.28454962301418
 21
270.4738177244594
 31
0.0
  0
LINE
  5
674
330
1F
100
AcDbEntity
  8
0
100
AcDbLine
 10
66.78454962301419
 20
284.4738177244593
 30
0.0
 11
65.28454962301509
 21
284.4738177244591
 31
0.0
  0
LINE
  5
675
330
1F
100
AcDbEntity
  8
0
100
AcDbLine
 10
65.28454962301509
 20
283.4738177244592
 30
0.0
 11
66.78454962301419
 21
283.4738177244592
 31
0.0
  0
LINE
  5
676
330
1F
100
AcDbEntity
  8
0
100
AcDbLine
 10
66.78454962301419
 20
283.4738177244592
 30
0.0
 11
66.78454962301419
 21
284.4738177244593
 31
0.0
  0
LINE
  5
677
330
1F
100
AcDbEntity
  8
0
100
AcDbLine
 10
66.78454962301419
 20
279.9738177244594
 30
0.0
 11
65.28454962301418
 21
279.9738177244594
 31
0.0
  0
LINE
  5
678
330
1F
100
AcDbEntity
  8
0
100
AcDbLine
 10
65.28454962301418
 20
276.9738177244594
 30
0.0
 11
66.78454962301419
 21
276.9738177244594
 31
0.0
  0
LINE
  5
679
330
1F
100
AcDbEntity
  8
0
100
AcDbLine
 10
66.78454962301419
 20
276.9738177244594
 30
0.0
 11
66.78454962301419
 21
277.9738177244594
 31
0.0
  0
LINE
  5
67A
330
1F
100
AcDbEntity
  8
0
100
AcDbLine
 10
66.78454962301419
 20
276.9738177244594
 30
0.0
 11
66.78454962301419
 21
279.9738177244594
 31
0.0
  0
LINE
  5
67B
330
1F
100
AcDbEntity
  8
0
100
AcDbLine
 10
65.28454962301418
 20
279.9738177244594
 30
0.0
 11
65.28454962301418
 21
276.9738177244594
 31
0.0
  0
LINE
  5
67C
330
1F
100
AcDbEntity
  8
0
100
AcDbLine
 10
72.28454962301419
 20
265.4738177244594
 30
0.0
 11
72.28454962301419
 21
270.4738177244594
 31
0.0
  0
LINE
  5
67D
330
1F
100
AcDbEntity
  8
0
100
AcDbLine
 10
72.28454962301419
 20
270.4738177244594
 30
0.0
 11
72.28454962301419
 21
265.2338177244593
 31
0.0
  0
CIRCLE
  5
67E
330
1F
100
AcDbEntity
  8
0
100
AcDbCircle
 10
69.28454962301419
 20
267.5738177244592
 30
0.0
 40
0.9
  0
CIRCLE
  5
67F
330
1F
100
AcDbEntity
  8
0
100
AcDbCircle
 10
69.28454962301419
 20
267.5738177244592
 30
0.0
 40
2.0
  0
LINE
  5
680
330
1F
100
AcDbEntity
  8
0
100
AcDbLine
 10
74.78454974493229
 20
271.4738175651153
 30
0.0
 11
74.78454974493229
 21
260.1738175651151
 31
0.0
  0
LINE
  5
681
330
1F
100
AcDbEntity
  8
0
100
AcDbLine
 10
74.78454974493229
 20
260.1738175651151
 30
0.0
 11
76.38454974493196
 21
260.1738175651151
 31
0.0
  0
LINE
  5
682
330
1F
100
AcDbEntity
  8
0
100
AcDbLine
 10
75.48454962301423
 20
259.1638177244594
 30
0.0
 11
73.78454962301418
 21
259.1638177244594
 31
0.0
  0
LINE
  5
683
330
1F
100
AcDbEntity
  8
0
100
AcDbLine
 10
74.78454974493229
 20
256.5738175651154
 30
0.0
 11
76.38454974493196
 21
256.5738175651154
 31
0.0
  0
LINE
  5
684
330
1F
100
AcDbEntity
  8
0
100
AcDbLine
 10
75.48454962301423
 20
257.563817724459
 30
0.0
 11
73.78454962301418
 21
257.563817724459
 31
0.0
  0
LINE
  5
685
330
1F
100
AcDbEntity
  8
0
100
AcDbLine
 10
72.28454962301419
 20
265.4738177244594
 30
0.0
 11
73.78454962301418
 21
265.4738177244594
 31
0.0
  0
LINE
  5
686
330
1F
100
AcDbEntity
  8
0
100
AcDbLine
 10
73.78454962301418
 20
265.4738177244594
 30
0.0
 11
73.78454962301418
 21
265.113817724459
 31
0.0
  0
LINE
  5
687
330
1F
100
AcDbEntity
  8
0
100
AcDbLine
 10
67.28454962301419
 20
264.113817724459
 30
0.0
 11
67.28454962301419
 21
263.5738177244592
 31
0.0
  0
LINE
  5
688
330
1F
100
AcDbEntity
  8
0
100
AcDbLine
 10
72.28454962301419
 20
264.113817724459
 30
0.0
 11
67.28454962301419
 21
264.113817724459
 31
0.0
  0
LINE
  5
689
330
1F
100
AcDbEntity
  8
0
100
AcDbLine
 10
71.48454962301423
 20
262.7838177244594
 30
0.0
 11
72.28454962301419
 21
262.7838177244594
 31
0.0
  0
LINE
  5
68A
330
1F
100
AcDbEntity
  8
0
100
AcDbLine
 10
71.48454962301423
 20
260.1638177244594
 30
0.0
 11
72.28454962301419
 21
260.1638177244594
 31
0.0
  0
LINE
  5
68B
330
1F
100
AcDbEntity
  8
0
100
AcDbLine
 10
71.48454962301423
 20
262.7838177244594
 30
0.0
 11
71.48454962301423
 21
260.1638177244594
 31
0.0
  0
LINE
  5
68C
330
1F
100
AcDbEntity
  8
0
100
AcDbLine
 10
71.48454962301423
 20
255.1638177244594
 30
0.0
 11
72.28454962301419
 21
255.1638177244594
 31
0.0
  0
LINE
  5
68D
330
1F
100
AcDbEntity
  8
0
100
AcDbLine
 10
71.48454962301423
 20
252.5438177244594
 30
0.0
 11
72.28454962301419
 21
252.5438177244594
 31
0.0
  0
LINE
  5
68E
330
1F
100
AcDbEntity
  8
0
100
AcDbLine
 10
71.48454962301423
 20
255.1638177244594
 30
0.0
 11
71.48454962301423
 21
252.5438177244594
 31
0.0
  0
LINE
  5
68F
330
1F
100
AcDbEntity
  8
0
100
AcDbLine
 10
72.28454962301419
 20
260.1638177244594
 30
0.0
 11
72.28454962301419
 21
255.1638177244594
 31
0.0
  0
CIRCLE
  5
690
330
1F
100
AcDbEntity
  8
0
100
AcDbCircle
 10
69.28454962301419
 20
261.4738177244594
 30
0.0
 40
0.75
  0
CIRCLE
  5
691
330
1F
100
AcDbEntity
  8
0
100
AcDbCircle
 10
69.28454962301419
 20
253.853817724459
 30
0.0
 40
0.75
  0
LINE
  5
692
330
1F
100
AcDbEntity
  8
0
100
AcDbLine
 10
67.28454962301419
 20
259.373817724459
 30
0.0
 11
67.28454962301419
 21
255.9538177244589
 31
0.0
  0
CIRCLE
  5
693
330
1F
100
AcDbEntity
  8
0
100
AcDbCircle
 10
69.28454962301419
 20
261.4738177244594
 30
0.0
 40
1.5
  0
CIRCLE
  5
694
330
1F
100
AcDbEntity
  8
0
100
AcDbCircle
 10
69.28454962301419
 20
253.853817724459
 30
0.0
 40
1.5
  0
LINE
  5
695
330
1F
100
AcDbEntity
  8
0
100
AcDbLine
 10
72.28454962301419
 20
264.113817724459
 30
0.0
 11
72.28454962301419
 21
262.7838177244594
 31
0.0
  0
LINE
  5
696
330
1F
100
AcDbEntity
  8
0
100
AcDbLine
 10
76.38454974493196
 20
260.1738175651151
 30
0.0
 11
76.38454974493196
 21
256.5738175651154
 31
0.0
  0
LINE
  5
697
330
1F
100
AcDbEntity
  8
0
100
AcDbLine
 10
75.48454962301423
 20
259.1638177244594
 30
0.0
 11
75.48454962301423
 21
257.563817724459
 31
0.0
  0
LINE
  5
698
330
1F
100
AcDbEntity
  8
0
100
AcDbLine
 10
71.78454962301419
 20
284.9738177244593
 30
0.0
 11
70.78454962301418
 21
284.9738177244593
 31
0.0
  0
LINE
  5
699
330
1F
100
AcDbEntity
  8
0
100
AcDbLine
 10
70.78454962301418
 20
282.9738177244593
 30
0.0
 11
71.78454962301419
 21
282.9738177244593
 31
0.0
  0
LINE
  5
69A
330
1F
100
AcDbEntity
  8
0
100
AcDbLine
 10
71.78454962301419
 20
282.9738177244593
 30
0.0
 11
71.78454962301419
 21
284.9738177244593
 31
0.0
  0
LINE
  5
69B
330
1F
100
AcDbEntity
  8
0
100
AcDbLine
 10
70.78454962301418
 20
284.9738177244593
 30
0.0
 11
70.78454962301418
 21
282.9738177244593
 31
0.0
  0
LINE
  5
69C
330
1F
100
AcDbEntity
  8
0
100
AcDbLine
 10
67.78454962301418
 20
277.9738177244594
 30
0.0
 11
74.76954962301419
 21
277.9738177244594
 31
0.0
  0
LINE
  5
69D
330
1F
100
AcDbEntity
  8
0
100
AcDbLine
 10
37.6714611488611
 20
354.5152213632413
 30
0.0
 11
55.18454962301518
 21
354.9738177244593
 31
0.0
  0
ARC
  5
69E
330
1F
100
AcDbEntity
  8
0
100
AcDbCircle
 10
37.68454962301518
 20
354.0153927007533
 30
0.0
 40
0.5
100
AcDbArc
 50
91.4999999999962
 51
180.0
  0
LINE
  5
69F
330
1F
100
AcDbEntity
  8
0
100
AcDbLine
 10
77.08454974493213
 20
331.0738175651152
 30
0.0
 11
77.08454974493213
 21
322.8738175651153
 31
0.0
  0
LINE
  5
6A0
330
1F
100
AcDbEntity
  8
0
100
AcDbLine
 10
75.48454962301514
 20
323.4138177244592
 30
0.0
 11
75.48454962301514
 21
330.0538177244593
 31
0.0
  0
LINE
  5
6A1
330
1F
100
AcDbEntity
  8
0
100
AcDbLine
 10
65.28454962301509
 20
323.4138177244592
 30
0.0
 11
65.28454962301509
 21
330.0538177244593
 31
0.0
  0
LINE
  5
6A2
330
1F
100
AcDbEntity
  8
0
100
AcDbLine
 10
64.18454974493204
 20
339.0738175651151
 30
0.0
 11
64.18454974493204
 21
306.0738175651152
 31
0.0
  0
LINE
  5
6A3
330
1F
100
AcDbEntity
  8
0
100
AcDbLine
 10
65.28454962301521
 20
306.0738175651152
 30
0.0
 11
65.28454962301509
 21
339.0738175651151
 31
0.0
  0
LINE
  5
6A4
330
1F
100
AcDbEntity
  8
0
100
AcDbLine
 10
72.5345496230151
 20
322.4138177244593
 30
0.0
 11
65.28454962301418
 21
322.4138177244593
 31
0.0
  0
LINE
  5
6A5
330
1F
100
AcDbEntity
  8
0
100
AcDbLine
 10
75.48454962301514
 20
323.4138177244592
 30
0.0
 11
65.28454962301509
 21
323.4138177244592
 31
0.0
  0
LINE
  5
6A6
330
1F
100
AcDbEntity
  8
0
100
AcDbLine
 10
66.78454962301419
 20
301.1338177244591
 30
0.0
 11
67.78454962301418
 21
301.1338177244591
 31
0.0
  0
LINE
  5
6A7
330
1F
100
AcDbEntity
  8
0
100
AcDbLine
 10
65.28454962301418
 20
307.0138177244594
 30
0.0
 11
72.5345496230151
 21
307.0138177244594
 31
0.0
  0
LINE
  5
6A8
330
1F
100
AcDbEntity
  8
0
100
AcDbLine
 10
64.18454974493204
 20
306.0738175651152
 30
0.0
 11
73.48454974493222
 21
306.0738175651152
 31
0.0
  0
LINE
  5
6A9
330
1F
100
AcDbEntity
  8
0
100
AcDbLine
 10
76.1295496230142
 20
301.1338177244591
 30
0.0
 11
66.78454962301419
 21
301.1338177244591
 31
0.0
  0
LINE
  5
6AA
330
1F
100
AcDbEntity
  8
0
100
AcDbLine
 10
64.18454974493204
 20
302.1738175651151
 30
0.0
 11
76.58454974493213
 21
302.1738175651151
 31
0.0
  0
LINE
  5
6AB
330
1F
100
AcDbEntity
  8
0
100
AcDbLine
 10
66.78454962301419
 20
301.1338177244591
 30
0.0
 11
65.28454962301418
 21
301.1338177244591
 31
0.0
  0
LINE
  5
6AC
330
1F
100
AcDbEntity
  8
0
100
AcDbLine
 10
65.28454962301418
 20
298.1338177244591
 30
0.0
 11
66.78454962301419
 21
298.1338177244591
 31
0.0
  0
LINE
  5
6AD
330
1F
100
AcDbEntity
  8
0
100
AcDbLine
 10
66.78454962301419
 20
293.6338177244591
 30
0.0
 11
66.78454962301419
 21
294.6338177244588
 31
0.0
  0
LINE
  5
6AE
330
1F
100
AcDbEntity
  8
0
100
AcDbLine
 10
65.28454962301509
 20
293.6338177244591
 30
0.0
 11
66.78454962301419
 21
293.6338177244591
 31
0.0
  0
LINE
  5
6AF
330
1F
100
AcDbEntity
  8
0
100
AcDbLine
 10
66.78454962301419
 20
294.6338177244588
 30
0.0
 11
65.28454962301509
 21
294.6338177244588
 31
0.0
  0
LINE
  5
6B0
330
1F
100
AcDbEntity
  8
0
100
AcDbLine
 10
66.78454962301419
 20
288.5538177244594
 30
0.0
 11
66.78454962301419
 21
289.5538177244594
 31
0.0
  0
LINE
  5
6B1
330
1F
100
AcDbEntity
  8
0
100
AcDbLine
 10
65.28454962301509
 20
288.5538177244594
 30
0.0
 11
66.78454962301419
 21
288.5538177244594
 31
0.0
  0
LINE
  5
6B2
330
1F
100
AcDbEntity
  8
0
100
AcDbLine
 10
66.78454962301419
 20
289.5538177244594
 30
0.0
 11
65.28454962301509
 21
289.5538177244594
 31
0.0
  0
LINE
  5
6B3
330
1F
100
AcDbEntity
  8
0
100
AcDbLine
 10
66.78454962301419
 20
301.1338177244591
 30
0.0
 11
66.78454962301419
 21
300.1338177244591
 31
0.0
  0
LINE
  5
6B4
330
1F
100
AcDbEntity
  8
0
100
AcDbLine
 10
66.78454962301419
 20
298.1338177244591
 30
0.0
 11
66.78454962301419
 21
301.1338177244591
 31
0.0
  0
LINE
  5
6B5
330
1F
100
AcDbEntity
  8
0
100
AcDbLine
 10
65.28454962301418
 20
301.1338177244591
 30
0.0
 11
65.28454962301418
 21
298.1338177244591
 31
0.0
  0
LINE
  5
6B6
330
1F
100
AcDbEntity
  8
0
100
AcDbLine
 10
65.28454962301418
 20
322.4138177244593
 30
0.0
 11
65.28454962301418
 21
307.0138177244594
 31
0.0
  0
LINE
  5
6B7
330
1F
100
AcDbEntity
  8
0
100
AcDbLine
 10
75.2695496230142
 20
301.1338177244591
 30
0.0
 11
74.76954962301419
 21
301.1338177244591
 31
0.0
  0
LINE
  5
6B8
330
1F
100
AcDbEntity
  8
0
100
AcDbLine
 10
70.78454962301418
 20
293.1338177244591
 30
0.0
 11
71.78454962301419
 21
293.1338177244591
 31
0.0
  0
LINE
  5
6B9
330
1F
100
AcDbEntity
  8
0
100
AcDbLine
 10
71.78454962301419
 20
293.1338177244591
 30
0.0
 11
71.78454962301419
 21
295.1338177244593
 31
0.0
  0
LINE
  5
6BA
330
1F
100
AcDbEntity
  8
0
100
AcDbLine
 10
71.78454962301419
 20
295.1338177244593
 30
0.0
 11
70.78454962301418
 21
295.1338177244593
 31
0.0
  0
LINE
  5
6BB
330
1F
100
AcDbEntity
  8
0
100
AcDbLine
 10
70.78454962301418
 20
295.1338177244593
 30
0.0
 11
70.78454962301418
 21
293.1338177244591
 31
0.0
  0
LINE
  5
6BC
330
1F
100
AcDbEntity
  8
0
100
AcDbLine
 10
71.78454962301419
 20
290.0538177244594
 30
0.0
 11
70.78454962301418
 21
290.0538177244594
 31
0.0
  0
LINE
  5
6BD
330
1F
100
AcDbEntity
  8
0
100
AcDbLine
 10
70.78454962301418
 20
288.0538177244594
 30
0.0
 11
71.78454962301419
 21
288.0538177244594
 31
0.0
  0
LINE
  5
6BE
330
1F
100
AcDbEntity
  8
0
100
AcDbLine
 10
71.78454962301419
 20
288.0538177244594
 30
0.0
 11
71.78454962301419
 21
290.0538177244594
 31
0.0
  0
LINE
  5
6BF
330
1F
100
AcDbEntity
  8
0
100
AcDbLine
 10
70.78454962301418
 20
290.0538177244594
 30
0.0
 11
70.78454962301418
 21
288.0538177244594
 31
0.0
  0
LINE
  5
6C0
330
1F
100
AcDbEntity
  8
0
100
AcDbLine
 10
67.78454962301418
 20
300.1338177244591
 30
0.0
 11
74.76954962301419
 21
300.1338177244591
 31
0.0
  0
LINE
  5
6C1
330
1F
100
AcDbEntity
  8
0
100
AcDbLine
 10
73.48454974493222
 20
322.8738175651153
 30
0.0
 11
77.08454974493213
 21
322.8738175651153
 31
0.0
  0
CIRCLE
  5
6C2
330
1F
100
AcDbEntity
  8
0
100
AcDbCircle
 10
68.78454962301418
 20
312.9638177244594
 30
0.0
 40
1.0
  0
CIRCLE
  5
6C3
330
1F
100
AcDbEntity
  8
0
100
AcDbCircle
 10
68.78454962301418
 20
316.4638177244593
 30
0.0
 40
1.0
  0
CIRCLE
  5
6C4
330
1F
100
AcDbEntity
  8
0
100
AcDbCircle
 10
68.78454962301418
 20
309.4638177244593
 30
0.0
 40
1.0
  0
CIRCLE
  5
6C5
330
1F
100
AcDbEntity
  8
0
100
AcDbCircle
 10
68.78454962301418
 20
319.9638177244593
 30
0.0
 40
1.0
  0
LINE
  5
6C6
330
1F
100
AcDbEntity
  8
0
100
AcDbLine
 10
72.5345496230151
 20
307.0138177244594
 30
0.0
 11
72.5345496230151
 21
322.4138177244593
 31
0.0
  0
LINE
  5
6C7
330
1F
100
AcDbEntity
  8
0
100
AcDbLine
 10
73.48454974493222
 20
322.8738175651153
 30
0.0
 11
73.48454974493222
 21
306.0738175651152
 31
0.0
  0
CIRCLE
  5
6C8
330
1F
100
AcDbEntity
  8
0
100
AcDbCircle
 10
67.78454974493229
 20
347.7738175651152
 30
0.0
 40
1.399999999999999
  0
CIRCLE
  5
6C9
330
1F
100
AcDbEntity
  8
0
100
AcDbCircle
 10
67.78454974493229
 20
342.9738175651154
 30
0.0
 40
1.399999999999999
  0
LINE
  5
6CA
330
1F
100
AcDbEntity
  8
0
100
AcDbLine
 10
74.08454974493223
 20
339.0738175651151
 30
0.0
 11
64.18454974493204
 21
339.0738175651151
 31
0.0
  0
LINE
  5
6CB
330
1F
100
AcDbEntity
  8
0
100
AcDbLine
 10
73.18454962301415
 20
338.5538177244593
 30
0.0
 11
65.28454962301418
 21
338.5538177244593
 31
0.0
  0
LINE
  5
6CC
330
1F
100
AcDbEntity
  8
0
100
AcDbLine
 10
73.18454962301415
 20
331.0538177244603
 30
0.0
 11
65.28454962301418
 21
331.0538177244603
 31
0.0
  0
LINE
  5
6CD
330
1F
100
AcDbEntity
  8
0
100
AcDbLine
 10
75.48454962301514
 20
330.0538177244593
 30
0.0
 11
65.28454962301509
 21
330.0538177244593
 31
0.0
  0
LINE
  5
6CE
330
1F
100
AcDbEntity
  8
0
100
AcDbLine
 10
65.28454962301509
 20
337.6438177244601
 30
0.0
 11
65.68454962301415
 21
337.6438177244601
 31
0.0
  0
LINE
  5
6CF
330
1F
100
AcDbEntity
  8
0
100
AcDbLine
 10
65.28454962301509
 20
337.0438177244601
 30
0.0
 11
65.68454962301415
 21
337.0438177244601
 31
0.0
  0
LINE
  5
6D0
330
1F
100
AcDbEntity
  8
0
100
AcDbLine
 10
65.28454962301509
 20
335.1038177244601
 30
0.0
 11
65.68454962301415
 21
335.1038177244601
 31
0.0
  0
LINE
  5
6D1
330
1F
100
AcDbEntity
  8
0
100
AcDbLine
 10
65.28454962301509
 20
334.5038177244603
 30
0.0
 11
65.68454962301415
 21
334.5038177244603
 31
0.0
  0
LINE
  5
6D2
330
1F
100
AcDbEntity
  8
0
100
AcDbLine
 10
65.28454962301509
 20
331.9638177244601
 30
0.0
 11
65.68454962301415
 21
331.9638177244601
 31
0.0
  0
LINE
  5
6D3
330
1F
100
AcDbEntity
  8
0
100
AcDbLine
 10
65.28454962301509
 20
332.5638177244603
 30
0.0
 11
65.68454962301415
 21
332.5638177244603
 31
0.0
  0
LINE
  5
6D4
330
1F
100
AcDbEntity
  8
0
100
AcDbLine
 10
65.28454962301418
 20
331.0538177244603
 30
0.0
 11
65.28454962301418
 21
331.9638177244601
 31
0.0
  0
LINE
  5
6D5
330
1F
100
AcDbEntity
  8
0
100
AcDbLine
 10
65.28454962301418
 20
337.6438177244593
 30
0.0
 11
65.28454962301418
 21
338.5538177244593
 31
0.0
  0
LINE
  5
6D6
330
1F
100
AcDbEntity
  8
0
100
AcDbLine
 10
65.68454962301415
 20
331.0538177244603
 30
0.0
 11
65.68454962301415
 21
338.5538177244593
 31
0.0
  0
LINE
  5
6D7
330
1F
100
AcDbEntity
  8
0
100
AcDbLine
 10
55.18454962301518
 20
354.9738177244593
 30
0.0
 11
56.18454962301519
 21
354.9476318028903
 31
0.0
  0
LINE
  5
6D8
330
1F
100
AcDbEntity
  8
0
100
AcDbLine
 10
56.18454962301519
 20
350.9738177244593
 30
0.0
 11
56.19763809716812
 21
350.9741604582171
 31
0.0
  0
LINE
  5
6D9
330
1F
100
AcDbEntity
  8
0
100
AcDbLine
 10
57.18454962301507
 20
354.4738177244591
 30
0.0
 11
56.18454962301519
 21
354.4738177244591
 31
0.0
  0
CIRCLE
  5
6DA
330
1F
100
AcDbEntity
  8
0
100
AcDbCircle
 10
72.8845497449321
 20
342.9738175651154
 30
0.0
 40
1.399999999999999
  0
LINE
  5
6DB
330
1F
100
AcDbEntity
  8
0
100
AcDbLine
 10
75.48454962301514
 20
324.8638177244592
 30
0.0
 11
70.70905469402316
 21
324.8638177244592
 31
0.0
  0
LINE
  5
6DC
330
1F
100
AcDbEntity
  8
0
100
AcDbLine
 10
75.48454962301514
 20
328.6038177244593
 30
0.0
 11
70.70905469402316
 21
328.6038177244593
 31
0.0
  0
LINE
  5
6DD
330
1F
100
AcDbEntity
  8
0
100
AcDbLine
 10
75.48454962301514
 20
327.4038177244593
 30
0.0
 11
72.48454962301514
 21
327.4038177244593
 31
0.0
  0
LINE
  5
6DE
330
1F
100
AcDbEntity
  8
0
100
AcDbLine
 10
75.48454962301514
 20
326.0638177244591
 30
0.0
 11
72.48454962301514
 21
326.0638177244591
 31
0.0
  0
LINE
  5
6DF
330
1F
100
AcDbEntity
  8
0
100
AcDbLine
 10
75.48454962301514
 20
324.8638177244592
 30
0.0
 11
72.48454962301514
 21
324.8638177244592
 31
0.0
  0
LINE
  5
6E0
330
1F
100
AcDbEntity
  8
0
100
AcDbLine
 10
74.08454974493223
 20
331.0738175651152
 30
0.0
 11
77.08454974493213
 21
331.0738175651152
 31
0.0
  0
LINE
  5
6E1
330
1F
100
AcDbEntity
  8
0
100
AcDbLine
 10
72.48454962301514
 20
327.4038177244593
 30
0.0
 11
72.48454962301514
 21
328.6038177244593
 31
0.0
  0
LINE
  5
6E2
330
1F
100
AcDbEntity
  8
0
100
AcDbLine
 10
72.48454962301514
 20
324.8638177244592
 30
0.0
 11
72.48454962301514
 21
326.0638177244591
 31
0.0
  0
LINE
  5
6E3
330
1F
100
AcDbEntity
  8
0
100
AcDbLine
 10
73.98454962301525
 20
326.0638177244591
 30
0.0
 11
73.98454962301525
 21
327.4038177244593
 31
0.0
  0
LINE
  5
6E4
330
1F
100
AcDbEntity
  8
0
100
AcDbLine
 10
74.48454962301525
 20
327.4038177244593
 30
0.0
 11
74.48454962301525
 21
328.6038177244593
 31
0.0
  0
LINE
  5
6E5
330
1F
100
AcDbEntity
  8
0
100
AcDbLine
 10
74.48454962301525
 20
324.8638177244592
 30
0.0
 11
74.48454962301525
 21
326.0638177244591
 31
0.0
  0
LINE
  5
6E6
330
1F
100
AcDbEntity
  8
0
100
AcDbLine
 10
70.70905469402316
 20
328.6038177244593
 30
0.0
 11
70.70905469402316
 21
324.8638177244592
 31
0.0
  0
CIRCLE
  5
6E7
330
1F
100
AcDbEntity
  8
0
100
AcDbCircle
 10
69.43454962301405
 20
334.8038177244593
 30
0.0
 40
1.290290050200999
  0
LINE
  5
6E8
330
1F
100
AcDbEntity
  8
0
100
AcDbLine
 10
74.08454974493223
 20
339.0738175651151
 30
0.0
 11
74.08454974493223
 21
331.0738175651152
 31
0.0
  0
LINE
  5
6E9
330
1F
100
AcDbEntity
  8
0
100
AcDbLine
 10
73.18454962301415
 20
331.0538177244603
 30
0.0
 11
73.18454962301415
 21
338.5538177244593
 31
0.0
  0
ARC
  5
6EA
330
1F
100
AcDbEntity
  8
0
100
AcDbCircle
 10
80.18454962301518
 20
359.9738177244595
 30
0.0
 40
5.5
100
AcDbArc
 50
180.0
 51
245.3800226713443
  0
CIRCLE
  5
6EB
330
1F
100
AcDbEntity
  8
0
100
AcDbCircle
 10
72.8845497449321
 20
347.7738175651152
 30
0.0
 40
1.399999999999999
  0
LINE
  5
6EC
330
1F
100
AcDbEntity
  8
0
100
AcDbLine
 10
55.18454962301518
 20
364.9738177244593
 30
0.0
 11
38.15837267470692
 21
364.5279715902681
 31
0.0
  0
ARC
  5
6ED
330
1F
100
AcDbEntity
  8
0
100
AcDbCircle
 10
38.18454962301519
 20
363.5283142652923
 30
0.0
 40
1.0
100
AcDbArc
 50
91.4999999999962
 51
180.0
  0
LINE
  5
6EE
330
1F
100
AcDbEntity
  8
0
100
AcDbLine
 10
85.68454962301519
 20
359.9738177244595
 30
0.0
 11
85.68454962301519
 21
364.9738177244593
 31
0.0
  0
LINE
  5
6EF
330
1F
100
AcDbEntity
  8
0
100
AcDbLine
 10
100.284549623015
 20
247.5738177244592
 30
0.0
 11
100.284549623015
 21
253.4738177244594
 31
0.0
  0
LINE
  5
6F0
330
1F
100
AcDbEntity
  8
0
100
AcDbLine
 10
101.184549744933
 20
267.5738175651154
 30
0.0
 11
101.184549744933
 21
232.6738175651153
 31
0.0
  0
LINE
  5
6F1
330
1F
100
AcDbEntity
  8
0
100
AcDbLine
 10
100.284549623015
 20
267.5738175651154
 30
0.0
 11
100.284549623015
 21
232.6738175651153
 31
0.0
  0
LINE
  5
6F2
330
1F
100
AcDbEntity
  8
0
100
AcDbLine
 10
86.3845497449321
 20
263.0738175651154
 30
0.0
 11
86.3845497449321
 21
247.0738175651153
 31
0.0
  0
LINE
  5
6F3
330
1F
100
AcDbEntity
  8
0
100
AcDbLine
 10
87.48454962301424
 20
247.5738177244592
 30
0.0
 11
87.48454962301424
 21
261.5738177244592
 31
0.0
  0
LINE
  5
6F4
330
1F
100
AcDbEntity
  8
0
100
AcDbLine
 10
100.2845496230138
 20
247.0738177244589
 30
0.0
 11
92.38454962301421
 21
247.0738177244589
 31
0.0
  0
LINE
  5
6F5
330
1F
100
AcDbEntity
  8
0
100
AcDbLine
 10
100.2845496230138
 20
241.5738177244592
 30
0.0
 11
93.03454962301421
 21
241.5738177244592
 31
0.0
  0
LINE
  5
6F6
330
1F
100
AcDbEntity
  8
0
100
AcDbLine
 10
92.38454962301421
 20
242.073817724459
 30
0.0
 11
100.2845496230138
 21
242.073817724459
 31
0.0
  0
LINE
  5
6F7
330
1F
100
AcDbEntity
  8
0
100
AcDbLine
 10
93.03454962301421
 20
233.1738177244594
 30
0.0
 11
100.2845496230138
 21
233.1738177244594
 31
0.0
  0
LINE
  5
6F8
330
1F
100
AcDbEntity
  8
0
100
AcDbLine
 10
101.184549744933
 20
232.6738175651153
 30
0.0
 11
89.7845497449323
 21
232.6738175651153
 31
0.0
  0
LINE
  5
6F9
330
1F
100
AcDbEntity
  8
0
100
AcDbLine
 10
101.184549744933
 20
230.6738175651153
 30
0.0
 11
89.7845497449323
 21
230.6738175651153
 31
0.0
  0
LINE
  5
6FA
330
1F
100
AcDbEntity
  8
0
100
AcDbLine
 10
91.6845496230152
 20
230.1738177244593
 30
0.0
 11
99.98454962301515
 21
230.1738177244604
 31
0.0
  0
LINE
  5
6FB
330
1F
100
AcDbEntity
  8
0
100
AcDbLine
 10
90.88454962301524
 20
229.1738177244594
 30
0.0
 11
99.98454962301515
 21
229.1738177244594
 31
0.0
  0
LINE
  5
6FC
330
1F
100
AcDbEntity
  8
0
100
AcDbLine
 10
100.284549623015
 20
247.5738177244592
 30
0.0
 11
87.48454962301424
 21
247.5738177244592
 31
0.0
  0
ARC
  5
6FD
330
1F
100
AcDbEntity
  8
0
100
AcDbCircle
 10
91.6845496230152
 20
229.6738177244594
 30
0.0
 40
0.5
100
AcDbArc
 50
90.0
 51
180.0
  0
LINE
  5
6FE
330
1F
100
AcDbEntity
  8
0
100
AcDbLine
 10
91.1845496230152
 20
229.6738177244594
 30
0.0
 11
91.1845496230152
 21
229.1738177244594
 31
0.0
  0
LINE
  5
6FF
330
1F
100
AcDbEntity
  8
0
100
AcDbLine
 10
98.63454962301524
 20
222.7738177244594
 30
0.0
 11
98.63454962301524
 21
225.1738177244603
 31
0.0
  0
ARC
  5
700
330
1F
100
AcDbEntity
  8
0
100
AcDbCircle
 10
96.63454962301523
 20
219.0575345818678
 30
0.0
 40
2.0
100
AcDbArc
 50
0.0
 51
74.99999999999879
  0
LINE
  5
701
330
1F
100
AcDbEntity
  8
0
100
AcDbLine
 10
92.33454962301513
 20
225.1738177244603
 30
0.0
 11
92.33454962301513
 21
222.7738177244594
 31
0.0
  0
ARC
  5
702
330
1F
100
AcDbEntity
  8
0
100
AcDbCircle
 10
94.33454962301516
 20
219.6738177244593
 30
0.0
 40
2.0
100
AcDbArc
 50
74.99999999999879
 51
180.0
  0
LINE
  5
703
330
1F
100
AcDbEntity
  8
0
100
AcDbLine
 10
94.85218771322022
 20
221.6056693770373
 30
0.0
 11
97.15218771322021
 21
220.9893862344464
 31
0.0
  0
LINE
  5
704
330
1F
100
AcDbEntity
  8
0
100
AcDbLine
 10
92.33454962301513
 20
222.7738177244594
 30
0.0
 11
98.63454962301524
 21
222.7738177244594
 31
0.0
  0
LINE
  5
705
330
1F
100
AcDbEntity
  8
0
100
AcDbLine
 10
92.33454962301513
 20
224.6738177244592
 30
0.0
 11
98.63454962301524
 21
224.6738177244592
 31
0.0
  0
LINE
  5
706
330
1F
100
AcDbEntity
  8
0
100
AcDbLine
 10
92.33454962301513
 20
225.1738177244594
 30
0.0
 11
98.63454962301524
 21
225.1738177244594
 31
0.0
  0
LINE
  5
707
330
1F
100
AcDbEntity
  8
0
100
AcDbLine
 10
97.08454962301516
 20
220.1738177244594
 30
0.0
 11
93.88454962301523
 21
220.1738177244604
 31
0.0
  0
CIRCLE
  5
708
330
1F
100
AcDbEntity
  8
0
100
AcDbCircle
 10
95.48454962301523
 20
227.2038177244594
 30
0.0
 40
1.399999999999999
  0
LINE
  5
709
330
1F
100
AcDbEntity
  8
0
100
AcDbLine
 10
89.7845497449323
 20
247.0738175651153
 30
0.0
 11
89.7845497449323
 21
232.6738175651153
 31
0.0
  0
LINE
  5
70A
330
1F
100
AcDbEntity
  8
0
100
AcDbLine
 10
89.7845497449323
 20
247.0738175651153
 30
0.0
 11
86.3845497449321
 21
247.0738175651153
 31
0.0
  0
LINE
  5
70B
330
1F
100
AcDbEntity
  8
0
100
AcDbLine
 10
95.33454962301425
 20
246.0738177244589
 30
0.0
 11
94.33454962301402
 21
246.0738177244589
 31
0.0
  0
LINE
  5
70C
330
1F
100
AcDbEntity
  8
0
100
AcDbLine
 10
99.33454962301425
 20
246.0738177244589
 30
0.0
 11
93.334549623014
 21
246.0738177244589
 31
0.0
  0
CIRCLE
  5
70D
330
1F
100
AcDbEntity
  8
0
100
AcDbCircle
 10
96.78454962301421
 20
235.6238177244593
 30
0.0
 40
1.0
  0
CIRCLE
  5
70E
330
1F
100
AcDbEntity
  8
0
100
AcDbCircle
 10
96.78454962301421
 20
239.1238177244594
 30
0.0
 40
1.0
  0
LINE
  5
70F
330
1F
100
AcDbEntity
  8
0
100
AcDbLine
 10
94.33454962301402
 20
243.0738177244593
 30
0.0
 11
95.33454962301425
 21
243.0738177244593
 31
0.0
  0
LINE
  5
710
330
1F
100
AcDbEntity
  8
0
100
AcDbLine
 10
93.03454962301421
 20
241.5738177244592
 30
0.0
 11
93.03454962301421
 21
233.1738177244594
 31
0.0
  0
LINE
  5
711
330
1F
100
AcDbEntity
  8
0
100
AcDbLine
 10
93.334549623014
 20
243.0738177244593
 30
0.0
 11
99.33454962301425
 21
243.0738177244593
 31
0.0
  0
LINE
  5
712
330
1F
100
AcDbEntity
  8
0
100
AcDbLine
 10
96.13454962301421
 20
243.0738177244593
 30
0.0
 11
96.13454962301421
 21
246.0738177244589
 31
0.0
  0
LINE
  5
713
330
1F
100
AcDbEntity
  8
0
100
AcDbLine
 10
99.33454962301425
 20
243.0738177244593
 30
0.0
 11
99.33454962301425
 21
246.0738177244589
 31
0.0
  0
LINE
  5
714
330
1F
100
AcDbEntity
  8
0
100
AcDbLine
 10
93.334549623014
 20
246.0738177244589
 30
0.0
 11
93.334549623014
 21
243.0738177244593
 31
0.0
  0
LINE
  5
715
330
1F
100
AcDbEntity
  8
0
100
AcDbLine
 10
95.33454962301425
 20
243.0738177244593
 30
0.0
 11
95.33454962301425
 21
246.0738177244589
 31
0.0
  0
LINE
  5
716
330
1F
100
AcDbEntity
  8
0
100
AcDbLine
 10
94.33454962301402
 20
246.0738177244589
 30
0.0
 11
94.33454962301402
 21
243.0738177244593
 31
0.0
  0
LINE
  5
717
330
1F
100
AcDbEntity
  8
0
100
AcDbLine
 10
92.38454962301421
 20
247.0738177244589
 30
0.0
 11
92.38454962301421
 21
242.073817724459
 31
0.0
  0
LINE
  5
718
330
1F
100
AcDbEntity
  8
0
100
AcDbLine
 10
100.284549623015
 20
229.8738177244603
 30
0.0
 11
100.284549623015
 21
222.7738177244594
 31
0.0
  0
LINE
  5
719
330
1F
100
AcDbEntity
  8
0
100
AcDbLine
 10
99.98454962301515
 20
222.7738177244594
 30
0.0
 11
100.284549623015
 21
222.7738177244594
 31
0.0
  0
LINE
  5
71A
330
1F
100
AcDbEntity
  8
0
100
AcDbLine
 10
99.98454962301515
 20
215.3838177244602
 30
0.0
 11
100.284549623015
 21
215.3838177244602
 31
0.0
  0
LINE
  5
71B
330
1F
100
AcDbEntity
  8
0
100
AcDbLine
 10
99.98454962301515
 20
214.1138177244601
 30
0.0
 11
100.284549623015
 21
214.1138177244601
 31
0.0
  0
LINE
  5
71C
330
1F
100
AcDbEntity
  8
0
100
AcDbLine
 10
99.98454962301515
 20
217.9238177244604
 30
0.0
 11
100.284549623015
 21
217.9238177244604
 31
0.0
  0
LINE
  5
71D
330
1F
100
AcDbEntity
  8
0
100
AcDbLine
 10
99.98454962301515
 20
216.6538177244603
 30
0.0
 11
100.284549623015
 21
216.6538177244603
 31
0.0
  0
LINE
  5
71E
330
1F
100
AcDbEntity
  8
0
100
AcDbLine
 10
99.98454962301515
 20
215.3838177244602
 30
0.0
 11
100.284549623015
 21
215.3838177244602
 31
0.0
  0
LINE
  5
71F
330
1F
100
AcDbEntity
  8
0
100
AcDbLine
 10
99.98454962301515
 20
219.1938177244593
 30
0.0
 11
100.284549623015
 21
219.1938177244593
 31
0.0
  0
LINE
  5
720
330
1F
100
AcDbEntity
  8
0
100
AcDbLine
 10
99.98454962301515
 20
217.9238177244604
 30
0.0
 11
100.284549623015
 21
217.9238177244604
 31
0.0
  0
LINE
  5
721
330
1F
100
AcDbEntity
  8
0
100
AcDbLine
 10
99.98454962301515
 20
212.8438177244603
 30
0.0
 11
100.284549623015
 21
212.8438177244603
 31
0.0
  0
LINE
  5
722
330
1F
100
AcDbEntity
  8
0
100
AcDbLine
 10
99.98454962301515
 20
211.5738177244602
 30
0.0
 11
100.284549623015
 21
211.5738177244602
 31
0.0
  0
ARC
  5
723
330
1F
100
AcDbEntity
  8
0
100
AcDbCircle
 10
99.98454962301515
 20
229.8738177244603
 30
0.0
 40
0.3
100
AcDbArc
 50
0.0
 51
90.0
  0
LINE
  5
724
330
1F
100
AcDbEntity
  8
0
100
AcDbLine
 10
100.2845496230138
 20
233.1738177244594
 30
0.0
 11
100.2845496230138
 21
241.5738177244592
 31
0.0
  0
LINE
  5
725
330
1F
100
AcDbEntity
  8
0
100
AcDbLine
 10
100.2845496230138
 20
242.073817724459
 30
0.0
 11
100.2845496230138
 21
247.0738177244589
 31
0.0
  0
LINE
  5
726
330
1F
100
AcDbEntity
  8
0
100
AcDbLine
 10
101.184549744933
 20
267.5738175651154
 30
0.0
 11
89.7845497449323
 21
267.5738175651154
 31
0.0
  0
LINE
  5
727
330
1F
100
AcDbEntity
  8
0
100
AcDbLine
 10
100.2845496230138
 20
267.0738177244592
 30
0.0
 11
92.38454962301421
 21
267.0738177244592
 31
0.0
  0
LINE
  5
728
330
1F
100
AcDbEntity
  8
0
100
AcDbLine
 10
92.38454962301421
 20
262.0738177244593
 30
0.0
 11
100.2845496230138
 21
262.0738177244593
 31
0.0
  0
LINE
  5
729
330
1F
100
AcDbEntity
  8
0
100
AcDbLine
 10
100.284549623015
 20
261.5738177244592
 30
0.0
 11
87.48454962301424
 21
261.5738177244592
 31
0.0
  0
LINE
  5
72A
330
1F
100
AcDbEntity
  8
0
100
AcDbLine
 10
89.7845497449323
 20
263.0738175651154
 30
0.0
 11
89.7845497449323
 21
267.5738175651154
 31
0.0
  0
CIRCLE
  5
72B
330
1F
100
AcDbEntity
  8
0
100
AcDbCircle
 10
93.78454962301509
 20
254.573817724459
 30
0.0
 40
5.5
  0
LINE
  5
72C
330
1F
100
AcDbEntity
  8
0
100
AcDbLine
 10
89.7845497449323
 20
263.0738175651154
 30
0.0
 11
86.3845497449321
 21
263.0738175651154
 31
0.0
  0
LINE
  5
72D
330
1F
100
AcDbEntity
  8
0
100
AcDbLine
 10
95.33454962301425
 20
266.0738177244593
 30
0.0
 11
94.33454962301402
 21
266.0738177244593
 31
0.0
  0
LINE
  5
72E
330
1F
100
AcDbEntity
  8
0
100
AcDbLine
 10
99.33454962301425
 20
266.0738177244593
 30
0.0
 11
93.334549623014
 21
266.0738177244593
 31
0.0
  0
LINE
  5
72F
330
1F
100
AcDbEntity
  8
0
100
AcDbLine
 10
94.33454962301402
 20
263.0738177244592
 30
0.0
 11
95.33454962301425
 21
263.0738177244592
 31
0.0
  0
LINE
  5
730
330
1F
100
AcDbEntity
  8
0
100
AcDbLine
 10
93.334549623014
 20
263.0738177244592
 30
0.0
 11
99.33454962301425
 21
263.0738177244592
 31
0.0
  0
LINE
  5
731
330
1F
100
AcDbEntity
  8
0
100
AcDbLine
 10
99.33454962301425
 20
263.0738177244592
 30
0.0
 11
99.33454962301425
 21
266.0738177244593
 31
0.0
  0
LINE
  5
732
330
1F
100
AcDbEntity
  8
0
100
AcDbLine
 10
96.13454962301421
 20
263.0738177244592
 30
0.0
 11
96.13454962301421
 21
266.0738177244593
 31
0.0
  0
LINE
  5
733
330
1F
100
AcDbEntity
  8
0
100
AcDbLine
 10
95.33454962301425
 20
263.0738177244592
 30
0.0
 11
95.33454962301425
 21
266.0738177244593
 31
0.0
  0
LINE
  5
734
330
1F
100
AcDbEntity
  8
0
100
AcDbLine
 10
94.33454962301402
 20
266.0738177244593
 30
0.0
 11
94.33454962301402
 21
263.0738177244592
 31
0.0
  0
LINE
  5
735
330
1F
100
AcDbEntity
  8
0
100
AcDbLine
 10
93.334549623014
 20
266.0738177244593
 30
0.0
 11
93.334549623014
 21
263.0738177244592
 31
0.0
  0
LINE
  5
736
330
1F
100
AcDbEntity
  8
0
100
AcDbLine
 10
92.38454962301421
 20
267.0738177244592
 30
0.0
 11
92.38454962301421
 21
262.0738177244593
 31
0.0
  0
LINE
  5
737
330
1F
100
AcDbEntity
  8
0
100
AcDbLine
 10
100.284549623015
 20
255.6738177244594
 30
0.0
 11
100.284549623015
 21
261.5738177244592
 31
0.0
  0
LINE
  5
738
330
1F
100
AcDbEntity
  8
0
100
AcDbLine
 10
100.2845496230138
 20
262.0738177244593
 30
0.0
 11
100.2845496230138
 21
267.0738177244592
 31
0.0
  0
ARC
  5
739
330
1F
100
AcDbEntity
  8
0
100
AcDbCircle
 10
108.1845496230151
 20
363.9738177244593
 30
0.0
 40
1.0
100
AcDbArc
 50
0.0
 51
90.0
  0
ARC
  5
73A
330
1F
100
AcDbEntity
  8
0
100
AcDbCircle
 10
108.1845496230151
 20
363.9738177244593
 30
0.0
 40
1.0
100
AcDbArc
 50
0.0
 51
90.0
  0
LINE
  5
73B
330
1F
100
AcDbEntity
  8
0
100
AcDbLine
 10
101.184549744933
 20
267.5738175651154
 30
0.0
 11
89.7845497449332
 21
267.5738175651154
 31
0.0
  0
LINE
  5
73C
330
1F
100
AcDbEntity
  8
0
  6
BYBLOCK
 62
     0
100
AcDbLine
 10
82.2846982481119
 20
308.2989530291596
 30
0.0
 11
97.1846239355642
 21
308.2989530291616
 31
0.0
  0
LINE
  5
73D
330
1F
100
AcDbEntity
  8
0
  6
BYBLOCK
 62
     0
100
AcDbLine
 10
97.18462393556604
 20
275.4989494291621
 30
0.0
 11
97.1846239355642
 21
308.2989530291616
 31
0.0
  0
LINE
  5
73E
330
1F
100
AcDbEntity
  8
0
  6
BYBLOCK
 62
     0
100
AcDbLine
 10
82.2846982481119
 20
275.4989494291621
 30
0.0
 11
97.18462393556604
 21
275.4989494291621
 31
0.0
  0
INSERT
  5
73F
330
1F
100
AcDbEntity
  8
0
 62
     0
 48
5.0
100
AcDbBlockReference
  2
A$C5CFD6E8C
 10
98.68455241199502
 20
315.7488159785048
 30
0.0
  0
INSERT
  5
740
330
1F
100
AcDbEntity
  8
0
 62
     0
 48
5.0
100
AcDbBlockReference
  2
A$C5CFD6E8C
 10
98.68455241199502
 20
310.2488159785047
 30
0.0
  0
LINE
  5
741
330
1F
100
AcDbEntity
  8
0
 62
     0
 48
5.0
100
AcDbLine
 10
82.2846982481119
 20
308.2989530291596
 30
0.0
 11
82.2846982481119
 21
275.4989494291621
 31
0.0
  0
LINE
  5
742
330
1F
100
AcDbEntity
  8
0
 62
     0
100
AcDbLine
 10
87.61138831846983
 20
281.1338177244596
 30
0.0
 11
89.22115676587281
 21
281.1338177244596
 31
0.0
  0
LINE
  5
743
330
1F
100
AcDbEntity
  8
0
 62
     0
100
AcDbLine
 10
89.22115676587281
 20
287.4238177244606
 30
0.0
 11
87.61138831846983
 21
287.4238177244606
 31
0.0
  0
LINE
  5
744
330
1F
100
AcDbEntity
  8
0
 62
     0
100
AcDbLine
 10
87.61138831846983
 20
296.3738177244603
 30
0.0
 11
89.22115676587281
 21
296.3738177244603
 31
0.0
  0
LINE
  5
745
330
1F
100
AcDbEntity
  8
0
 62
     0
100
AcDbLine
 10
87.61138831846983
 20
296.3738177244603
 30
0.0
 11
88.08454962301595
 21
296.0038177244602
 31
0.0
  0
LINE
  5
746
330
1F
100
AcDbEntity
  8
0
 62
     0
100
AcDbLine
 10
89.22115676587281
 20
297.5838177244601
 30
0.0
 11
87.61138831846983
 21
297.5838177244601
 31
0.0
  0
LINE
  5
747
330
1F
100
AcDbEntity
  8
0
 62
     0
100
AcDbLine
 10
87.61138831846983
 20
301.4538177244602
 30
0.0
 11
88.08454962301595
 21
301.0838177244603
 31
0.0
  0
LINE
  5
748
330
1F
100
AcDbEntity
  8
0
 62
     0
100
AcDbLine
 10
88.51454962301572
 20
305.5988177244598
 30
0.0
 11
88.08454962301595
 21
305.5988177244598
 31
0.0
  0
LINE
  5
749
330
1F
100
AcDbEntity
  8
0
 62
     0
100
AcDbLine
 10
88.08454962301595
 20
303.0338177244601
 30
0.0
 11
88.08454962301595
 21
305.5988177244598
 31
0.0
  0
LINE
  5
74A
330
1F
100
AcDbEntity
  8
0
 62
     0
100
AcDbLine
 10
96.18454962301576
 20
293.39881772446
 30
0.0
 11
96.18454962301576
 21
292.5988177244598
 31
0.0
  0
LINE
  5
74B
330
1F
100
AcDbEntity
  8
0
 62
     0
100
AcDbLine
 10
96.18454962301576
 20
292.5988177244598
 30
0.0
 11
96.18454962301576
 21
291.1988177244603
 31
0.0
  0
LINE
  5
74C
330
1F
100
AcDbEntity
  8
0
 62
     0
100
AcDbLine
 10
96.18454962301576
 20
283.2388177244602
 30
0.0
 11
96.18454962301576
 21
282.4388177244598
 31
0.0
  0
LINE
  5
74D
330
1F
100
AcDbEntity
  8
0
 62
     0
100
AcDbLine
 10
96.18454962301576
 20
282.4388177244598
 30
0.0
 11
96.18454962301576
 21
281.0388177244604
 31
0.0
  0
LINE
  5
74E
330
1F
100
AcDbEntity
  8
0
 62
     0
100
AcDbLine
 10
96.18454962301576
 20
280.2388177244602
 30
0.0
 11
96.18454962301576
 21
278.1988177244601
 31
0.0
  0
LINE
  5
74F
330
1F
100
AcDbEntity
  8
0
 62
     0
100
AcDbLine
 10
96.18454962301576
 20
281.0388177244604
 30
0.0
 11
96.18454962301576
 21
280.2388177244602
 31
0.0
  0
LINE
  5
750
330
1F
100
AcDbEntity
  8
0
 62
     0
100
AcDbLine
 10
96.18454962301576
 20
287.5188177244599
 30
0.0
 11
96.18454962301576
 21
286.1188177244603
 31
0.0
  0
LINE
  5
751
330
1F
100
AcDbEntity
  8
0
 62
     0
100
AcDbLine
 10
96.18454962301576
 20
288.31881772446
 30
0.0
 11
96.18454962301576
 21
287.5188177244599
 31
0.0
  0
LINE
  5
752
330
1F
100
AcDbEntity
  8
0
 62
     0
100
AcDbLine
 10
96.18454962301576
 20
290.3988177244601
 30
0.0
 11
96.18454962301576
 21
288.31881772446
 31
0.0
  0
LINE
  5
753
330
1F
100
AcDbEntity
  8
0
 62
     0
100
AcDbLine
 10
96.18454962301576
 20
291.1988177244603
 30
0.0
 11
96.18454962301576
 21
290.3988177244601
 31
0.0
  0
LINE
  5
754
330
1F
100
AcDbEntity
  8
0
 62
     0
100
AcDbLine
 10
96.18454962301576
 20
285.3188177244602
 30
0.0
 11
96.18454962301576
 21
283.2388177244602
 31
0.0
  0
LINE
  5
755
330
1F
100
AcDbEntity
  8
0
 62
     0
100
AcDbLine
 10
96.18454962301576
 20
286.1188177244603
 30
0.0
 11
96.18454962301576
 21
285.3188177244602
 31
0.0
  0
LINE
  5
756
330
1F
100
AcDbEntity
  8
0
 62
     0
100
AcDbLine
 10
96.18454962301576
 20
303.5588177244598
 30
0.0
 11
96.18454962301576
 21
302.7588177244596
 31
0.0
  0
LINE
  5
757
330
1F
100
AcDbEntity
  8
0
 62
     0
100
AcDbLine
 10
96.18454962301576
 20
305.5988177244598
 30
0.0
 11
96.18454962301576
 21
303.5588177244598
 31
0.0
  0
LINE
  5
758
330
1F
100
AcDbEntity
  8
0
 62
     0
100
AcDbLine
 10
96.18454962301576
 20
298.4788177244599
 30
0.0
 11
96.18454962301576
 21
297.6788177244596
 31
0.0
  0
LINE
  5
759
330
1F
100
AcDbEntity
  8
0
 62
     0
100
AcDbLine
 10
96.18454962301576
 20
302.7588177244596
 30
0.0
 11
96.18454962301576
 21
301.3588177244601
 31
0.0
  0
LINE
  5
75A
330
1F
100
AcDbEntity
  8
0
 62
     0
100
AcDbLine
 10
96.18454962301576
 20
300.5588177244598
 30
0.0
 11
96.18454962301576
 21
298.4788177244599
 31
0.0
  0
LINE
  5
75B
330
1F
100
AcDbEntity
  8
0
 62
     0
100
AcDbLine
 10
96.18454962301576
 20
301.3588177244601
 30
0.0
 11
96.18454962301576
 21
300.5588177244598
 31
0.0
  0
LINE
  5
75C
330
1F
100
AcDbEntity
  8
0
 62
     0
100
AcDbLine
 10
96.18454962301576
 20
297.6788177244596
 30
0.0
 11
96.18454962301576
 21
296.2788177244601
 31
0.0
  0
LINE
  5
75D
330
1F
100
AcDbEntity
  8
0
 62
     0
100
AcDbLine
 10
96.18454962301576
 20
295.47881772446
 30
0.0
 11
96.18454962301576
 21
293.39881772446
 31
0.0
  0
LINE
  5
75E
330
1F
100
AcDbEntity
  8
0
 62
     0
100
AcDbLine
 10
96.18454962301576
 20
296.2788177244601
 30
0.0
 11
96.18454962301576
 21
295.47881772446
 31
0.0
  0
LINE
  5
75F
330
1F
100
AcDbEntity
  8
0
 62
     0
100
AcDbLine
 10
94.51454962301573
 20
299.0184255298972
 30
0.0
 11
94.51454962301573
 21
300.0192099190235
 31
0.0
  0
LINE
  5
760
330
1F
100
AcDbEntity
  8
0
 62
     0
100
AcDbLine
 10
94.81454962301596
 20
299.1328836473138
 30
0.0
 11
94.81454962301596
 21
299.9047518016066
 31
0.0
  0
LINE
  5
761
330
1F
100
AcDbEntity
  8
0
 62
     0
100
AcDbLine
 10
88.90954962301576
 20
280.7638177244598
 30
0.0
 11
88.08454962301595
 21
280.7638177244598
 31
0.0
  0
LINE
  5
762
330
1F
100
AcDbEntity
  8
0
 62
     0
100
AcDbLine
 10
88.08454962301595
 20
287.7938177244605
 30
0.0
 11
88.90954962301576
 21
287.7938177244605
 31
0.0
  0
LINE
  5
763
330
1F
100
AcDbEntity
  8
0
 62
     0
100
AcDbLine
 10
88.08454962301595
 20
296.0038177244602
 30
0.0
 11
88.90954962301576
 21
296.0038177244602
 31
0.0
  0
LINE
  5
764
330
1F
100
AcDbEntity
  8
0
 62
     0
100
AcDbLine
 10
88.08454962301595
 20
297.9538177244601
 30
0.0
 11
88.90954962301576
 21
297.9538177244601
 31
0.0
  0
LINE
  5
765
330
1F
100
AcDbEntity
  8
0
 62
     0
100
AcDbLine
 10
88.08454962301595
 20
287.7938177244605
 30
0.0
 11
88.08454962301595
 21
290.9238177244606
 31
0.0
  0
LINE
  5
766
330
1F
100
AcDbEntity
  8
0
 62
     0
100
AcDbLine
 10
89.22115676587281
 20
291.2548065436785
 30
0.0
 11
88.90954962301576
 21
290.9238177244606
 31
0.0
  0
LINE
  5
767
330
1F
100
AcDbEntity
  8
0
 62
     0
100
AcDbLine
 10
88.08454962301595
 20
290.9238177244606
 30
0.0
 11
88.90954962301576
 21
290.9238177244606
 31
0.0
  0
LINE
  5
768
330
1F
100
AcDbEntity
  8
0
 62
     0
100
AcDbLine
 10
88.08454962301595
 20
282.7138177244606
 30
0.0
 11
88.08454962301595
 21
285.8438177244597
 31
0.0
  0
LINE
  5
769
330
1F
100
AcDbEntity
  8
0
 62
     0
100
AcDbLine
 10
88.08454962301595
 20
285.8438177244597
 30
0.0
 11
88.90954962301576
 21
285.8438177244597
 31
0.0
  0
LINE
  5
76A
330
1F
100
AcDbEntity
  8
0
 62
     0
100
AcDbLine
 10
88.08454962301595
 20
282.7138177244606
 30
0.0
 11
88.90954962301576
 21
282.7138177244606
 31
0.0
  0
LINE
  5
76B
330
1F
100
AcDbEntity
  8
0
 62
     0
100
AcDbLine
 10
89.22115676587281
 20
296.3348065436785
 30
0.0
 11
88.90954962301576
 21
296.0038177244602
 31
0.0
  0
LINE
  5
76C
330
1F
100
AcDbEntity
  8
0
 62
     0
100
AcDbLine
 10
89.22115676587281
 20
281.0948065436777
 30
0.0
 11
88.90954962301576
 21
280.7638177244598
 31
0.0
  0
LINE
  5
76D
330
1F
100
AcDbEntity
  8
0
 62
     0
100
AcDbLine
 10
88.90954962301576
 20
287.7938177244605
 30
0.0
 11
89.22115676587281
 21
287.4628289052423
 31
0.0
  0
LINE
  5
76E
330
1F
100
AcDbEntity
  8
0
 62
     0
100
AcDbLine
 10
88.90954962301576
 20
280.7638177244598
 30
0.0
 11
88.90954962301576
 21
279.1988177244602
 31
0.0
  0
LINE
  5
76F
330
1F
100
AcDbEntity
  8
0
 62
     0
100
AcDbLine
 10
94.51454962301573
 20
279.1988177244602
 30
0.0
 11
94.81454962301596
 21
279.1988177244602
 31
0.0
  0
LINE
  5
770
330
1F
100
AcDbEntity
  8
0
 62
     0
100
AcDbLine
 10
92.08249881544771
 20
296.7467669168907
 30
0.0
 11
92.54660043058548
 21
296.7467669168907
 31
0.0
  0
LINE
  5
771
330
1F
100
AcDbEntity
  8
0
 62
     0
100
AcDbLine
 10
91.81454962301632
 20
296.4788177244598
 30
0.0
 11
92.08249881544771
 21
296.7467669168907
 31
0.0
  0
LINE
  5
772
330
1F
100
AcDbEntity
  8
0
 62
     0
100
AcDbLine
 10
92.81454962301598
 20
296.4788177244598
 30
0.0
 11
91.81454962301632
 21
296.4788177244598
 31
0.0
  0
LINE
  5
773
330
1F
100
AcDbEntity
  8
0
 62
     0
100
AcDbLine
 10
92.54660043058548
 20
296.7467669168907
 30
0.0
 11
92.81454962301598
 21
296.4788177244598
 31
0.0
  0
LINE
  5
774
330
1F
100
AcDbEntity
  8
0
 62
     0
100
AcDbLine
 10
92.81454962301632
 20
297.47881772446
 30
0.0
 11
92.81454962301598
 21
296.4788177244598
 31
0.0
  0
LINE
  5
775
330
1F
100
AcDbEntity
  8
0
 62
     0
100
AcDbLine
 10
91.81454962301632
 20
296.4788177244598
 30
0.0
 11
91.81454962301632
 21
297.47881772446
 31
0.0
  0
LINE
  5
776
330
1F
100
AcDbEntity
  8
0
 62
     0
100
AcDbLine
 10
91.81454962301632
 20
297.47881772446
 30
0.0
 11
92.81454962301632
 21
297.47881772446
 31
0.0
  0
LINE
  5
777
330
1F
100
AcDbEntity
  8
0
 62
     0
100
AcDbLine
 10
92.08249881544771
 20
297.2108685320288
 30
0.0
 11
91.81454962301632
 21
297.47881772446
 31
0.0
  0
LINE
  5
778
330
1F
100
AcDbEntity
  8
0
 62
     0
100
AcDbLine
 10
92.08249881544771
 20
297.2108685320288
 30
0.0
 11
92.08249881544771
 21
296.7467669168907
 31
0.0
  0
LINE
  5
779
330
1F
100
AcDbEntity
  8
0
 62
     0
100
AcDbLine
 10
92.54660043058548
 20
296.7467669168907
 30
0.0
 11
92.54660043058548
 21
297.2108685320288
 31
0.0
  0
LINE
  5
77A
330
1F
100
AcDbEntity
  8
0
 62
     0
100
AcDbLine
 10
92.08249881544771
 20
297.2108685320288
 30
0.0
 11
92.54660043058548
 21
297.2108685320288
 31
0.0
  0
LINE
  5
77B
330
1F
100
AcDbEntity
  8
0
 62
     0
100
AcDbLine
 10
92.54660043058548
 20
297.2108685320288
 30
0.0
 11
92.81454962301632
 21
297.47881772446
 31
0.0
  0
LINE
  5
77C
330
1F
100
AcDbEntity
  8
0
 62
     0
100
AcDbLine
 10
93.06454962301598
 20
289.559779618783
 30
0.0
 11
93.06454962301598
 21
289.1578558301371
 31
0.0
  0
LINE
  5
77D
330
1F
100
AcDbEntity
  8
0
 62
     0
100
AcDbLine
 10
93.06454962301598
 20
289.1578558301371
 30
0.0
 11
92.31454962301596
 21
289.3588177244598
 31
0.0
  0
LINE
  5
77E
330
1F
100
AcDbEntity
  8
0
 62
     0
100
AcDbLine
 10
92.31454962301596
 20
289.3588177244598
 30
0.0
 11
93.06454962301598
 21
289.559779618783
 31
0.0
  0
LINE
  5
77F
330
1F
100
AcDbEntity
  8
0
 62
     0
100
AcDbLine
 10
93.06454962301598
 20
294.6397796187838
 30
0.0
 11
93.06454962301598
 21
294.2378558301371
 31
0.0
  0
LINE
  5
780
330
1F
100
AcDbEntity
  8
0
 62
     0
100
AcDbLine
 10
93.06454962301598
 20
294.2378558301371
 30
0.0
 11
92.31454962301596
 21
294.4388177244598
 31
0.0
  0
LINE
  5
781
330
1F
100
AcDbEntity
  8
0
 62
     0
100
AcDbLine
 10
92.31454962301596
 20
294.4388177244598
 30
0.0
 11
93.06454962301598
 21
294.6397796187838
 31
0.0
  0
LINE
  5
782
330
1F
100
AcDbEntity
  8
0
 62
     0
100
AcDbLine
 10
89.22115676587281
 20
279.1988177244602
 30
0.0
 11
89.22115676587281
 21
281.0948065436777
 31
0.0
  0
LINE
  5
783
330
1F
100
AcDbEntity
  8
0
 62
     0
100
AcDbLine
 10
89.22115676587281
 20
279.1988177244602
 30
0.0
 11
94.51454962301573
 21
279.1988177244602
 31
0.0
  0
LINE
  5
784
330
1F
100
AcDbEntity
  8
0
 62
     0
100
AcDbLine
 10
88.90954962301576
 20
279.1988177244602
 30
0.0
 11
89.22115676587281
 21
279.1988177244602
 31
0.0
  0
LINE
  5
785
330
1F
100
AcDbEntity
  8
0
 62
     0
100
AcDbLine
 10
89.22115676587281
 20
287.4628289052423
 30
0.0
 11
89.22115676587281
 21
287.4238177244606
 31
0.0
  0
LINE
  5
786
330
1F
100
AcDbEntity
  8
0
 62
     0
100
AcDbLine
 10
89.22115676587281
 20
287.4238177244606
 30
0.0
 11
89.22115676587281
 21
286.2138177244606
 31
0.0
  0
LINE
  5
787
330
1F
100
AcDbEntity
  8
0
 62
     0
100
AcDbLine
 10
89.22115676587281
 20
282.3828289052423
 30
0.0
 11
89.22115676587281
 21
286.1748065436776
 31
0.0
  0
LINE
  5
788
330
1F
100
AcDbEntity
  8
0
 62
     0
100
AcDbLine
 10
89.22115676587281
 20
286.2138177244606
 30
0.0
 11
89.22115676587281
 21
286.1748065436776
 31
0.0
  0
LINE
  5
789
330
1F
100
AcDbEntity
  8
0
 62
     0
100
AcDbLine
 10
89.22115676587281
 20
282.3828289052423
 30
0.0
 11
89.22115676587281
 21
282.3438177244597
 31
0.0
  0
LINE
  5
78A
330
1F
100
AcDbEntity
  8
0
 62
     0
100
AcDbLine
 10
89.22115676587281
 20
282.3438177244597
 30
0.0
 11
89.22115676587281
 21
281.1338177244596
 31
0.0
  0
LINE
  5
78B
330
1F
100
AcDbEntity
  8
0
 62
     0
100
AcDbLine
 10
89.22115676587281
 20
281.1338177244596
 30
0.0
 11
89.22115676587281
 21
281.0948065436777
 31
0.0
  0
LINE
  5
78C
330
1F
100
AcDbEntity
  8
0
 62
     0
100
AcDbLine
 10
93.06454962301598
 20
284.4797796187831
 30
0.0
 11
93.06454962301598
 21
284.0778558301371
 31
0.0
  0
LINE
  5
78D
330
1F
100
AcDbEntity
  8
0
 62
     0
100
AcDbLine
 10
93.06454962301598
 20
284.0778558301371
 30
0.0
 11
92.31454962301596
 21
284.2788177244601
 31
0.0
  0
LINE
  5
78E
330
1F
100
AcDbEntity
  8
0
 62
     0
100
AcDbLine
 10
92.31454962301596
 20
284.2788177244601
 30
0.0
 11
93.06454962301598
 21
284.4797796187831
 31
0.0
  0
LINE
  5
78F
330
1F
100
AcDbEntity
  8
0
 62
     0
100
AcDbLine
 10
92.81454962301632
 20
281.2388177244601
 30
0.0
 11
92.81454962301632
 21
282.2388177244602
 31
0.0
  0
LINE
  5
790
330
1F
100
AcDbEntity
  8
0
 62
     0
100
AcDbLine
 10
92.54660043058548
 20
281.5067669168911
 30
0.0
 11
92.81454962301632
 21
281.2388177244601
 31
0.0
  0
LINE
  5
791
330
1F
100
AcDbEntity
  8
0
 62
     0
100
AcDbLine
 10
92.54660043058548
 20
281.9708685320292
 30
0.0
 11
92.81454962301632
 21
282.2388177244602
 31
0.0
  0
LINE
  5
792
330
1F
100
AcDbEntity
  8
0
 62
     0
100
AcDbLine
 10
92.54660043058548
 20
281.9708685320292
 30
0.0
 11
92.54660043058548
 21
281.5067669168911
 31
0.0
  0
LINE
  5
793
330
1F
100
AcDbEntity
  8
0
 62
     0
100
AcDbLine
 10
91.81454962301632
 20
282.2388177244602
 30
0.0
 11
92.81454962301632
 21
282.2388177244602
 31
0.0
  0
LINE
  5
794
330
1F
100
AcDbEntity
  8
0
 62
     0
100
AcDbLine
 10
92.54660043058548
 20
281.5067669168911
 30
0.0
 11
92.08249881544771
 21
281.5067669168911
 31
0.0
  0
LINE
  5
795
330
1F
100
AcDbEntity
  8
0
 62
     0
100
AcDbLine
 10
91.81454962301632
 20
281.2388177244601
 30
0.0
 11
91.81454962301632
 21
282.2388177244602
 31
0.0
  0
LINE
  5
796
330
1F
100
AcDbEntity
  8
0
 62
     0
100
AcDbLine
 10
91.81454962301632
 20
281.2388177244601
 30
0.0
 11
92.08249881544771
 21
281.5067669168911
 31
0.0
  0
LINE
  5
797
330
1F
100
AcDbEntity
  8
0
 62
     0
100
AcDbLine
 10
92.08249881544771
 20
281.9708685320292
 30
0.0
 11
92.08249881544771
 21
281.5067669168911
 31
0.0
  0
LINE
  5
798
330
1F
100
AcDbEntity
  8
0
 62
     0
100
AcDbLine
 10
92.08249881544771
 20
281.9708685320292
 30
0.0
 11
91.81454962301632
 21
282.2388177244602
 31
0.0
  0
LINE
  5
799
330
1F
100
AcDbEntity
  8
0
 62
     0
100
AcDbLine
 10
92.08249881544771
 20
281.9708685320292
 30
0.0
 11
92.54660043058548
 21
281.9708685320292
 31
0.0
  0
LINE
  5
79A
330
1F
100
AcDbEntity
  8
0
 62
     0
100
AcDbLine
 10
92.81454962301632
 20
281.2388177244601
 30
0.0
 11
91.81454962301632
 21
281.2388177244601
 31
0.0
  0
LINE
  5
79B
330
1F
100
AcDbEntity
  8
0
 62
     0
100
AcDbLine
 10
91.10211405771769
 20
281.0388177244604
 30
0.0
 11
93.52698518831415
 21
281.0388177244604
 31
0.0
  0
LINE
  5
79C
330
1F
100
AcDbEntity
  8
0
 62
     0
100
AcDbLine
 10
91.81454962301632
 20
291.3988177244601
 30
0.0
 11
92.81454962301632
 21
291.3988177244601
 31
0.0
  0
LINE
  5
79D
330
1F
100
AcDbEntity
  8
0
 62
     0
100
AcDbLine
 10
91.81454962301632
 20
292.3988177244601
 30
0.0
 11
92.81454962301632
 21
292.3988177244601
 31
0.0
  0
LINE
  5
79E
330
1F
100
AcDbEntity
  8
0
 62
     0
100
AcDbLine
 10
91.81454962301632
 20
291.3988177244601
 30
0.0
 11
91.81454962301632
 21
292.3988177244601
 31
0.0
  0
LINE
  5
79F
330
1F
100
AcDbEntity
  8
0
 62
     0
100
AcDbLine
 10
92.81454962301632
 20
292.3988177244601
 30
0.0
 11
92.81454962301632
 21
291.3988177244601
 31
0.0
  0
LINE
  5
7A0
330
1F
100
AcDbEntity
  8
0
 62
     0
100
AcDbLine
 10
92.08249881544771
 20
291.6667669168908
 30
0.0
 11
92.54660043058548
 21
291.6667669168908
 31
0.0
  0
LINE
  5
7A1
330
1F
100
AcDbEntity
  8
0
 62
     0
100
AcDbLine
 10
92.08249881544771
 20
292.1308685320291
 30
0.0
 11
92.08249881544771
 21
291.6667669168908
 31
0.0
  0
LINE
  5
7A2
330
1F
100
AcDbEntity
  8
0
 62
     0
100
AcDbLine
 10
92.08249881544771
 20
292.1308685320291
 30
0.0
 11
91.81454962301632
 21
292.3988177244601
 31
0.0
  0
LINE
  5
7A3
330
1F
100
AcDbEntity
  8
0
 62
     0
100
AcDbLine
 10
92.54660043058548
 20
291.6667669168908
 30
0.0
 11
92.54660043058548
 21
292.1308685320291
 31
0.0
  0
LINE
  5
7A4
330
1F
100
AcDbEntity
  8
0
 62
     0
100
AcDbLine
 10
92.08249881544771
 20
292.1308685320291
 30
0.0
 11
92.54660043058548
 21
292.1308685320291
 31
0.0
  0
LINE
  5
7A5
330
1F
100
AcDbEntity
  8
0
 62
     0
100
AcDbLine
 10
92.54660043058548
 20
291.6667669168908
 30
0.0
 11
92.81454962301632
 21
291.3988177244601
 31
0.0
  0
LINE
  5
7A6
330
1F
100
AcDbEntity
  8
0
 62
     0
100
AcDbLine
 10
91.81454962301632
 20
291.3988177244601
 30
0.0
 11
92.08249881544771
 21
291.6667669168908
 31
0.0
  0
LINE
  5
7A7
330
1F
100
AcDbEntity
  8
0
 62
     0
100
AcDbLine
 10
92.54660043058548
 20
292.1308685320291
 30
0.0
 11
92.81454962301632
 21
292.3988177244601
 31
0.0
  0
LINE
  5
7A8
330
1F
100
AcDbEntity
  8
0
 62
     0
100
AcDbLine
 10
94.81454962301596
 20
279.584751801606
 30
0.0
 11
94.81454962301596
 21
279.1988177244602
 31
0.0
  0
LINE
  5
7A9
330
1F
100
AcDbEntity
  8
0
 62
     0
100
AcDbLine
 10
94.81454962301596
 20
283.8928836473142
 30
0.0
 11
94.81454962301596
 21
284.6647518016071
 31
0.0
  0
LINE
  5
7AA
330
1F
100
AcDbEntity
  8
0
 62
     0
100
AcDbLine
 10
94.81454962301596
 20
288.9728836473141
 30
0.0
 11
94.81454962301596
 21
289.744751801607
 31
0.0
  0
LINE
  5
7AB
330
1F
100
AcDbEntity
  8
0
 62
     0
100
AcDbLine
 10
94.51454962301573
 20
293.9384255298973
 30
0.0
 11
94.51454962301573
 21
294.9392099190236
 31
0.0
  0
LINE
  5
7AC
330
1F
100
AcDbEntity
  8
0
 62
     0
100
AcDbLine
 10
94.81454962301596
 20
294.0528836473141
 30
0.0
 11
94.81454962301596
 21
294.8247518016068
 31
0.0
  0
LINE
  5
7AD
330
1F
100
AcDbEntity
  8
0
 62
     0
100
AcDbLine
 10
94.51454962301573
 20
288.8584255298973
 30
0.0
 11
94.51454962301573
 21
289.8592099190237
 31
0.0
  0
LINE
  5
7AE
330
1F
100
AcDbEntity
  8
0
 62
     0
100
AcDbLine
 10
94.51454962301573
 20
283.7784255298974
 30
0.0
 11
94.51454962301573
 21
284.7792099190236
 31
0.0
  0
LINE
  5
7AF
330
1F
100
AcDbEntity
  8
0
 62
     0
100
AcDbLine
 10
94.51454962301573
 20
279.1988177244602
 30
0.0
 11
94.51454962301573
 21
279.6992099190229
 31
0.0
  0
LINE
  5
7B0
330
1F
100
AcDbEntity
  8
0
 62
     0
100
AcDbLine
 10
91.81454962301632
 20
286.31881772446
 30
0.0
 11
91.81454962301632
 21
287.3188177244601
 31
0.0
  0
LINE
  5
7B1
330
1F
100
AcDbEntity
  8
0
 62
     0
100
AcDbLine
 10
92.81454962301632
 20
287.3188177244601
 30
0.0
 11
92.81454962301598
 21
286.31881772446
 31
0.0
  0
LINE
  5
7B2
330
1F
100
AcDbEntity
  8
0
 62
     0
100
AcDbLine
 10
92.54660043058548
 20
286.586766916891
 30
0.0
 11
92.81454962301598
 21
286.31881772446
 31
0.0
  0
LINE
  5
7B3
330
1F
100
AcDbEntity
  8
0
 62
     0
100
AcDbLine
 10
92.81454962301598
 20
286.31881772446
 30
0.0
 11
91.81454962301632
 21
286.31881772446
 31
0.0
  0
LINE
  5
7B4
330
1F
100
AcDbEntity
  8
0
 62
     0
100
AcDbLine
 10
91.81454962301632
 20
286.31881772446
 30
0.0
 11
92.08249881544771
 21
286.586766916891
 31
0.0
  0
LINE
  5
7B5
330
1F
100
AcDbEntity
  8
0
 62
     0
100
AcDbLine
 10
92.54660043058548
 20
287.0508685320292
 30
0.0
 11
92.54660043058548
 21
286.586766916891
 31
0.0
  0
LINE
  5
7B6
330
1F
100
AcDbEntity
  8
0
 62
     0
100
AcDbLine
 10
92.08249881544771
 20
286.586766916891
 30
0.0
 11
92.54660043058548
 21
286.586766916891
 31
0.0
  0
LINE
  5
7B7
330
1F
100
AcDbEntity
  8
0
 62
     0
100
AcDbLine
 10
92.08249881544771
 20
287.0508685320292
 30
0.0
 11
92.08249881544771
 21
286.586766916891
 31
0.0
  0
LINE
  5
7B8
330
1F
100
AcDbEntity
  8
0
 62
     0
100
AcDbLine
 10
92.08249881544771
 20
287.0508685320292
 30
0.0
 11
92.54660043058548
 21
287.0508685320292
 31
0.0
  0
LINE
  5
7B9
330
1F
100
AcDbEntity
  8
0
 62
     0
100
AcDbLine
 10
92.08249881544771
 20
287.0508685320292
 30
0.0
 11
91.81454962301632
 21
287.3188177244601
 31
0.0
  0
LINE
  5
7BA
330
1F
100
AcDbEntity
  8
0
 62
     0
100
AcDbLine
 10
91.81454962301632
 20
287.3188177244601
 30
0.0
 11
92.81454962301632
 21
287.3188177244601
 31
0.0
  0
LINE
  5
7BB
330
1F
100
AcDbEntity
  8
0
 62
     0
100
AcDbLine
 10
92.54660043058548
 20
287.0508685320292
 30
0.0
 11
92.81454962301632
 21
287.3188177244601
 31
0.0
  0
LINE
  5
7BC
330
1F
100
AcDbEntity
  8
0
 62
     0
100
AcDbLine
 10
89.22115676587281
 20
297.5838177244601
 30
0.0
 11
89.22115676587281
 21
297.6228289052424
 31
0.0
  0
LINE
  5
7BD
330
1F
100
AcDbEntity
  8
0
 62
     0
100
AcDbLine
 10
89.22115676587281
 20
296.3738177244603
 30
0.0
 11
89.22115676587281
 21
297.5838177244601
 31
0.0
  0
LINE
  5
7BE
330
1F
100
AcDbEntity
  8
0
 62
     0
100
AcDbLine
 10
89.22115676587281
 20
296.3348065436785
 30
0.0
 11
89.22115676587281
 21
296.3738177244603
 31
0.0
  0
LINE
  5
7BF
330
1F
100
AcDbEntity
  8
0
 62
     0
100
AcDbLine
 10
89.22115676587281
 20
287.4628289052423
 30
0.0
 11
89.22115676587281
 21
291.2548065436785
 31
0.0
  0
LINE
  5
7C0
330
1F
100
AcDbEntity
  8
0
 62
     0
100
AcDbLine
 10
89.22115676587281
 20
291.2938177244601
 30
0.0
 11
89.22115676587281
 21
291.2548065436785
 31
0.0
  0
LINE
  5
7C1
330
1F
100
AcDbEntity
  8
0
 62
     0
100
AcDbLine
 10
89.22115676587281
 20
292.5038177244605
 30
0.0
 11
89.22115676587281
 21
291.2938177244601
 31
0.0
  0
LINE
  5
7C2
330
1F
100
AcDbEntity
  8
0
 62
     0
100
AcDbLine
 10
89.22115676587281
 20
292.5428289052425
 30
0.0
 11
89.22115676587281
 21
296.3348065436785
 31
0.0
  0
LINE
  5
7C3
330
1F
100
AcDbEntity
  8
0
 62
     0
100
AcDbLine
 10
89.22115676587281
 20
292.5038177244605
 30
0.0
 11
89.22115676587281
 21
292.5428289052425
 31
0.0
  0
LINE
  5
7C4
330
1F
100
AcDbEntity
  8
0
 62
     0
100
AcDbLine
 10
88.90954962301576
 20
282.7138177244606
 30
0.0
 11
88.90954962301576
 21
285.8438177244597
 31
0.0
  0
LINE
  5
7C5
330
1F
100
AcDbEntity
  8
0
 62
     0
100
AcDbLine
 10
88.90954962301576
 20
287.7938177244605
 30
0.0
 11
88.90954962301576
 21
290.9238177244606
 31
0.0
  0
LINE
  5
7C6
330
1F
100
AcDbEntity
  8
0
 62
     0
100
AcDbLine
 10
88.90954962301576
 20
292.8738177244603
 30
0.0
 11
88.90954962301576
 21
296.0038177244602
 31
0.0
  0
LINE
  5
7C7
330
1F
100
AcDbEntity
  8
0
 62
     0
100
AcDbLine
 10
88.90954962301576
 20
297.9538177244601
 30
0.0
 11
89.22115676587281
 21
297.6228289052424
 31
0.0
  0
LINE
  5
7C8
330
1F
100
AcDbEntity
  8
0
 62
     0
100
AcDbLine
 10
89.22115676587281
 20
286.1748065436776
 30
0.0
 11
88.90954962301576
 21
285.8438177244597
 31
0.0
  0
LINE
  5
7C9
330
1F
100
AcDbEntity
  8
0
 62
     0
100
AcDbLine
 10
88.90954962301576
 20
282.7138177244606
 30
0.0
 11
89.22115676587281
 21
282.3828289052423
 31
0.0
  0
LINE
  5
7CA
330
1F
100
AcDbEntity
  8
0
 62
     0
100
AcDbLine
 10
88.90954962301576
 20
292.8738177244603
 30
0.0
 11
89.22115676587281
 21
292.5428289052425
 31
0.0
  0
LINE
  5
7CB
330
1F
100
AcDbEntity
  8
0
 62
     0
100
AcDbLine
 10
88.08454962301595
 20
292.8738177244603
 30
0.0
 11
88.90954962301576
 21
292.8738177244603
 31
0.0
  0
LINE
  5
7CC
330
1F
100
AcDbEntity
  8
0
 62
     0
100
AcDbLine
 10
88.08454962301595
 20
292.8738177244603
 30
0.0
 11
88.08454962301595
 21
296.0038177244602
 31
0.0
  0
LINE
  5
7CD
330
1F
100
AcDbEntity
  8
0
 62
     0
100
AcDbLine
 10
89.22115676587281
 20
302.7028289052422
 30
0.0
 11
89.22115676587281
 21
304.5988177244598
 31
0.0
  0
LINE
  5
7CE
330
1F
100
AcDbEntity
  8
0
 62
     0
100
AcDbLine
 10
93.06454962301598
 20
299.7197796187835
 30
0.0
 11
93.06454962301598
 21
299.3178558301368
 31
0.0
  0
LINE
  5
7CF
330
1F
100
AcDbEntity
  8
0
 62
     0
100
AcDbLine
 10
93.06454962301598
 20
299.3178558301368
 30
0.0
 11
92.31454962301596
 21
299.51881772446
 31
0.0
  0
LINE
  5
7D0
330
1F
100
AcDbEntity
  8
0
 62
     0
100
AcDbLine
 10
92.31454962301596
 20
299.51881772446
 30
0.0
 11
93.06454962301598
 21
299.7197796187835
 31
0.0
  0
LINE
  5
7D1
330
1F
100
AcDbEntity
  8
0
 62
     0
100
AcDbLine
 10
88.08454962301595
 20
297.9538177244601
 30
0.0
 11
88.08454962301595
 21
301.0838177244603
 31
0.0
  0
LINE
  5
7D2
330
1F
100
AcDbEntity
  8
0
 62
     0
100
AcDbLine
 10
89.22115676587281
 20
301.4148065436783
 30
0.0
 11
89.22115676587281
 21
301.4538177244602
 31
0.0
  0
LINE
  5
7D3
330
1F
100
AcDbEntity
  8
0
 62
     0
100
AcDbLine
 10
89.22115676587281
 20
297.6228289052424
 30
0.0
 11
89.22115676587281
 21
301.4148065436783
 31
0.0
  0
LINE
  5
7D4
330
1F
100
AcDbEntity
  8
0
 62
     0
100
AcDbLine
 10
88.90954962301576
 20
297.9538177244601
 30
0.0
 11
88.90954962301576
 21
301.0838177244603
 31
0.0
  0
LINE
  5
7D5
330
1F
100
AcDbEntity
  8
0
 62
     0
100
AcDbLine
 10
89.22115676587281
 20
304.5988177244598
 30
0.0
 11
88.90954962301576
 21
304.5988177244598
 31
0.0
  0
LINE
  5
7D6
330
1F
100
AcDbEntity
  8
0
 62
     0
100
AcDbLine
 10
88.90954962301576
 20
304.5988177244598
 30
0.0
 11
88.90954962301576
 21
303.0338177244601
 31
0.0
  0
LINE
  5
7D7
330
1F
100
AcDbEntity
  8
0
 62
     0
100
AcDbLine
 10
88.08454962301595
 20
303.0338177244601
 30
0.0
 11
88.90954962301576
 21
303.0338177244601
 31
0.0
  0
LINE
  5
7D8
330
1F
100
AcDbEntity
  8
0
 62
     0
100
AcDbLine
 10
94.81454962301596
 20
304.5988177244598
 30
0.0
 11
94.81454962301596
 21
304.2128836473139
 31
0.0
  0
LINE
  5
7D9
330
1F
100
AcDbEntity
  8
0
 62
     0
100
AcDbLine
 10
94.51454962301573
 20
304.0984255298972
 30
0.0
 11
94.51454962301573
 21
304.5988177244598
 31
0.0
  0
LINE
  5
7DA
330
1F
100
AcDbEntity
  8
0
 62
     0
100
AcDbLine
 10
94.51454962301573
 20
304.5988177244598
 30
0.0
 11
89.22115676587281
 21
304.5988177244598
 31
0.0
  0
LINE
  5
7DB
330
1F
100
AcDbEntity
  8
0
 62
     0
100
AcDbLine
 10
94.81454962301596
 20
304.5988177244598
 30
0.0
 11
94.51454962301573
 21
304.5988177244598
 31
0.0
  0
LINE
  5
7DC
330
1F
100
AcDbEntity
  8
0
 62
     0
100
AcDbLine
 10
92.81454962301678
 20
302.5588177244598
 30
0.0
 11
92.54660043058548
 21
302.290868532029
 31
0.0
  0
LINE
  5
7DD
330
1F
100
AcDbEntity
  8
0
 62
     0
100
AcDbLine
 10
92.81454962301632
 20
301.5588177244598
 30
0.0
 11
92.81454962301678
 21
302.5588177244598
 31
0.0
  0
LINE
  5
7DE
330
1F
100
AcDbEntity
  8
0
 62
     0
100
AcDbLine
 10
92.54660043058548
 20
301.8267669168908
 30
0.0
 11
92.81454962301632
 21
301.5588177244598
 31
0.0
  0
LINE
  5
7DF
330
1F
100
AcDbEntity
  8
0
 62
     0
100
AcDbLine
 10
92.54660043058548
 20
301.8267669168908
 30
0.0
 11
92.54660043058548
 21
302.290868532029
 31
0.0
  0
LINE
  5
7E0
330
1F
100
AcDbEntity
  8
0
 62
     0
100
AcDbLine
 10
91.81454962301677
 20
302.5588177244598
 30
0.0
 11
92.81454962301678
 21
302.5588177244598
 31
0.0
  0
LINE
  5
7E1
330
1F
100
AcDbEntity
  8
0
 62
     0
100
AcDbLine
 10
91.81454962301632
 20
301.5588177244598
 30
0.0
 11
92.08249881544771
 21
301.8267669168908
 31
0.0
  0
LINE
  5
7E2
330
1F
100
AcDbEntity
  8
0
 62
     0
100
AcDbLine
 10
91.81454962301677
 20
302.5588177244598
 30
0.0
 11
91.81454962301632
 21
301.5588177244598
 31
0.0
  0
LINE
  5
7E3
330
1F
100
AcDbEntity
  8
0
 62
     0
100
AcDbLine
 10
91.81454962301677
 20
302.5588177244598
 30
0.0
 11
92.08249881544771
 21
302.290868532029
 31
0.0
  0
LINE
  5
7E4
330
1F
100
AcDbEntity
  8
0
 62
     0
100
AcDbLine
 10
92.08249881544771
 20
301.8267669168908
 30
0.0
 11
92.54660043058548
 21
301.8267669168908
 31
0.0
  0
LINE
  5
7E5
330
1F
100
AcDbEntity
  8
0
 62
     0
100
AcDbLine
 10
92.08249881544771
 20
302.290868532029
 30
0.0
 11
92.08249881544771
 21
301.8267669168908
 31
0.0
  0
LINE
  5
7E6
330
1F
100
AcDbEntity
  8
0
 62
     0
100
AcDbLine
 10
92.08249881544771
 20
302.290868532029
 30
0.0
 11
92.54660043058548
 21
302.290868532029
 31
0.0
  0
LINE
  5
7E7
330
1F
100
AcDbEntity
  8
0
 62
     0
100
AcDbLine
 10
91.81454962301632
 20
301.5588177244598
 30
0.0
 11
92.81454962301632
 21
301.5588177244598
 31
0.0
  0
LINE
  5
7E8
330
1F
100
AcDbEntity
  8
0
 62
     0
100
AcDbLine
 10
88.08454962301595
 20
301.0838177244603
 30
0.0
 11
88.90954962301576
 21
301.0838177244603
 31
0.0
  0
LINE
  5
7E9
330
1F
100
AcDbEntity
  8
0
 62
     0
100
AcDbLine
 10
89.22115676587281
 20
301.4148065436783
 30
0.0
 11
88.90954962301576
 21
301.0838177244603
 31
0.0
  0
LINE
  5
7EA
330
1F
100
AcDbEntity
  8
0
 62
     0
100
AcDbLine
 10
88.90954962301576
 20
303.0338177244601
 30
0.0
 11
89.22115676587281
 21
302.7028289052422
 31
0.0
  0
LINE
  5
7EB
330
1F
100
AcDbEntity
  8
0
 62
     0
100
AcDbLine
 10
89.22115676587281
 20
302.6638177244604
 30
0.0
 11
89.22115676587281
 21
302.7028289052422
 31
0.0
  0
LINE
  5
7EC
330
1F
100
AcDbEntity
  8
0
 62
     0
100
AcDbLine
 10
89.22115676587281
 20
301.4538177244602
 30
0.0
 11
89.22115676587281
 21
302.6638177244604
 31
0.0
  0
LINE
  5
7ED
330
1F
100
AcDbEntity
  8
0
 62
     0
100
AcDbLine
 10
92.11358772869244
 20
278.1988177244601
 30
0.0
 11
92.31454962301596
 21
278.1988177244601
 31
0.0
  0
LINE
  5
7EE
330
1F
100
AcDbEntity
  8
0
 62
     0
100
AcDbLine
 10
92.51551151733929
 20
278.1988177244601
 30
0.0
 11
96.18454962301576
 21
278.1988177244601
 31
0.0
  0
LINE
  5
7EF
330
1F
100
AcDbEntity
  8
0
 62
     0
100
AcDbLine
 10
92.31454962301596
 20
278.1988177244601
 30
0.0
 11
92.51551151733929
 21
278.1988177244601
 31
0.0
  0
LINE
  5
7F0
330
1F
100
AcDbEntity
  8
0
 62
     0
100
AcDbLine
 10
88.51454962301572
 20
278.1988177244601
 30
0.0
 11
92.11358772869244
 21
278.1988177244601
 31
0.0
  0
LINE
  5
7F1
330
1F
100
AcDbEntity
  8
0
 62
     0
100
AcDbLine
 10
88.08454962301595
 20
278.1988177244601
 30
0.0
 11
88.51454962301572
 21
278.1988177244601
 31
0.0
  0
LINE
  5
7F2
330
1F
100
AcDbEntity
  8
0
 62
     0
100
AcDbLine
 10
88.08454962301595
 20
280.7638177244598
 30
0.0
 11
88.08454962301595
 21
278.1988177244601
 31
0.0
  0
LINE
  5
7F3
330
1F
100
AcDbEntity
  8
0
 62
     0
100
AcDbLine
 10
92.83455076301516
 20
305.5988177244598
 30
0.0
 11
88.51454962301572
 21
305.5988177244598
 31
0.0
  0
LINE
  5
7F4
330
1F
100
AcDbEntity
  8
0
 62
     0
100
AcDbLine
 10
93.03480670486214
 20
305.5988177244598
 30
0.0
 11
92.83455076301516
 21
305.5988177244598
 31
0.0
  0
LINE
  5
7F5
330
1F
100
AcDbEntity
  8
0
 62
     0
100
AcDbLine
 10
93.143308739384
 20
305.5988177244598
 30
0.0
 11
93.03480670486214
 21
305.5988177244598
 31
0.0
  0
LINE
  5
7F6
330
1F
100
AcDbEntity
  8
0
 62
     0
100
AcDbLine
 10
93.2935006957688
 20
305.5988177244598
 30
0.0
 11
93.143308739384
 21
305.5988177244598
 31
0.0
  0
LINE
  5
7F7
330
1F
100
AcDbEntity
  8
0
 62
     0
100
AcDbLine
 10
93.52145210801257
 20
305.5988177244598
 30
0.0
 11
93.2935006957688
 21
305.5988177244598
 31
0.0
  0
LINE
  5
7F8
330
1F
100
AcDbEntity
  8
0
 62
     0
100
AcDbLine
 10
95.68454962301577
 20
305.5988177244598
 30
0.0
 11
95.48429368116922
 21
305.5988177244598
 31
0.0
  0
LINE
  5
7F9
330
1F
100
AcDbEntity
  8
0
 62
     0
100
AcDbLine
 10
96.18454962301576
 20
305.5988177244598
 30
0.0
 11
95.68454962301577
 21
305.5988177244598
 31
0.0
  0
LINE
  5
7FA
330
1F
100
AcDbEntity
  8
0
 62
     0
100
AcDbLine
 10
93.65657570765199
 20
305.5988177244598
 30
0.0
 11
93.52145210801257
 21
305.5988177244598
 31
0.0
  0
LINE
  5
7FB
330
1F
100
AcDbEntity
  8
0
 62
     0
100
AcDbLine
 10
94.5724134385415
 20
305.5988177244598
 30
0.0
 11
94.43728983890251
 21
305.5988177244598
 31
0.0
  0
LINE
  5
7FC
330
1F
100
AcDbEntity
  8
0
 62
     0
100
AcDbLine
 10
94.80036485078516
 20
305.5988177244598
 30
0.0
 11
94.5724134385415
 21
305.5988177244598
 31
0.0
  0
LINE
  5
7FD
330
1F
100
AcDbEntity
  8
0
 62
     0
100
AcDbLine
 10
95.37579164663986
 20
305.5988177244598
 30
0.0
 11
95.22559969025506
 21
305.5988177244598
 31
0.0
  0
LINE
  5
7FE
330
1F
100
AcDbEntity
  8
0
 62
     0
100
AcDbLine
 10
95.48429368116922
 20
305.5988177244598
 30
0.0
 11
95.37579164663986
 21
305.5988177244598
 31
0.0
  0
LINE
  5
7FF
330
1F
100
AcDbEntity
  8
0
 62
     0
100
AcDbLine
 10
94.95055680717053
 20
305.5988177244598
 30
0.0
 11
94.80036485078516
 21
305.5988177244598
 31
0.0
  0
LINE
  5
800
330
1F
100
AcDbEntity
  8
0
 62
     0
100
AcDbLine
 10
95.22559969025506
 20
305.5988177244598
 30
0.0
 11
94.95055680717053
 21
305.5988177244598
 31
0.0
  0
LINE
  5
801
330
1F
100
AcDbEntity
  8
0
 62
     0
100
AcDbLine
 10
93.82998883627623
 20
305.5988177244598
 30
0.0
 11
93.65657570765199
 21
305.5988177244598
 31
0.0
  0
LINE
  5
802
330
1F
100
AcDbEntity
  8
0
 62
     0
100
AcDbLine
 10
94.26387671027772
 20
305.5988177244598
 30
0.0
 11
93.82998883627623
 21
305.5988177244598
 31
0.0
  0
LINE
  5
803
330
1F
100
AcDbEntity
  8
0
 62
     0
100
AcDbLine
 10
94.43728983890251
 20
305.5988177244598
 30
0.0
 11
94.26387671027772
 21
305.5988177244598
 31
0.0
  0
LINE
  5
804
330
1F
100
AcDbEntity
  8
0
 62
     0
100
AcDbLine
 10
87.61138831846983
 20
297.5838177244601
 30
0.0
 11
88.08454962301595
 21
297.9538177244601
 31
0.0
  0
LINE
  5
805
330
1F
100
AcDbEntity
  8
0
 62
     0
100
AcDbLine
 10
87.61138831846983
 20
297.5838177244601
 30
0.0
 11
87.61138831846983
 21
296.3738177244603
 31
0.0
  0
LINE
  5
806
330
1F
100
AcDbEntity
  8
0
 62
     0
100
AcDbLine
 10
87.61138831846983
 20
291.2938177244601
 30
0.0
 11
88.08454962301595
 21
290.9238177244606
 31
0.0
  0
LINE
  5
807
330
1F
100
AcDbEntity
  8
0
 62
     0
100
AcDbLine
 10
87.61138831846983
 20
291.2938177244601
 30
0.0
 11
89.22115676587281
 21
291.2938177244601
 31
0.0
  0
LINE
  5
808
330
1F
100
AcDbEntity
  8
0
 62
     0
100
AcDbLine
 10
87.61138831846983
 20
287.4238177244606
 30
0.0
 11
88.08454962301595
 21
287.7938177244605
 31
0.0
  0
LINE
  5
809
330
1F
100
AcDbEntity
  8
0
 62
     0
100
AcDbLine
 10
87.61138831846983
 20
286.2138177244606
 30
0.0
 11
87.61138831846983
 21
287.4238177244606
 31
0.0
  0
LINE
  5
80A
330
1F
100
AcDbEntity
  8
0
 62
     0
100
AcDbLine
 10
87.61138831846983
 20
286.2138177244606
 30
0.0
 11
88.08454962301595
 21
285.8438177244597
 31
0.0
  0
LINE
  5
80B
330
1F
100
AcDbEntity
  8
0
 62
     0
100
AcDbLine
 10
87.61138831846983
 20
291.2938177244601
 30
0.0
 11
87.61138831846983
 21
292.5038177244605
 31
0.0
  0
LINE
  5
80C
330
1F
100
AcDbEntity
  8
0
 62
     0
100
AcDbLine
 10
87.61138831846983
 20
282.3438177244597
 30
0.0
 11
88.08454962301595
 21
282.7138177244606
 31
0.0
  0
LINE
  5
80D
330
1F
100
AcDbEntity
  8
0
 62
     0
100
AcDbLine
 10
87.61138831846983
 20
281.1338177244596
 30
0.0
 11
87.61138831846983
 21
282.3438177244597
 31
0.0
  0
LINE
  5
80E
330
1F
100
AcDbEntity
  8
0
 62
     0
100
AcDbLine
 10
89.22115676587281
 20
282.3438177244597
 30
0.0
 11
87.61138831846983
 21
282.3438177244597
 31
0.0
  0
LINE
  5
80F
330
1F
100
AcDbEntity
  8
0
 62
     0
100
AcDbLine
 10
88.08454962301595
 20
280.7638177244598
 30
0.0
 11
87.61138831846983
 21
281.1338177244596
 31
0.0
  0
LINE
  5
810
330
1F
100
AcDbEntity
  8
0
 62
     0
100
AcDbLine
 10
87.61138831846983
 20
286.2138177244606
 30
0.0
 11
89.22115676587281
 21
286.2138177244606
 31
0.0
  0
LINE
  5
811
330
1F
100
AcDbEntity
  8
0
 62
     0
100
AcDbLine
 10
87.61138831846983
 20
292.5038177244605
 30
0.0
 11
88.08454962301595
 21
292.8738177244603
 31
0.0
  0
LINE
  5
812
330
1F
100
AcDbEntity
  8
0
 62
     0
100
AcDbLine
 10
89.22115676587281
 20
292.5038177244605
 30
0.0
 11
87.61138831846983
 21
292.5038177244605
 31
0.0
  0
LINE
  5
813
330
1F
100
AcDbEntity
  8
0
 62
     0
100
AcDbLine
 10
87.61138831846983
 20
301.4538177244602
 30
0.0
 11
89.22115676587281
 21
301.4538177244602
 31
0.0
  0
LINE
  5
814
330
1F
100
AcDbEntity
  8
0
 62
     0
100
AcDbLine
 10
87.61138831846983
 20
301.4538177244602
 30
0.0
 11
87.61138831846983
 21
302.6638177244604
 31
0.0
  0
LINE
  5
815
330
1F
100
AcDbEntity
  8
0
 62
     0
100
AcDbLine
 10
89.22115676587281
 20
302.6638177244604
 30
0.0
 11
87.61138831846983
 21
302.6638177244604
 31
0.0
  0
LINE
  5
816
330
1F
100
AcDbEntity
  8
0
 62
     0
100
AcDbLine
 10
87.61138831846983
 20
302.6638177244604
 30
0.0
 11
88.08454962301595
 21
303.0338177244601
 31
0.0
  0
LINE
  5
817
330
1F
100
AcDbEntity
  8
0
 62
     0
100
AcDbLine
 10
87.58454962301597
 20
278.1988177244601
 30
0.0
 11
88.08454962301595
 21
278.1988177244601
 31
0.0
  0
LINE
  5
818
330
1F
100
AcDbEntity
  8
0
 62
     0
100
AcDbLine
 10
87.58454962301597
 20
278.1988177244601
 30
0.0
 11
87.58454962301597
 21
305.5988177244598
 31
0.0
  0
LINE
  5
819
330
1F
100
AcDbEntity
  8
0
 62
     0
100
AcDbLine
 10
88.08454962301595
 20
305.5988177244598
 30
0.0
 11
87.58454962301597
 21
305.5988177244598
 31
0.0
  0
ARC
  5
81A
330
1F
100
AcDbEntity
  8
0
 62
     0
100
AcDbCircle
 10
92.31454962301631
 20
302.0588177244598
 30
0.0
 40
3.299999999999346
100
AcDbArc
 50
319.2509456225096
 51
40.74905437749029
  0
ARC
  5
81B
330
1F
100
AcDbEntity
  8
0
 62
     0
100
AcDbCircle
 10
92.31454962301631
 20
302.0588177244598
 30
0.0
 40
2.999999999999346
100
AcDbArc
 50
317.1665719339526
 51
42.83342806604736
  0
ARC
  5
81C
330
1F
100
AcDbEntity
  8
0
 62
     0
100
AcDbCircle
 10
92.31454962301596
 20
281.7388177244601
 30
0.0
 40
1.400000000000003
100
AcDbArc
 50
330.0000000000068
 51
209.9999999999929
  0
ARC
  5
81D
330
1F
100
AcDbEntity
  8
0
 62
     0
100
AcDbCircle
 10
92.31454962301596
 20
286.81881772446
 30
0.0
 40
2.999999999999798
100
AcDbArc
 50
317.1665719339526
 51
42.83342806604736
  0
ARC
  5
81E
330
1F
100
AcDbEntity
  8
0
 62
     0
100
AcDbCircle
 10
92.31454962301596
 20
281.7388177244601
 30
0.0
 40
3.299999999999986
100
AcDbArc
 50
319.2509456225477
 51
40.74905437745228
  0
ARC
  5
81F
330
1F
100
AcDbEntity
  8
0
 62
     0
100
AcDbCircle
 10
92.31454962301596
 20
286.81881772446
 30
0.0
 40
3.299999999999825
100
AcDbArc
 50
319.2509456225477
 51
40.74905437745228
  0
ARC
  5
820
330
1F
100
AcDbEntity
  8
0
 62
     0
100
AcDbCircle
 10
92.31454962301596
 20
291.8988177244601
 30
0.0
 40
3.299999999999825
100
AcDbArc
 50
319.2509456225477
 51
40.74905437745228
  0
ARC
  5
821
330
1F
100
AcDbEntity
  8
0
 62
     0
100
AcDbCircle
 10
92.31454962301596
 20
296.9788177244598
 30
0.0
 40
3.299999999999816
100
AcDbArc
 50
319.2509456225477
 51
40.74905437745228
  0
ARC
  5
822
330
1F
100
AcDbEntity
  8
0
 62
     0
100
AcDbCircle
 10
92.31454962301596
 20
291.8988177244601
 30
0.0
 40
2.999999999999798
100
AcDbArc
 50
317.1665719339526
 51
42.83342806604736
  0
ARC
  5
823
330
1F
100
AcDbEntity
  8
0
 62
     0
100
AcDbCircle
 10
92.31454962301596
 20
296.9788177244598
 30
0.0
 40
2.999999999999796
100
AcDbArc
 50
317.1665719339526
 51
42.83342806604736
  0
ARC
  5
824
330
1F
100
AcDbEntity
  8
0
 62
     0
100
AcDbCircle
 10
92.31454962301596
 20
281.7388177244601
 30
0.0
 40
2.99999999999996
100
AcDbArc
 50
317.1665719339526
 51
42.83342806604736
  0
CIRCLE
  5
825
330
1F
100
AcDbEntity
  8
0
 62
     0
100
AcDbCircle
 10
92.31454962301596
 20
296.9788177244598
 30
0.0
 40
1.399999999998762
  0
CIRCLE
  5
826
330
1F
100
AcDbEntity
  8
0
 62
     0
100
AcDbCircle
 10
92.31454962301596
 20
291.8988177244601
 30
0.0
 40
1.399999999998762
  0
CIRCLE
  5
827
330
1F
100
AcDbEntity
  8
0
 62
     0
100
AcDbCircle
 10
92.31454962301596
 20
286.81881772446
 30
0.0
 40
1.399999999999999
  0
CIRCLE
  5
828
330
1F
100
AcDbEntity
  8
0
 62
     0
100
AcDbCircle
 10
92.31454962301631
 20
302.0588177244598
 30
0.0
 40
1.399999999999379
  0
ARC
  5
829
330
1F
100
AcDbEntity
  8
0
 62
     0
100
AcDbCircle
 10
101.2260268437507
 20
266.6281294056568
 30
6.483974233579615E+99
 40
18.41680697560812
100
AcDbArc
 50
110.3730936678199
 51
110.8717620092467
  0
LINE
  5
82A
330
1F
100
AcDbEntity
  8
0
 62
     0
100
AcDbLine
 10
94.66453221219998
 20
283.8364287805788
 30
6.483974233579615E+99
 11
94.58901523262102
 21
283.8074271548866
 31
6.483974233579615E+99
  0
LINE
  5
82B
330
1F
100
AcDbEntity
  8
0
 62
     0
100
AcDbLine
 10
94.58901523262102
 20
283.8074271548866
 30
6.483974233579615E+99
 11
94.51454962301573
 21
283.7784255298974
 31
6.483974233579615E+99
  0
ARC
  5
82C
330
1F
100
AcDbEntity
  8
0
 62
     0
100
AcDbCircle
 10
100.7009688478771
 20
295.472905105028
 30
6.483974233579615E+99
 40
16.94347197733493
100
AcDbArc
 50
248.584964048543
 51
249.1287512867593
  0
LINE
  5
82D
330
1F
100
AcDbEntity
  8
0
 62
     0
100
AcDbLine
 10
94.66453221219998
 20
279.6412066683415
 30
6.483974233579615E+99
 11
94.73933522412435
 21
279.6128692392475
 31
6.483974233579615E+99
  0
LINE
  5
82E
330
1F
100
AcDbEntity
  8
0
 62
     0
100
AcDbLine
 10
94.73933522412435
 20
279.6128692392475
 30
6.483974233579615E+99
 11
94.81454962301596
 21
279.584751801606
 31
6.483974233579615E+99
  0
ARC
  5
82F
330
1F
100
AcDbEntity
  8
0
 62
     0
100
AcDbCircle
 10
100.680716404207
 20
300.500537109995
 30
6.483974233579615E+99
 40
16.88732487456338
100
AcDbArc
 50
248.5840600477166
 51
249.1296552877334
  0
LINE
  5
830
330
1F
100
AcDbEntity
  8
0
 62
     0
100
AcDbLine
 10
94.66453221228858
 20
284.7212066683076
 30
6.483974233579615E+99
 11
94.73904292652573
 21
284.6929792344472
 31
6.483974233579615E+99
  0
LINE
  5
831
330
1F
100
AcDbEntity
  8
0
 62
     0
100
AcDbLine
 10
94.73904292652573
 20
284.6929792344472
 30
6.483974233579615E+99
 11
94.81454962301596
 21
284.6647518016071
 31
6.483974233579615E+99
  0
ARC
  5
832
330
1F
100
AcDbEntity
  8
0
 62
     0
100
AcDbCircle
 10
101.2260268436707
 20
271.7081294059398
 30
6.483974233579615E+99
 40
18.41680697531573
100
AcDbArc
 50
110.3730936679033
 51
110.8717620093304
  0
LINE
  5
833
330
1F
100
AcDbEntity
  8
0
 62
     0
100
AcDbLine
 10
94.66453221219998
 20
288.9164287805787
 30
6.483974233579615E+99
 11
94.58876734017314
 21
288.8873312844188
 31
6.483974233579615E+99
  0
LINE
  5
834
330
1F
100
AcDbEntity
  8
0
 62
     0
100
AcDbLine
 10
94.58876734017314
 20
288.8873312844188
 30
6.483974233579615E+99
 11
94.51454962301573
 21
288.8584255298973
 31
6.483974233579615E+99
  0
ARC
  5
835
330
1F
100
AcDbEntity
  8
0
 62
     0
100
AcDbCircle
 10
100.7009688485318
 20
305.6329051067031
 30
6.483974233579615E+99
 40
16.94347197913375
100
AcDbArc
 50
248.5849640485708
 51
249.1287512870383
  0
LINE
  5
836
330
1F
100
AcDbEntity
  8
0
 62
     0
100
AcDbLine
 10
94.66453221228858
 20
289.8012066683077
 30
6.483974233579615E+99
 11
94.73904292652468
 21
289.772979234448
 31
6.483974233579615E+99
  0
LINE
  5
837
330
1F
100
AcDbEntity
  8
0
 62
     0
100
AcDbLine
 10
94.73904292652468
 20
289.772979234448
 30
6.483974233579615E+99
 11
94.81454962301596
 21
289.744751801607
 31
6.483974233579615E+99
  0
ARC
  5
838
330
1F
100
AcDbEntity
  8
0
 62
     0
100
AcDbCircle
 10
100.6807151846419
 20
310.6605339565521
 30
6.483974233579615E+99
 40
16.8873214935453
100
AcDbArc
 50
248.5840599931689
 51
249.1296553424152
  0
LINE
  5
839
330
1F
100
AcDbEntity
  8
0
 62
     0
100
AcDbLine
 10
94.66453221228858
 20
294.8812066683077
 30
6.483974233579615E+99
 11
94.73904292652376
 21
294.852979234448
 31
6.483974233579615E+99
  0
LINE
  5
83A
330
1F
100
AcDbEntity
  8
0
 62
     0
100
AcDbLine
 10
94.73904292652376
 20
294.852979234448
 30
6.483974233579615E+99
 11
94.81454962301596
 21
294.8247518016068
 31
6.483974233579615E+99
  0
ARC
  5
83B
330
1F
100
AcDbEntity
  8
0
 62
     0
100
AcDbCircle
 10
101.2009870945731
 20
276.8546674838862
 30
6.483974233579615E+99
 40
18.34571401668807
100
AcDbArc
 50
110.3721274466995
 51
110.8727282303886
  0
LINE
  5
83C
330
1F
100
AcDbEntity
  8
0
 62
     0
100
AcDbLine
 10
94.66453221219998
 20
293.9964287805787
 30
6.483974233579615E+99
 11
94.58876733345823
 21
293.9673312818212
 31
6.483974233579615E+99
  0
LINE
  5
83D
330
1F
100
AcDbEntity
  8
0
 62
     0
100
AcDbLine
 10
94.58876733345823
 20
293.9673312818212
 30
6.483974233579615E+99
 11
94.51454962301573
 21
293.9384255298973
 31
6.483974233579615E+99
  0
ARC
  5
83E
330
1F
100
AcDbEntity
  8
0
 62
     0
100
AcDbCircle
 10
101.2260268436977
 20
286.9481294058676
 30
6.483974233579615E+99
 40
18.41680697539202
100
AcDbArc
 50
110.3730936679033
 51
110.8717620093304
  0
LINE
  5
83F
330
1F
100
AcDbEntity
  8
0
 62
     0
100
AcDbLine
 10
94.66453221219998
 20
304.1564287805785
 30
6.483974233579615E+99
 11
94.58876739572643
 21
304.1273313059036
 31
6.483974233579615E+99
  0
LINE
  5
840
330
1F
100
AcDbEntity
  8
0
 62
     0
100
AcDbLine
 10
94.58876739572643
 20
304.1273313059036
 30
6.483974233579615E+99
 11
94.51454962301573
 21
304.0984255298972
 31
6.483974233579615E+99
  0
ARC
  5
841
330
1F
100
AcDbEntity
  8
0
 62
     0
100
AcDbCircle
 10
100.6807163744612
 20
315.7405370330796
 30
6.483974233579615E+99
 40
16.8873247920978
100
AcDbArc
 50
248.5840600463733
 51
249.1296552890719
  0
LINE
  5
842
330
1F
100
AcDbEntity
  8
0
 62
     0
100
AcDbLine
 10
94.66453221228858
 20
299.9612066683076
 30
6.483974233579615E+99
 11
94.73904292652511
 21
299.9329792344478
 31
6.483974233579615E+99
  0
LINE
  5
843
330
1F
100
AcDbEntity
  8
0
 62
     0
100
AcDbLine
 10
94.73904292652511
 20
299.9329792344478
 30
6.483974233579615E+99
 11
94.81454962301596
 21
299.9047518016066
 31
6.483974233579615E+99
  0
ARC
  5
844
330
1F
100
AcDbEntity
  8
0
 62
     0
100
AcDbCircle
 10
101.2260268436784
 20
281.8681294058506
 30
0.0
 40
18.41680697540189
100
AcDbArc
 50
110.3730936678199
 51
110.8717620092467
  0
LINE
  5
845
330
1F
100
AcDbEntity
  8
0
 62
     0
100
AcDbLine
 10
94.66453221219998
 20
299.0764287805786
 30
0.0
 11
94.58901523262102
 21
299.0474271548865
 31
0.0
  0
LINE
  5
846
330
1F
100
AcDbEntity
  8
0
 62
     0
100
AcDbLine
 10
94.58901523262102
 20
299.0474271548865
 30
0.0
 11
94.51454962301573
 21
299.0184255298972
 31
0.0
  0
LINE
  5
847
330
1F
100
AcDbEntity
  8
0
 62
     0
100
AcDbLine
 10
96.18454962301576
 20
308.1988177244598
 30
0.0
 11
96.18454962301576
 21
275.5988177244599
 31
0.0
  0
LWPOLYLINE
  5
848
330
1F
100
AcDbEntity
  8
0
 62
     0
100
AcDbPolyline
 90
        4
 70
     1
 43
0.0
 10
98.68454962301495
 20
318.4488184581503
 10
100.2845496230152
 20
318.4488184581503
 10
100.2845496230152
 20
315.7488184581497
 10
98.68454962301495
 20
315.7488184581497
  0
LWPOLYLINE
  5
849
330
1F
100
AcDbEntity
  8
0
 62
     0
100
AcDbPolyline
 90
        4
 70
     1
 43
0.0
 10
98.68454962301495
 20
312.9488184581503
 10
100.2845496230152
 20
312.9488184581503
 10
100.2845496230152
 20
310.2488184581498
 10
98.68454962301495
 20
310.2488184581498
  0
LINE
  5
84A
330
1F
100
AcDbEntity
  8
0
100
AcDbLine
 10
96.18454962301576
 20
308.1988177244598
 30
0.0
 11
97.1846239355642
 21
308.1988177244598
 31
0.0
  0
LINE
  5
84B
330
1F
100
AcDbEntity
  8
0
100
AcDbLine
 10
96.18454962301576
 20
275.5988177244599
 30
0.0
 11
97.18462393556604
 21
275.5988177244599
 31
0.0
  0
LINE
  5
94B
330
1F
100
AcDbEntity
  8
0
100
AcDbLine
 10
55.1845496230153
 20
5.000003646028451
 30
0.0
 11
109.1845496230152
 21
3.585963881291426
 31
0.0
  0
LINE
  5
94C
330
1F
100
AcDbEntity
  8
0
100
AcDbLine
 10
109.1845496230152
 20
3.585963881291426
 30
0.0
 11
56.1845496230153
 21
4.973817724459467
 31
0.0
  0
LINE
  5
94E
330
1F
100
AcDbEntity
  8
0
100
AcDbLine
 10
67.1845496230153
 20
21.97381772445946
 30
0.0
 11
109.1845496230152
 21
21.97381772445946
 31
0.0
  0
LINE
  5
94F
330
1F
100
AcDbEntity
  8
0
100
AcDbLine
 10
108.1845496230152
 20
42.97381772445945
 30
0.0
 11
67.1845496230153
 21
42.97381772445945
 31
0.0
  0
LINE
  5
950
330
1F
100
AcDbEntity
  8
0
100
AcDbLine
 10
108.1845496230152
 20
40.97381772445944
 30
0.0
 11
67.1845496230153
 21
40.97381772445944
 31
0.0
  0
LINE
  5
951
330
1F
100
AcDbEntity
  8
0
100
AcDbLine
 10
108.1845496230152
 20
35.97381772445945
 30
0.0
 11
67.1845496230153
 21
35.97381772445945
 31
0.0
  0
LINE
  5
952
330
1F
100
AcDbEntity
  8
0
100
AcDbLine
 10
108.1845496230152
 20
33.97381772445946
 30
0.0
 11
67.1845496230153
 21
33.97381772445946
 31
0.0
  0
LINE
  5
953
330
1F
100
AcDbEntity
  8
0
100
AcDbLine
 10
108.1845496230152
 20
28.97381772445946
 30
0.0
 11
67.1845496230153
 21
28.97381772445946
 31
0.0
  0
LINE
  5
954
330
1F
100
AcDbEntity
  8
0
100
AcDbLine
 10
108.1845496230152
 20
26.97381772445946
 30
0.0
 11
67.1845496230153
 21
26.97381772445946
 31
0.0
  0
LINE
  5
955
330
1F
100
AcDbEntity
  8
0
100
AcDbLine
 10
57.1845496230153
 20
120.9738177244593
 30
0.0
 11
109.1845496230152
 21
120.9738177244593
 31
0.0
  0
LINE
  5
957
330
1F
100
AcDbEntity
  8
0
100
AcDbLine
 10
37.1845496230153
 20
0.0000036460284676
 30
0.0
 11
109.1845496230152
 21
0.0000036460284533
 31
0.0
  0
LINE
  5
958
330
1F
100
AcDbEntity
  8
0
100
AcDbLine
 10
37.1845496230153
 20
79.00000364602845
 30
0.0
 11
37.1845496230153
 21
54.00000364602846
 31
0.0
  0
LINE
  5
95A
330
1F
100
AcDbEntity
  8
0
100
AcDbLine
 10
56.1845496230153
 20
71.00000364602845
 30
0.0
 11
56.1845496230153
 21
33.00000364602844
 31
0.0
  0
LINE
  5
95B
330
1F
100
AcDbEntity
  8
0
100
AcDbLine
 10
57.1845496230153
 20
32.97381772446044
 30
0.0
 11
57.1845496230153
 21
70.97381772445945
 31
0.0
  0
LINE
  5
95C
330
1F
100
AcDbEntity
  8
0
100
AcDbLine
 10
67.1845496230153
 20
103.9738177244592
 30
0.0
 11
67.1845496230153
 21
21.97381772445946
 31
0.0
  0
ARC
  5
95D
330
1F
100
AcDbEntity
  8
0
100
AcDbCircle
 10
38.1845496230153
 20
56.05154441898042
 30
0.0
 40
1.0
100
AcDbArc
 50
93.03047684586102
 51
180.0
  0
LINE
  5
95E
330
1F
100
AcDbEntity
  8
0
100
AcDbLine
 10
55.1845496230153
 20
5.000003646028451
 30
0.0
 11
37.1845496230153
 21
4.528657057782488
 31
0.0
  0
LINE
  5
95F
330
1F
100
AcDbEntity
  8
0
100
AcDbLine
 10
37.1845496230153
 20
21.17552136267048
 30
0.0
 11
37.1845496230153
 21
0.0000036460284676
 31
0.0
  0
LINE
  5
960
330
1F
100
AcDbEntity
  8
0
100
AcDbLine
 10
37.33099623242196
 20
53.64645025543516
 30
0.0
 11
41.18454962301528
 21
52.00000364602845
 31
0.0
  0
LINE
  5
961
330
1F
100
AcDbEntity
  8
0
100
AcDbLine
 10
37.65838164489422
 20
21.67483613004851
 30
0.0
 11
48.76305355738033
 21
22.25680732464847
 31
0.0
  0
LINE
  5
962
330
1F
100
AcDbEntity
  8
0
100
AcDbLine
 10
38.13168248187526
 20
29.05014597384951
 30
0.0
 11
48.76385033472637
 21
29.61302544841242
 31
0.0
  0
LINE
  5
963
330
1F
100
AcDbEntity
  8
0
100
AcDbLine
 10
38.13168248187526
 20
26.9498613182065
 30
0.0
 11
48.76385033472637
 21
26.38698184364344
 31
0.0
  0
LINE
  5
964
330
1F
100
AcDbEntity
  8
0
100
AcDbLine
 10
38.13168248187526
 20
54.94986131820649
 30
0.0
 11
48.76385033472637
 21
54.38698184364347
 31
0.0
  0
LINE
  5
965
330
1F
100
AcDbEntity
  8
0
100
AcDbLine
 10
38.13168248187526
 20
50.05014597384949
 30
0.0
 11
48.76385033472637
 21
50.6130254484124
 31
0.0
  0
LINE
  5
966
330
1F
100
AcDbEntity
  8
0
100
AcDbLine
 10
38.13168248187526
 20
47.94986131820649
 30
0.0
 11
48.76385033472637
 21
47.38698184364347
 31
0.0
  0
LINE
  5
967
330
1F
100
AcDbEntity
  8
0
100
AcDbLine
 10
38.13168248187526
 20
43.05014597384949
 30
0.0
 11
48.76385033472637
 21
43.61302544841239
 31
0.0
  0
LINE
  5
968
330
1F
100
AcDbEntity
  8
0
100
AcDbLine
 10
38.13168248187526
 20
40.94986131820649
 30
0.0
 11
48.76385033472637
 21
40.38698184364346
 31
0.0
  0
LINE
  5
969
330
1F
100
AcDbEntity
  8
0
100
AcDbLine
 10
38.13168248187526
 20
36.05014597384949
 30
0.0
 11
48.76385033472637
 21
36.61302544841242
 31
0.0
  0
LINE
  5
96A
330
1F
100
AcDbEntity
  8
0
100
AcDbLine
 10
38.13168248187526
 20
33.94986131820651
 30
0.0
 11
48.76385033472637
 21
33.38698184364346
 31
0.0
  0
POINT
  5
96B
330
1F
100
AcDbEntity
  8
0
100
AcDbPoint
 10
37.1845496230153
 20
21.65000364602844
 30
0.0
  0
ARC
  5
96C
330
1F
100
AcDbEntity
  8
0
100
AcDbCircle
 10
37.6845496230153
 20
21.17552136267048
 30
0.0
 40
0.5
100
AcDbArc
 50
92.9999999999991
 51
180.0
  0
LINE
  5
96D
330
1F
100
AcDbEntity
  8
0
100
AcDbLine
 10
37.1845496230153
 20
28.05154441898043
 30
0.0
 11
37.1845496230153
 21
27.94846287307548
 31
0.0
  0
ARC
  5
96E
330
1F
100
AcDbEntity
  8
0
100
AcDbCircle
 10
38.1845496230153
 20
28.05154441898043
 30
0.0
 40
1.0
100
AcDbArc
 50
93.03047684586102
 51
180.0
  0
ARC
  5
96F
330
1F
100
AcDbEntity
  8
0
100
AcDbCircle
 10
38.1845496230153
 20
27.94846287307548
 30
0.0
 40
1.0
100
AcDbArc
 50
180.0
 51
266.9695231541389
  0
LINE
  5
970
330
1F
100
AcDbEntity
  8
0
100
AcDbLine
 10
37.1845496230153
 20
35.05154441898042
 30
0.0
 11
37.1845496230153
 21
34.94846287307545
 31
0.0
  0
ARC
  5
971
330
1F
100
AcDbEntity
  8
0
100
AcDbCircle
 10
38.1845496230153
 20
35.05154441898042
 30
0.0
 40
1.0
100
AcDbArc
 50
93.03047684586102
 51
180.0
  0
ARC
  5
972
330
1F
100
AcDbEntity
  8
0
100
AcDbCircle
 10
38.1845496230153
 20
34.94846287307547
 30
0.0
 40
1.0
100
AcDbArc
 50
180.0
 51
266.9695231541389
  0
ARC
  5
973
330
1F
100
AcDbEntity
  8
0
100
AcDbCircle
 10
37.6845496230153
 20
54.00000364602846
 30
0.0
 40
0.5
100
AcDbArc
 50
180.0
 51
224.9999999999904
  0
LINE
  5
974
330
1F
100
AcDbEntity
  8
0
100
AcDbLine
 10
37.1845496230153
 20
42.05154441898041
 30
0.0
 11
37.1845496230153
 21
41.94846287307544
 31
0.0
  0
ARC
  5
975
330
1F
100
AcDbEntity
  8
0
100
AcDbCircle
 10
38.1845496230153
 20
42.05154441898041
 30
0.0
 40
1.0
100
AcDbArc
 50
93.03047684586102
 51
180.0
  0
ARC
  5
976
330
1F
100
AcDbEntity
  8
0
100
AcDbCircle
 10
38.1845496230153
 20
41.94846287307544
 30
0.0
 40
1.0
100
AcDbArc
 50
180.0
 51
266.9695231541389
  0
LINE
  5
977
330
1F
100
AcDbEntity
  8
0
100
AcDbLine
 10
37.1845496230153
 20
56.05154441898042
 30
0.0
 11
37.1845496230153
 21
55.94846287307547
 31
0.0
  0
ARC
  5
978
330
1F
100
AcDbEntity
  8
0
100
AcDbCircle
 10
38.1845496230153
 20
55.94846287307547
 30
0.0
 40
1.0
100
AcDbArc
 50
180.0
 51
266.9695231541389
  0
LINE
  5
979
330
1F
100
AcDbEntity
  8
0
100
AcDbLine
 10
37.1845496230153
 20
49.05154441898042
 30
0.0
 11
37.1845496230153
 21
48.94846287307546
 31
0.0
  0
ARC
  5
97A
330
1F
100
AcDbEntity
  8
0
100
AcDbCircle
 10
38.1845496230153
 20
49.05154441898042
 30
0.0
 40
1.0
100
AcDbArc
 50
93.03047684586102
 51
180.0
  0
ARC
  5
97B
330
1F
100
AcDbEntity
  8
0
100
AcDbCircle
 10
38.1845496230153
 20
48.94846287307546
 30
0.0
 40
1.0
100
AcDbArc
 50
180.0
 51
266.9695231541389
  0
ARC
  5
97C
330
1F
100
AcDbEntity
  8
0
100
AcDbCircle
 10
48.6845496230153
 20
38.11092778071652
 30
0.0
 40
1.5
100
AcDbArc
 50
273.030476845861
 51
0.0
  0
LINE
  5
97D
330
1F
100
AcDbEntity
  8
0
100
AcDbLine
 10
50.1845496230153
 20
31.88907951133947
 30
0.0
 11
50.1845496230153
 21
31.11092778071649
 31
0.0
  0
ARC
  5
97E
330
1F
100
AcDbEntity
  8
0
100
AcDbCircle
 10
48.6845496230153
 20
31.11092778071649
 30
0.0
 40
1.5
100
AcDbArc
 50
273.030476845861
 51
0.0
  0
LINE
  5
97F
330
1F
100
AcDbEntity
  8
0
100
AcDbLine
 10
50.1845496230153
 20
24.88907951133949
 30
0.0
 11
50.1845496230153
 21
23.75475162678041
 31
0.0
  0
ARC
  5
980
330
1F
100
AcDbEntity
  8
0
100
AcDbCircle
 10
48.6845496230153
 20
24.88907951133951
 30
0.0
 40
1.5
100
AcDbArc
 50
0.0
 51
86.96952315413893
  0
ARC
  5
981
330
1F
100
AcDbEntity
  8
0
100
AcDbCircle
 10
48.6845496230153
 20
23.75475162678044
 30
0.0
 40
1.5
100
AcDbArc
 50
273.0000000000056
 51
0.0
  0
ARC
  5
982
330
1F
100
AcDbEntity
  8
0
100
AcDbCircle
 10
48.6845496230153
 20
31.88907951133951
 30
0.0
 40
1.5
100
AcDbArc
 50
0.0
 51
86.96952315413893
  0
LINE
  5
983
330
1F
100
AcDbEntity
  8
0
  6
CONTINUOUS
100
AcDbLine
 10
43.1845496230153
 20
46.50000364602845
 30
0.0
 11
50.0545027980014
 21
46.50000364602845
 31
0.0
  0
LINE
  5
984
330
1F
100
AcDbEntity
  8
0
  6
CONTINUOUS
100
AcDbLine
 10
41.18454962301519
 20
54.78823894014606
 30
0.0
 11
41.18454962301528
 21
54.00000364602846
 31
0.0
  0
LINE
  5
985
330
1F
100
AcDbEntity
  8
0
  6
CONTINUOUS
100
AcDbLine
 10
43.1845496230153
 20
54.6823565872048
 30
0.0
 11
43.1845496230153
 21
50.31765070485113
 31
0.0
  0
LINE
  5
986
330
1F
100
AcDbEntity
  8
0
100
AcDbLine
 10
39.1845496230153
 20
54.89412129308727
 30
0.0
 11
39.1845496230153
 21
54.85451191023258
 31
0.0
  0
LINE
  5
987
330
1F
100
AcDbEntity
  8
0
100
AcDbLine
 10
41.18454962301528
 20
47.78823894014606
 30
0.0
 11
41.18454962301528
 21
47.00000364602845
 31
0.0
  0
LINE
  5
988
330
1F
100
AcDbEntity
  8
0
100
AcDbLine
 10
43.1845496230153
 20
50.31765070485113
 30
0.0
 11
43.1845496230153
 21
54.00000364602846
 31
0.0
  0
LINE
  5
989
330
1F
100
AcDbEntity
  8
0
  6
CONTINUOUS
100
AcDbLine
 10
43.1845496230153
 20
47.6823565872048
 30
0.0
 11
43.1845496230153
 21
46.50000364602845
 31
0.0
  0
LINE
  5
98A
330
1F
100
AcDbEntity
  8
0
100
AcDbLine
 10
39.1845496230153
 20
52.85451191023253
 30
0.0
 11
39.1845496230153
 21
52.00000364602845
 31
0.0
  0
LINE
  5
98B
330
1F
100
AcDbEntity
  8
0
100
AcDbLine
 10
39.1845496230153
 20
54.85451191023258
 30
0.0
 11
41.18454962301528
 21
54.00000364602846
 31
0.0
  0
LINE
  5
98C
330
1F
100
AcDbEntity
  8
0
100
AcDbLine
 10
39.1845496230153
 20
54.85451191023253
 30
0.0
 11
39.1845496230153
 21
54.89412129308727
 31
0.0
  0
ARC
  5
98D
330
1F
100
AcDbEntity
  8
0
100
AcDbCircle
 10
39.6845496230153
 20
52.00000364602845
 30
0.0
 40
0.5
100
AcDbArc
 50
180.0
 51
270.0
  0
ARC
  5
98E
330
1F
100
AcDbEntity
  8
0
100
AcDbCircle
 10
40.6845496230153
 20
52.00000364602845
 30
0.0
 40
0.5
100
AcDbArc
 50
270.0
 51
0.0
  0
LINE
  5
98F
330
1F
100
AcDbEntity
  8
0
100
AcDbLine
 10
39.6845496230153
 20
51.50000364602846
 30
0.0
 11
40.6845496230153
 21
51.50000364602846
 31
0.0
  0
ARC
  5
990
330
1F
100
AcDbEntity
  8
0
100
AcDbCircle
 10
41.6845496230153
 20
47.00000364602845
 30
0.0
 40
0.5
100
AcDbArc
 50
180.0
 51
270.0
  0
ARC
  5
991
330
1F
100
AcDbEntity
  8
0
100
AcDbCircle
 10
42.68454962301553
 20
47.00000364602845
 30
0.0
 40
0.5
100
AcDbArc
 50
270.0
 51
0.0
  0
ARC
  5
992
330
1F
100
AcDbEntity
  8
0
100
AcDbCircle
 10
42.6845496230153
 20
54.00000364602846
 30
0.0
 40
0.5
100
AcDbArc
 50
0.0
 51
90.0
  0
ARC
  5
993
330
1F
100
AcDbEntity
  8
0
100
AcDbCircle
 10
41.6845496230153
 20
54.00000364602846
 30
0.0
 40
0.5
100
AcDbArc
 50
90.0
 51
180.0
  0
LINE
  5
994
330
1F
100
AcDbEntity
  8
0
100
AcDbLine
 10
41.18454962301528
 20
52.00000364602857
 30
0.0
 11
41.18454962301528
 21
50.21176835190992
 31
0.0
  0
LINE
  5
995
330
1F
100
AcDbEntity
  8
0
100
AcDbLine
 10
42.6845496230153
 20
54.50000364602845
 30
0.0
 11
41.6845496230153
 21
54.50000364602845
 31
0.0
  0
LINE
  5
996
330
1F
100
AcDbEntity
  8
0
100
AcDbLine
 10
43.18454962301553
 20
47.00000364602845
 30
0.0
 11
43.18454962301553
 21
47.6823565872048
 31
0.0
  0
LINE
  5
997
330
1F
100
AcDbEntity
  8
0
100
AcDbLine
 10
41.6845496230153
 20
46.50000364602845
 30
0.0
 11
42.68454962301553
 21
46.50000364602845
 31
0.0
  0
LINE
  5
998
330
1F
100
AcDbEntity
  8
0
100
AcDbLine
 10
50.1845496230153
 20
38.88907951133949
 30
0.0
 11
50.1845496230153
 21
38.1109277807165
 31
0.0
  0
LINE
  5
999
330
1F
100
AcDbEntity
  8
0
100
AcDbLine
 10
49.1845496230153
 20
43.69671421834349
 30
0.0
 11
49.1845496230153
 21
46.50000364602845
 31
0.0
  0
LINE
  5
99A
330
1F
100
AcDbEntity
  8
0
100
AcDbLine
 10
50.1845496230153
 20
45.8890795113395
 30
0.0
 11
50.1845496230153
 21
45.11092778071649
 31
0.0
  0
ARC
  5
99B
330
1F
100
AcDbEntity
  8
0
100
AcDbCircle
 10
48.6845496230153
 20
45.8890795113395
 30
0.0
 40
1.5
100
AcDbArc
 50
0.0
 51
86.96952315413893
  0
ARC
  5
99C
330
1F
100
AcDbEntity
  8
0
100
AcDbCircle
 10
48.6845496230153
 20
45.11092778071649
 30
0.0
 40
1.5
100
AcDbArc
 50
273.030476845861
 51
0.0
  0
ARC
  5
99D
330
1F
100
AcDbEntity
  8
0
100
AcDbCircle
 10
48.6845496230153
 20
38.88907951133949
 30
0.0
 40
1.5
100
AcDbArc
 50
0.0
 51
86.96952315413893
  0
LINE
  5
99E
330
1F
100
AcDbEntity
  8
0
100
AcDbLine
 10
50.1845496230153
 20
52.8890795113395
 30
0.0
 11
50.1845496230153
 21
52.11092778071649
 31
0.0
  0
ARC
  5
99F
330
1F
100
AcDbEntity
  8
0
100
AcDbCircle
 10
48.6845496230153
 20
52.8890795113395
 30
0.0
 40
1.5
100
AcDbArc
 50
0.0
 51
86.96952315413893
  0
ARC
  5
9A0
330
1F
100
AcDbEntity
  8
0
100
AcDbCircle
 10
48.6845496230153
 20
52.11092778071649
 30
0.0
 40
1.5
100
AcDbArc
 50
273.030476845861
 51
0.0
  0
LINE
  5
9A1
330
1F
100
AcDbEntity
  8
0
100
AcDbLine
 10
56.1845496230153
 20
21.00000364602844
 30
0.0
 11
56.1845496230153
 21
4.973817724458447
 31
0.0
  0
LINE
  5
9A2
330
1F
100
AcDbEntity
  8
0
100
AcDbLine
 10
57.1845496230153
 20
4.92144588132145
 30
0.0
 11
57.1845496230153
 21
20.97381772445947
 31
0.0
  0
LINE
  5
9A3
330
1F
100
AcDbEntity
  8
0
100
AcDbLine
 10
82.47583747049224
 20
4.259170201363462
 30
0.0
 11
82.47583747049224
 21
21.97381772445946
 31
0.0
  0
LINE
  5
9A4
330
1F
100
AcDbEntity
  8
0
100
AcDbLine
 10
77.8932617755372
 20
4.379169169096419
 30
0.0
 11
77.8932617755372
 21
21.97381772446048
 31
0.0
  0
LINE
  5
9A5
330
1F
100
AcDbEntity
  8
0
100
AcDbLine
 10
78.08454962301425
 20
3.800003646027439
 30
0.0
 11
78.08454962301425
 21
0.0000036460284533
 31
0.0
  0
LINE
  5
9A6
330
1F
100
AcDbEntity
  8
0
100
AcDbLine
 10
82.28454962301521
 20
3.800003646027439
 30
0.0
 11
82.28454962301521
 21
0.0000036460284533
 31
0.0
  0
LINE
  5
9A7
330
1F
100
AcDbEntity
  8
0
100
AcDbLine
 10
74.6845496230153
 20
3.800003646027439
 30
0.0
 11
85.68454962301528
 21
3.800003646027439
 31
0.0
  0
LINE
  5
9A8
330
1F
100
AcDbEntity
  8
0
100
AcDbLine
 10
74.6845496230153
 20
4.489378175428488
 30
0.0
 11
74.6845496230153
 21
3.800003646027439
 31
0.0
  0
LINE
  5
9A9
330
1F
100
AcDbEntity
  8
0
100
AcDbLine
 10
85.68454962301528
 20
4.201333038168447
 30
0.0
 11
85.68454962301528
 21
3.800003646027439
 31
0.0
  0
LINE
  5
9AD
330
1F
100
AcDbEntity
  8
0
100
AcDbLine
 10
60.6845496230153
 20
23.00000364602844
 30
0.0
 11
59.18454962301427
 21
23.00000364602844
 31
0.0
  0
LINE
  5
9AE
330
1F
100
AcDbEntity
  8
0
100
AcDbLine
 10
60.88454962301418
 20
22.47381772445946
 30
0.0
 11
59.18454962301427
 21
22.47381772445946
 31
0.0
  0
LINE
  5
9AF
330
1F
100
AcDbEntity
  8
0
100
AcDbLine
 10
56.1845496230153
 20
21.00000364602844
 30
0.0
 11
54.88454962301535
 21
21.00000364602844
 31
0.0
  0
LINE
  5
9B0
330
1F
100
AcDbEntity
  8
0
100
AcDbLine
 10
57.1845496230153
 20
20.97381772445947
 30
0.0
 11
56.1845496230153
 21
20.97381772445947
 31
0.0
  0
LINE
  5
9B1
330
1F
100
AcDbEntity
  8
0
100
AcDbLine
 10
60.6845496230153
 20
31.00000364602844
 30
0.0
 11
59.18454962301427
 21
31.00000364602844
 31
0.0
  0
LINE
  5
9B2
330
1F
100
AcDbEntity
  8
0
100
AcDbLine
 10
56.1845496230153
 20
33.00000364602844
 30
0.0
 11
54.88454962301535
 21
33.00000364602844
 31
0.0
  0
LINE
  5
9B3
330
1F
100
AcDbEntity
  8
0
100
AcDbLine
 10
60.88454962301418
 20
31.47381772445946
 30
0.0
 11
59.18454962301427
 21
31.47381772445946
 31
0.0
  0
LINE
  5
9B4
330
1F
100
AcDbEntity
  8
0
100
AcDbLine
 10
57.1845496230153
 20
32.97381772446044
 30
0.0
 11
56.1845496230153
 21
32.97381772446044
 31
0.0
  0
LINE
  5
9B5
330
1F
100
AcDbEntity
  8
0
100
AcDbLine
 10
59.28454962301522
 20
31.00000364602844
 30
0.0
 11
59.28454962301522
 21
23.00000364602844
 31
0.0
  0
LINE
  5
9B6
330
1F
100
AcDbEntity
  8
0
100
AcDbLine
 10
59.88454962301535
 20
31.00000364602844
 30
0.0
 11
59.88454962301535
 21
23.00000364602844
 31
0.0
  0
LINE
  5
9B7
330
1F
100
AcDbEntity
  8
0
100
AcDbLine
 10
60.6845496230153
 20
31.00000364602844
 30
0.0
 11
60.6845496230153
 21
23.00000364602844
 31
0.0
  0
LINE
  5
9B8
330
1F
100
AcDbEntity
  8
0
100
AcDbLine
 10
54.88454962301535
 20
33.00000364602844
 30
0.0
 11
54.88454962301535
 21
21.10000364602745
 31
0.0
  0
LINE
  5
9B9
330
1F
100
AcDbEntity
  8
0
100
AcDbLine
 10
55.6845496230153
 20
33.00000364602844
 30
0.0
 11
55.6845496230153
 21
21.00000364602844
 31
0.0
  0
LINE
  5
9BA
330
1F
100
AcDbEntity
  8
0
100
AcDbLine
 10
56.1845496230153
 20
33.00000364602844
 30
0.0
 11
56.1845496230153
 21
21.0000036460274
 31
0.0
  0
LINE
  5
9BB
330
1F
100
AcDbEntity
  8
0
100
AcDbLine
 10
59.18454962301427
 20
31.47381772445946
 30
0.0
 11
59.18454962301427
 21
22.47381772445946
 31
0.0
  0
LINE
  5
9BC
330
1F
100
AcDbEntity
  8
0
100
AcDbLine
 10
60.88454962301418
 20
31.47381772445946
 30
0.0
 11
60.88454962301418
 21
22.47381772445946
 31
0.0
  0
LINE
  5
9BF
330
1F
100
AcDbEntity
  8
0
100
AcDbLine
 10
37.1845496230153
 20
120.5286570577822
 30
0.0
 11
55.18454962301825
 21
121.000003646027
 31
0.0
  0
LINE
  5
9C0
330
1F
100
AcDbEntity
  8
0
100
AcDbLine
 10
47.98454962301627
 20
96.42823894014549
 30
0.0
 11
47.98454962301627
 21
92.57176835191048
 31
0.0
  0
LINE
  5
9C1
330
1F
100
AcDbEntity
  8
0
100
AcDbLine
 10
50.1845496230153
 20
94.88907951133949
 30
0.0
 11
50.1845496230153
 21
94.11092778071648
 31
0.0
  0
LINE
  5
9C2
330
1F
100
AcDbEntity
  8
0
100
AcDbLine
 10
37.33099623242196
 20
79.35355703662174
 30
0.0
 11
41.18454962301528
 21
81.00000364602847
 31
0.0
  0
LINE
  5
9C3
330
1F
100
AcDbEntity
  8
0
100
AcDbLine
 10
38.13168248187526
 20
64.05014597384949
 30
0.0
 11
48.76385033472637
 21
64.61302544841242
 31
0.0
  0
LINE
  5
9C4
330
1F
100
AcDbEntity
  8
0
100
AcDbLine
 10
38.13168248187526
 20
61.94986131820649
 30
0.0
 11
48.76385033472637
 21
61.38698184364347
 31
0.0
  0
LINE
  5
9C5
330
1F
100
AcDbEntity
  8
0
100
AcDbLine
 10
38.13168248187526
 20
57.05014597384947
 30
0.0
 11
48.76385033472637
 21
57.61302544841242
 31
0.0
  0
LINE
  5
9C6
330
1F
100
AcDbEntity
  8
0
100
AcDbLine
 10
38.13168248187526
 20
92.05014597384948
 30
0.0
 11
48.76385033472637
 21
92.61302544841241
 31
0.0
  0
LINE
  5
9C7
330
1F
100
AcDbEntity
  8
0
100
AcDbLine
 10
38.13168248187526
 20
89.94986131820644
 30
0.0
 11
48.76385033472637
 21
89.38698184364346
 31
0.0
  0
LINE
  5
9C8
330
1F
100
AcDbEntity
  8
0
100
AcDbLine
 10
38.13168248187526
 20
85.05014597384947
 30
0.0
 11
48.76385033472637
 21
85.61302544841241
 31
0.0
  0
LINE
  5
9C9
330
1F
100
AcDbEntity
  8
0
100
AcDbLine
 10
38.13168248187526
 20
82.94986131820648
 30
0.0
 11
48.76385033472637
 21
82.38698184364345
 31
0.0
  0
LINE
  5
9CA
330
1F
100
AcDbEntity
  8
0
100
AcDbLine
 10
38.13168248187526
 20
78.0501459738495
 30
0.0
 11
48.76385033472637
 21
78.61302544841241
 31
0.0
  0
LINE
  5
9CB
330
1F
100
AcDbEntity
  8
0
100
AcDbLine
 10
38.13168248187526
 20
75.94986131820649
 30
0.0
 11
48.76385033472637
 21
75.38698184364346
 31
0.0
  0
LINE
  5
9CC
330
1F
100
AcDbEntity
  8
0
100
AcDbLine
 10
38.13168248187526
 20
71.0501459738495
 30
0.0
 11
48.76385033472637
 21
71.61302544841241
 31
0.0
  0
LINE
  5
9CD
330
1F
100
AcDbEntity
  8
0
100
AcDbLine
 10
38.13168248187526
 20
68.94986131820648
 30
0.0
 11
48.76385033472637
 21
68.38698184364345
 31
0.0
  0
LINE
  5
9CE
330
1F
100
AcDbEntity
  8
0
100
AcDbLine
 10
37.1845496230153
 20
63.05154441898042
 30
0.0
 11
37.1845496230153
 21
62.94846287307546
 31
0.0
  0
ARC
  5
9CF
330
1F
100
AcDbEntity
  8
0
100
AcDbCircle
 10
38.1845496230153
 20
63.05154441898042
 30
0.0
 40
1.0
100
AcDbArc
 50
93.03047684586102
 51
180.0
  0
ARC
  5
9D0
330
1F
100
AcDbEntity
  8
0
100
AcDbCircle
 10
38.1845496230153
 20
62.94846287307546
 30
0.0
 40
1.0
100
AcDbArc
 50
180.0
 51
266.9695231541389
  0
LINE
  5
9D1
330
1F
100
AcDbEntity
  8
0
100
AcDbLine
 10
37.1845496230153
 20
70.05154441898041
 30
0.0
 11
37.1845496230153
 21
69.94846287307545
 31
0.0
  0
ARC
  5
9D2
330
1F
100
AcDbEntity
  8
0
100
AcDbCircle
 10
38.1845496230153
 20
70.05154441898041
 30
0.0
 40
1.0
100
AcDbArc
 50
93.03047684586102
 51
180.0
  0
ARC
  5
9D3
330
1F
100
AcDbEntity
  8
0
100
AcDbCircle
 10
38.1845496230153
 20
69.94846287307545
 30
0.0
 40
1.0
100
AcDbArc
 50
180.0
 51
266.9695231541389
  0
ARC
  5
9D4
330
1F
100
AcDbEntity
  8
0
100
AcDbCircle
 10
37.6845496230153
 20
79.00000364602845
 30
0.0
 40
0.5
100
AcDbArc
 50
134.9999999999726
 51
180.0
  0
LINE
  5
9D5
330
1F
100
AcDbEntity
  8
0
100
AcDbLine
 10
37.1845496230153
 20
77.05154441898041
 30
0.0
 11
37.1845496230153
 21
76.94846287307545
 31
0.0
  0
ARC
  5
9D6
330
1F
100
AcDbEntity
  8
0
100
AcDbCircle
 10
38.1845496230153
 20
77.05154441898041
 30
0.0
 40
1.0
100
AcDbArc
 50
93.03047684586102
 51
180.0
  0
ARC
  5
9D7
330
1F
100
AcDbEntity
  8
0
100
AcDbCircle
 10
38.1845496230153
 20
76.94846287307545
 30
0.0
 40
1.0
100
AcDbArc
 50
180.0
 51
266.9695231541389
  0
LINE
  5
9D8
330
1F
100
AcDbEntity
  8
0
100
AcDbLine
 10
37.1845496230153
 20
84.05154441898044
 30
0.0
 11
37.1845496230153
 21
83.94846287307546
 31
0.0
  0
ARC
  5
9D9
330
1F
100
AcDbEntity
  8
0
100
AcDbCircle
 10
38.1845496230153
 20
84.05154441898044
 30
0.0
 40
1.0
100
AcDbArc
 50
93.03047684586102
 51
180.0
  0
ARC
  5
9DA
330
1F
100
AcDbEntity
  8
0
100
AcDbCircle
 10
38.1845496230153
 20
83.94846287307546
 30
0.0
 40
1.0
100
AcDbArc
 50
180.0
 51
266.9695231541389
  0
LINE
  5
9DB
330
1F
100
AcDbEntity
  8
0
100
AcDbLine
 10
37.1845496230153
 20
91.05154441898042
 30
0.0
 11
37.1845496230153
 21
90.94846287307543
 31
0.0
  0
ARC
  5
9DC
330
1F
100
AcDbEntity
  8
0
100
AcDbCircle
 10
38.1845496230153
 20
91.05154441898042
 30
0.0
 40
1.0
100
AcDbArc
 50
93.03047684586102
 51
180.0
  0
ARC
  5
9DD
330
1F
100
AcDbEntity
  8
0
100
AcDbCircle
 10
38.1845496230153
 20
90.94846287307543
 30
0.0
 40
1.0
100
AcDbArc
 50
180.0
 51
266.9695231541389
  0
LINE
  5
9DE
330
1F
100
AcDbEntity
  8
0
  6
CONTINUOUS
100
AcDbLine
 10
41.18454962301528
 20
75.78823894014604
 30
0.0
 11
41.18454962301528
 21
71.21176835190991
 31
0.0
  0
LINE
  5
9DF
330
1F
100
AcDbEntity
  8
0
  6
CONTINUOUS
100
AcDbLine
 10
43.1845496230153
 20
75.68235658720481
 30
0.0
 11
43.1845496230153
 21
71.31765070485112
 31
0.0
  0
LINE
  5
9E0
330
1F
100
AcDbEntity
  8
0
100
AcDbLine
 10
39.1845496230153
 20
71.10588599896868
 30
0.0
 11
39.1845496230153
 21
75.89412129308728
 31
0.0
  0
LINE
  5
9E1
330
1F
100
AcDbEntity
  8
0
100
AcDbLine
 10
39.18454962301564
 20
75.89412129308725
 30
0.0
 11
39.18454962301552
 21
71.1058859989687
 31
0.0
  0
ARC
  5
9E2
330
1F
100
AcDbEntity
  8
0
100
AcDbCircle
 10
48.6845496230153
 20
73.88907951133949
 30
0.0
 40
1.5
100
AcDbArc
 50
0.0
 51
86.96952315413893
  0
LINE
  5
9E3
330
1F
100
AcDbEntity
  8
0
  6
CONTINUOUS
100
AcDbLine
 10
41.18454962301528
 20
61.78823894014604
 30
0.0
 11
41.18454962301528
 21
57.21176835190989
 31
0.0
  0
LINE
  5
9E4
330
1F
100
AcDbEntity
  8
0
  6
CONTINUOUS
100
AcDbLine
 10
41.18454962301528
 20
68.78823894014606
 30
0.0
 11
41.18454962301528
 21
64.21176835190991
 31
0.0
  0
LINE
  5
9E5
330
1F
100
AcDbEntity
  8
0
  6
CONTINUOUS
100
AcDbLine
 10
43.1845496230153
 20
68.68235658720481
 30
0.0
 11
43.1845496230153
 21
64.31765070485113
 31
0.0
  0
LINE
  5
9E6
330
1F
100
AcDbEntity
  8
0
100
AcDbLine
 10
39.1845496230153
 20
61.89412129308728
 30
0.0
 11
39.1845496230153
 21
57.10588599896872
 31
0.0
  0
LINE
  5
9E7
330
1F
100
AcDbEntity
  8
0
100
AcDbLine
 10
39.1845496230153
 20
64.1058859989687
 30
0.0
 11
39.1845496230153
 21
68.89412129308728
 31
0.0
  0
LINE
  5
9E8
330
1F
100
AcDbEntity
  8
0
  6
CONTINUOUS
100
AcDbLine
 10
43.1845496230153
 20
61.6823565872048
 30
0.0
 11
43.1845496230153
 21
57.31765070485113
 31
0.0
  0
LINE
  5
9E9
330
1F
100
AcDbEntity
  8
0
100
AcDbLine
 10
39.1845496230153
 20
57.10588599896872
 30
0.0
 11
39.1845496230153
 21
61.89412129308728
 31
0.0
  0
LINE
  5
9EA
330
1F
100
AcDbEntity
  8
0
100
AcDbLine
 10
39.18454962301552
 20
68.89412129308728
 30
0.0
 11
39.1845496230153
 21
64.1058859989687
 31
0.0
  0
LINE
  5
9EB
330
1F
100
AcDbEntity
  8
0
100
AcDbLine
 10
50.1845496230153
 20
59.88907951133949
 30
0.0
 11
50.1845496230153
 21
59.11092778071649
 31
0.0
  0
ARC
  5
9EC
330
1F
100
AcDbEntity
  8
0
100
AcDbCircle
 10
48.6845496230153
 20
59.88907951133949
 30
0.0
 40
1.5
100
AcDbArc
 50
0.0
 51
86.96952315413893
  0
ARC
  5
9ED
330
1F
100
AcDbEntity
  8
0
100
AcDbCircle
 10
48.6845496230153
 20
59.11092778071649
 30
0.0
 40
1.5
100
AcDbArc
 50
273.030476845861
 51
0.0
  0
LINE
  5
9EE
330
1F
100
AcDbEntity
  8
0
100
AcDbLine
 10
50.1845496230153
 20
66.88907951133946
 30
0.0
 11
50.1845496230153
 21
66.11092778071649
 31
0.0
  0
ARC
  5
9EF
330
1F
100
AcDbEntity
  8
0
100
AcDbCircle
 10
48.6845496230153
 20
66.88907951133946
 30
0.0
 40
1.5
100
AcDbArc
 50
0.0
 51
86.96952315413893
  0
LINE
  5
9F0
330
1F
100
AcDbEntity
  8
0
100
AcDbLine
 10
50.1845496230153
 20
73.88907951133949
 30
0.0
 11
50.1845496230153
 21
73.1109277807165
 31
0.0
  0
ARC
  5
9F1
330
1F
100
AcDbEntity
  8
0
100
AcDbCircle
 10
48.6845496230153
 20
73.1109277807165
 30
0.0
 40
1.5
100
AcDbArc
 50
273.030476845861
 51
0.0
  0
ARC
  5
9F2
330
1F
100
AcDbEntity
  8
0
100
AcDbCircle
 10
48.6845496230153
 20
66.11092778071649
 30
0.0
 40
1.5
100
AcDbArc
 50
273.030476845861
 51
0.0
  0
LWPOLYLINE
  5
9F3
330
1F
100
AcDbEntity
  8
0
100
AcDbPolyline
 90
        3
 70
     0
 43
0.0
 10
50.05450279800185
 20
86.50000364602846
 10
43.1845496230153
 20
86.50000364602846
 10
43.1845496230153
 20
85.31765070485112
  0
LINE
  5
9F4
330
1F
100
AcDbEntity
  8
0
  6
CONTINUOUS
100
AcDbLine
 10
41.18454962301528
 20
79.00000364602845
 30
0.0
 11
41.18454962301528
 21
78.21176835190991
 31
0.0
  0
LINE
  5
9F5
330
1F
100
AcDbEntity
  8
0
  6
CONTINUOUS
100
AcDbLine
 10
43.1845496230153
 20
82.68235658720481
 30
0.0
 11
43.1845496230153
 21
78.31765070485111
 31
0.0
  0
LINE
  5
9F6
330
1F
100
AcDbEntity
  8
0
100
AcDbLine
 10
39.1845496230153
 20
78.10588599896869
 30
0.0
 11
39.1845496230153
 21
78.14549538182439
 31
0.0
  0
LINE
  5
9F7
330
1F
100
AcDbEntity
  8
0
100
AcDbLine
 10
41.18454962301528
 20
82.78823894014605
 30
0.0
 11
41.18454962301528
 21
81.00000364602847
 31
0.0
  0
LINE
  5
9F8
330
1F
100
AcDbEntity
  8
0
100
AcDbLine
 10
43.1845496230153
 20
85.31765070485112
 30
0.0
 11
43.1845496230153
 21
86.00000364602847
 31
0.0
  0
LINE
  5
9F9
330
1F
100
AcDbEntity
  8
0
100
AcDbLine
 10
39.18454962301575
 20
78.1454953818246
 30
0.0
 11
39.18454962301564
 21
78.1058859989687
 31
0.0
  0
LINE
  5
9FA
330
1F
100
AcDbEntity
  8
0
100
AcDbLine
 10
39.18454962301575
 20
78.1454953818246
 30
0.0
 11
41.18454962301528
 21
79.00000364602845
 31
0.0
  0
ARC
  5
9FB
330
1F
100
AcDbEntity
  8
0
100
AcDbCircle
 10
40.68454962301554
 20
81.00000364602847
 30
0.0
 40
0.5
100
AcDbArc
 50
0.0
 51
90.0
  0
ARC
  5
9FC
330
1F
100
AcDbEntity
  8
0
100
AcDbCircle
 10
39.68454962301553
 20
81.00000364602847
 30
0.0
 40
0.5
100
AcDbArc
 50
90.0
 51
180.0
  0
LINE
  5
9FD
330
1F
100
AcDbEntity
  8
0
100
AcDbLine
 10
39.18454962301552
 20
81.00000364602847
 30
0.0
 11
39.18454962301575
 21
80.14549538182462
 31
0.0
  0
LINE
  5
9FE
330
1F
100
AcDbEntity
  8
0
100
AcDbLine
 10
40.68454962301554
 20
81.50000364602844
 30
0.0
 11
39.68454962301553
 21
81.50000364602844
 31
0.0
  0
ARC
  5
9FF
330
1F
100
AcDbEntity
  8
0
100
AcDbCircle
 10
41.6845496230153
 20
79.00000364602845
 30
0.0
 40
0.5
100
AcDbArc
 50
180.0
 51
270.0
  0
ARC
  5
A00
330
1F
100
AcDbEntity
  8
0
100
AcDbCircle
 10
42.68454962301553
 20
79.00000364602845
 30
0.0
 40
0.5
100
AcDbArc
 50
270.0
 51
0.0
  0
ARC
  5
A01
330
1F
100
AcDbEntity
  8
0
100
AcDbCircle
 10
42.6845496230153
 20
86.00000364602847
 30
0.0
 40
0.5
100
AcDbArc
 50
0.0
 51
90.0
  0
ARC
  5
A02
330
1F
100
AcDbEntity
  8
0
100
AcDbCircle
 10
41.6845496230153
 20
86.00000364602847
 30
0.0
 40
0.5
100
AcDbArc
 50
90.0
 51
180.0
  0
LINE
  5
A03
330
1F
100
AcDbEntity
  8
0
100
AcDbLine
 10
41.18454962301528
 20
86.00000364602847
 30
0.0
 11
41.18454962301528
 21
85.2117683519099
 31
0.0
  0
LINE
  5
A04
330
1F
100
AcDbEntity
  8
0
100
AcDbLine
 10
42.6845496230153
 20
86.50000364602846
 30
0.0
 11
41.6845496230153
 21
86.50000364602846
 31
0.0
  0
LINE
  5
A05
330
1F
100
AcDbEntity
  8
0
100
AcDbLine
 10
43.18454962301553
 20
79.00000364602845
 30
0.0
 11
43.1845496230153
 21
82.68235658720476
 31
0.0
  0
LINE
  5
A06
330
1F
100
AcDbEntity
  8
0
100
AcDbLine
 10
41.6845496230153
 20
78.50000364602845
 30
0.0
 11
42.68454962301553
 21
78.50000364602845
 31
0.0
  0
LINE
  5
A07
330
1F
100
AcDbEntity
  8
0
  6
CONTINUOUS
100
AcDbLine
 10
43.1845496230153
 20
86.50000364602846
 30
0.0
 11
43.1845496230153
 21
85.31765070485112
 31
0.0
  0
LINE
  5
A08
330
1F
100
AcDbEntity
  8
0
100
AcDbLine
 10
50.1845496230153
 20
80.88907951133945
 30
0.0
 11
50.1845496230153
 21
80.11092778071651
 31
0.0
  0
ARC
  5
A09
330
1F
100
AcDbEntity
  8
0
100
AcDbCircle
 10
48.6845496230153
 20
80.11092778071651
 30
0.0
 40
1.5
100
AcDbArc
 50
273.030476845861
 51
0.0
  0
LINE
  5
A0A
330
1F
100
AcDbEntity
  8
0
100
AcDbLine
 10
49.1845496230153
 20
86.50000364602846
 30
0.0
 11
49.1845496230153
 21
89.30329307371248
 31
0.0
  0
LINE
  5
A0B
330
1F
100
AcDbEntity
  8
0
100
AcDbLine
 10
47.98454962301627
 20
89.04896612034944
 30
0.0
 11
49.1845496230153
 21
89.01754301446651
 31
0.0
  0
LINE
  5
A0C
330
1F
100
AcDbEntity
  8
0
100
AcDbLine
 10
50.1845496230153
 20
87.88907951133948
 30
0.0
 11
50.1845496230153
 21
87.1109277807165
 31
0.0
  0
ARC
  5
A0D
330
1F
100
AcDbEntity
  8
0
100
AcDbCircle
 10
48.6845496230153
 20
87.1109277807165
 30
0.0
 40
1.5
100
AcDbArc
 50
273.030476845861
 51
0.0
  0
ARC
  5
A0E
330
1F
100
AcDbEntity
  8
0
100
AcDbCircle
 10
48.6845496230153
 20
94.11092778071648
 30
0.0
 40
1.5
100
AcDbArc
 50
273.030476845861
 51
0.0
  0
LINE
  5
A0F
330
1F
100
AcDbEntity
  8
0
100
AcDbLine
 10
47.98454962301627
 20
89.42823894014543
 30
0.0
 11
47.98454962301627
 21
89.04896612034944
 31
0.0
  0
ARC
  5
A10
330
1F
100
AcDbEntity
  8
0
100
AcDbCircle
 10
48.6845496230153
 20
87.88907951133948
 30
0.0
 40
1.5
100
AcDbArc
 50
0.0
 51
86.96952315413893
  0
ARC
  5
A11
330
1F
100
AcDbEntity
  8
0
100
AcDbCircle
 10
48.6845496230153
 20
80.88907951133945
 30
0.0
 40
1.5
100
AcDbArc
 50
0.0
 51
86.96952315413893
  0
LINE
  5
A12
330
1F
100
AcDbEntity
  8
0
100
AcDbLine
 10
38.13168248187526
 20
96.94986131820652
 30
0.0
 11
48.76385033472637
 21
96.38698184364344
 31
0.0
  0
LINE
  5
A13
330
1F
100
AcDbEntity
  8
0
100
AcDbLine
 10
37.65838164489422
 20
104.3251711620082
 30
0.0
 11
48.76305355738033
 21
103.7431999674079
 31
0.0
  0
LINE
  5
A14
330
1F
100
AcDbEntity
  8
0
100
AcDbLine
 10
38.13168248187526
 20
99.05014597384948
 30
0.0
 11
48.76385033472637
 21
99.61302544841242
 31
0.0
  0
LINE
  5
A15
330
1F
100
AcDbEntity
  8
0
100
AcDbLine
 10
37.1845496230153
 20
104.8244859293853
 30
0.0
 11
37.1845496230153
 21
120.5286570577822
 31
0.0
  0
LINE
  5
A16
330
1F
100
AcDbEntity
  8
0
100
AcDbLine
 10
37.1845496230153
 20
98.05154441898041
 30
0.0
 11
37.1845496230153
 21
97.94846287307542
 31
0.0
  0
POINT
  5
A17
330
1F
100
AcDbEntity
  8
0
100
AcDbPoint
 10
37.1845496230153
 20
104.3500036460273
 30
0.0
  0
ARC
  5
A18
330
1F
100
AcDbEntity
  8
0
100
AcDbCircle
 10
37.6845496230153
 20
104.8244859293853
 30
0.0
 40
0.5
100
AcDbArc
 50
180.0
 51
266.9999999999943
  0
ARC
  5
A19
330
1F
100
AcDbEntity
  8
0
100
AcDbCircle
 10
38.1845496230153
 20
98.05154441898041
 30
0.0
 40
1.0
100
AcDbArc
 50
93.03047684586102
 51
180.0
  0
ARC
  5
A1A
330
1F
100
AcDbEntity
  8
0
100
AcDbCircle
 10
38.1845496230153
 20
97.94846287307542
 30
0.0
 40
1.0
100
AcDbArc
 50
180.0
 51
266.9695231541389
  0
ARC
  5
A1B
330
1F
100
AcDbEntity
  8
0
100
AcDbCircle
 10
48.6845496230153
 20
94.88907951133949
 30
0.0
 40
1.5
100
AcDbArc
 50
0.0
 51
86.96952315413893
  0
LINE
  5
A1C
330
1F
100
AcDbEntity
  8
0
100
AcDbLine
 10
47.98454962301627
 20
103.783999629771
 30
0.0
 11
47.98454962301627
 21
99.5660076622844
 31
0.0
  0
LINE
  5
A1D
330
1F
100
AcDbEntity
  8
0
100
AcDbLine
 10
50.1845496230153
 20
102.2452556652763
 30
0.0
 11
50.1845496230153
 21
101.1109277807163
 31
0.0
  0
ARC
  5
A1E
330
1F
100
AcDbEntity
  8
0
100
AcDbCircle
 10
48.6845496230153
 20
102.2452556652763
 30
0.0
 40
1.5
100
AcDbArc
 50
0.0
 51
87.00000000000093
  0
ARC
  5
A1F
330
1F
100
AcDbEntity
  8
0
100
AcDbCircle
 10
48.6845496230153
 20
101.1109277807163
 30
0.0
 40
1.5
100
AcDbArc
 50
273.030476845861
 51
0.0
  0
LINE
  5
A21
330
1F
100
AcDbEntity
  8
0
100
AcDbLine
 10
56.1845496230153
 20
110.4710227039022
 30
0.0
 11
56.1845496230153
 21
83.00000364602842
 31
0.0
  0
LINE
  5
A22
330
1F
100
AcDbEntity
  8
0
100
AcDbLine
 10
57.1845496230153
 20
82.97381772446042
 30
0.0
 11
57.1845496230153
 21
109.6057371511573
 31
0.0
  0
LINE
  5
A2F
330
1F
100
AcDbEntity
  8
0
100
AcDbLine
 10
59.28454962301522
 20
81.00000364602845
 30
0.0
 11
59.28454962301522
 21
73.00000364602843
 31
0.0
  0
LINE
  5
A30
330
1F
100
AcDbEntity
  8
0
100
AcDbLine
 10
59.88454962301535
 20
81.00000364602845
 30
0.0
 11
59.88454962301535
 21
73.00000364602843
 31
0.0
  0
LINE
  5
A31
330
1F
100
AcDbEntity
  8
0
100
AcDbLine
 10
60.6845496230153
 20
81.00000364602845
 30
0.0
 11
60.6845496230153
 21
73.00000364602843
 31
0.0
  0
LINE
  5
A32
330
1F
100
AcDbEntity
  8
0
100
AcDbLine
 10
59.18454962301427
 20
81.47381772445944
 30
0.0
 11
59.18454962301427
 21
72.47381772445947
 31
0.0
  0
LINE
  5
A33
330
1F
100
AcDbEntity
  8
0
100
AcDbLine
 10
60.88454962301418
 20
81.47381772445944
 30
0.0
 11
60.88454962301418
 21
72.47381772445947
 31
0.0
  0
LINE
  5
A34
330
1F
100
AcDbEntity
  8
0
100
AcDbLine
 10
54.88454962301535
 20
83.00000364602842
 30
0.0
 11
54.88454962301535
 21
71.10000364602744
 31
0.0
  0
LINE
  5
A35
330
1F
100
AcDbEntity
  8
0
100
AcDbLine
 10
55.6845496230153
 20
83.00000364602842
 30
0.0
 11
55.6845496230153
 21
71.00000364602845
 31
0.0
  0
LINE
  5
A36
330
1F
100
AcDbEntity
  8
0
100
AcDbLine
 10
56.1845496230153
 20
71.00000364602742
 30
0.0
 11
56.1845496230153
 21
83.00000364602842
 31
0.0
  0
LINE
  5
A37
330
1F
100
AcDbEntity
  8
0
100
AcDbLine
 10
56.1845496230153
 20
71.00000364602845
 30
0.0
 11
54.88454962301535
 21
71.00000364602845
 31
0.0
  0
LINE
  5
A38
330
1F
100
AcDbEntity
  8
0
100
AcDbLine
 10
57.1845496230153
 20
70.97381772445945
 30
0.0
 11
56.1845496230153
 21
70.97381772445945
 31
0.0
  0
LINE
  5
A39
330
1F
100
AcDbEntity
  8
0
100
AcDbLine
 10
60.6845496230153
 20
73.00000364602843
 30
0.0
 11
59.18454962301427
 21
73.00000364602843
 31
0.0
  0
LINE
  5
A3A
330
1F
100
AcDbEntity
  8
0
100
AcDbLine
 10
60.88454962301418
 20
72.47381772445947
 30
0.0
 11
59.18454962301427
 21
72.47381772445947
 31
0.0
  0
LINE
  5
A3B
330
1F
100
AcDbEntity
  8
0
100
AcDbLine
 10
60.6845496230153
 20
81.00000364602845
 30
0.0
 11
59.18454962301427
 21
81.00000364602845
 31
0.0
  0
LINE
  5
A3C
330
1F
100
AcDbEntity
  8
0
100
AcDbLine
 10
56.1845496230153
 20
83.00000364602842
 30
0.0
 11
54.88454962301535
 21
83.00000364602842
 31
0.0
  0
LINE
  5
A3D
330
1F
100
AcDbEntity
  8
0
100
AcDbLine
 10
60.88454962301418
 20
81.47381772445944
 30
0.0
 11
59.18454962301427
 21
81.47381772445944
 31
0.0
  0
LINE
  5
A3E
330
1F
100
AcDbEntity
  8
0
100
AcDbLine
 10
57.1845496230153
 20
82.97381772446042
 30
0.0
 11
56.1845496230153
 21
82.97381772446042
 31
0.0
  0
LINE
  5
A47
330
1F
100
AcDbEntity
  8
0
100
AcDbLine
 10
65.28454962301521
 20
121.9738177244593
 30
0.0
 11
73.88454962301442
 21
121.9738177244593
 31
0.0
  0
LINE
  5
A48
330
1F
100
AcDbEntity
  8
0
100
AcDbLine
 10
66.38454962301432
 20
126.2738177244594
 30
0.0
 11
72.2845496230143
 21
126.2738177244594
 31
0.0
  0
LINE
  5
A49
330
1F
100
AcDbEntity
  8
0
100
AcDbLine
 10
66.78454962301429
 20
127.5738177244592
 30
0.0
 11
76.12954962301433
 21
127.5738177244592
 31
0.0
  0
LINE
  5
A4A
330
1F
100
AcDbEntity
  8
0
100
AcDbLine
 10
59.1845496230153
 20
111.0000036460282
 30
0.0
 11
59.1845496230153
 21
120.8952599597512
 31
0.0
  0
LINE
  5
A4B
330
1F
100
AcDbEntity
  8
0
100
AcDbLine
 10
60.1845496230153
 20
120.9738177244593
 30
0.0
 11
60.1845496230153
 21
110.1347180932822
 31
0.0
  0
LINE
  5
A4C
330
1F
100
AcDbEntity
  8
0
100
AcDbLine
 10
59.1845496230153
 20
120.4738177244592
 30
0.0
 11
59.1845496230153
 21
110.9738177244603
 31
0.0
  0
LINE
  5
A4D
330
1F
100
AcDbEntity
  8
0
100
AcDbLine
 10
59.1845496230153
 20
111.0000036460282
 30
0.0
 11
56.1845496230153
 21
110.4710227039022
 31
0.0
  0
LINE
  5
A4E
330
1F
100
AcDbEntity
  8
0
100
AcDbLine
 10
60.1845496230153
 20
110.1347180932822
 30
0.0
 11
57.1845496230153
 21
109.6057371511573
 31
0.0
  0
LINE
  5
A4F
330
1F
100
AcDbEntity
  8
0
100
AcDbLine
 10
56.1845496230153
 20
110.444836782334
 30
0.0
 11
59.1845496230153
 21
110.9738177244603
 31
0.0
  0
LINE
  5
A50
330
1F
100
AcDbEntity
  8
0
100
AcDbLine
 10
55.1845496230153
 20
121.000003646028
 30
0.0
 11
59.1845496230153
 21
120.8952599597512
 31
0.0
  0
LINE
  5
A51
330
1F
100
AcDbEntity
  8
0
100
AcDbLine
 10
59.1845496230153
 20
120.4738177244592
 30
0.0
 11
60.1845496230153
 21
120.4738177244592
 31
0.0
  0
LINE
  5
A52
330
1F
100
AcDbEntity
  8
0
100
AcDbLine
 10
57.1845496230153
 20
120.9738177244593
 30
0.0
 11
57.1845496230153
 21
120.9476318028902
 31
0.0
  0
LINE
  5
A53
330
1F
100
AcDbEntity
  8
0
100
AcDbLine
 10
57.1845496230153
 20
120.9738177244593
 30
0.0
 11
57.1845496230153
 21
120.9476318028894
 31
0.0
  0
LINE
  5
A54
330
1F
100
AcDbEntity
  8
0
100
AcDbLine
 10
65.28454962301521
 20
120.9738177244593
 30
0.0
 11
65.28454962301521
 21
121.9738177244593
 31
0.0
  0
LINE
  5
A55
330
1F
100
AcDbEntity
  8
0
100
AcDbLine
 10
66.38454962301432
 20
121.9738177244593
 30
0.0
 11
66.38454962301432
 21
126.2738177244594
 31
0.0
  0
LINE
  5
A56
330
1F
100
AcDbEntity
  8
0
100
AcDbLine
 10
66.78454962301429
 20
126.2738177244592
 30
0.0
 11
66.78454962301429
 21
127.5738177244592
 31
0.0
  0
LINE
  5
A57
330
1F
100
AcDbEntity
  8
0
100
AcDbLine
 10
76.38454962301534
 20
107.4738177244593
 30
0.0
 11
76.38454962301534
 21
115.4738177244592
 31
0.0
  0
LINE
  5
A58
330
1F
100
AcDbEntity
  8
0
100
AcDbLine
 10
79.38454962301534
 20
105.4738177244592
 30
0.0
 11
79.38454962301534
 21
117.4738177244592
 31
0.0
  0
LINE
  5
A59
330
1F
100
AcDbEntity
  8
0
100
AcDbLine
 10
79.38454962301534
 20
105.4738177244592
 30
0.0
 11
71.1845496230153
 21
105.4738177244592
 31
0.0
  0
LINE
  5
A5A
330
1F
100
AcDbEntity
  8
0
100
AcDbLine
 10
74.38454962301534
 20
109.4738177244593
 30
0.0
 11
74.38454962301534
 21
107.4738177244593
 31
0.0
  0
LINE
  5
A5B
330
1F
100
AcDbEntity
  8
0
100
AcDbLine
 10
74.38454962301534
 20
107.4738177244593
 30
0.0
 11
76.38454962301534
 21
107.4738177244593
 31
0.0
  0
LINE
  5
A5C
330
1F
100
AcDbEntity
  8
0
100
AcDbLine
 10
71.1845496230153
 20
109.4738177244593
 30
0.0
 11
71.1845496230153
 21
105.4738177244592
 31
0.0
  0
LINE
  5
A5D
330
1F
100
AcDbEntity
  8
0
100
AcDbLine
 10
71.1845496230153
 20
109.4738177244593
 30
0.0
 11
74.38454962301534
 21
109.4738177244593
 31
0.0
  0
LINE
  5
A5F
330
1F
100
AcDbEntity
  8
0
100
AcDbLine
 10
71.1845496230153
 20
117.4738177244592
 30
0.0
 11
79.38454962301534
 21
117.4738177244592
 31
0.0
  0
LINE
  5
A60
330
1F
100
AcDbEntity
  8
0
100
AcDbLine
 10
73.88454962301442
 20
121.9738177244593
 30
0.0
 11
73.88454962301442
 21
120.9738177244593
 31
0.0
  0
LINE
  5
A61
330
1F
100
AcDbEntity
  8
0
100
AcDbLine
 10
72.2845496230143
 20
126.2738177244594
 30
0.0
 11
72.2845496230143
 21
121.9738177244593
 31
0.0
  0
LINE
  5
A62
330
1F
100
AcDbEntity
  8
0
100
AcDbLine
 10
76.12954962301433
 20
127.5738177244592
 30
0.0
 11
76.12954962301433
 21
120.9738177244593
 31
0.0
  0
LINE
  5
A63
330
1F
100
AcDbEntity
  8
0
100
AcDbLine
 10
74.38454962301534
 20
113.4738177244593
 30
0.0
 11
74.38454962301534
 21
115.4738177244592
 31
0.0
  0
LINE
  5
A64
330
1F
100
AcDbEntity
  8
0
100
AcDbLine
 10
74.38454962301534
 20
115.4738177244592
 30
0.0
 11
76.38454962301534
 21
115.4738177244592
 31
0.0
  0
LINE
  5
A65
330
1F
100
AcDbEntity
  8
0
100
AcDbLine
 10
71.1845496230153
 20
113.4738177244593
 30
0.0
 11
71.1845496230153
 21
117.4738177244592
 31
0.0
  0
LINE
  5
A66
330
1F
100
AcDbEntity
  8
0
100
AcDbLine
 10
71.1845496230153
 20
113.4738177244593
 30
0.0
 11
74.38454962301534
 21
113.4738177244593
 31
0.0
  0
LINE
  5
A6A
330
1F
100
AcDbEntity
  8
0
100
AcDbLine
 10
108.1845496230152
 20
21.97381772445946
 30
0.0
 11
108.1845496230152
 21
103.9738177244592
 31
0.0
  0
LINE
  5
A6B
330
1F
100
AcDbEntity
  8
0
100
AcDbLine
 10
109.1845496230152
 20
3.585963881291426
 30
0.0
 11
109.1845496230152
 21
120.9738177244593
 31
0.0
  0
LINE
  5
A6C
330
1F
100
AcDbEntity
  8
0
100
AcDbLine
 10
109.1845496230152
 20
0.0000036460284533
 30
0.0
 11
109.1845496230152
 21
3.585963881291426
 31
0.0
  0
LINE
  5
A74
330
1F
100
AcDbEntity
  8
0
100
AcDbLine
 10
106.1845496230152
 20
33.97381772445946
 30
0.0
 11
106.1845496230152
 21
35.97381772445945
 31
0.0
  0
LINE
  5
A75
330
1F
100
AcDbEntity
  8
0
100
AcDbLine
 10
107.1845496230152
 20
33.97381772445946
 30
0.0
 11
107.1845496230152
 21
35.97381772445945
 31
0.0
  0
LINE
  5
A76
330
1F
100
AcDbEntity
  8
0
100
AcDbLine
 10
106.1845496230152
 20
26.97381772445946
 30
0.0
 11
106.1845496230152
 21
28.97381772445946
 31
0.0
  0
LINE
  5
A77
330
1F
100
AcDbEntity
  8
0
100
AcDbLine
 10
107.1845496230152
 20
26.97381772445946
 30
0.0
 11
107.1845496230152
 21
28.97381772445946
 31
0.0
  0
LINE
  5
A79
330
1F
100
AcDbEntity
  8
0
100
AcDbLine
 10
106.1845496230152
 20
40.97381772445944
 30
0.0
 11
106.1845496230152
 21
42.97381772445945
 31
0.0
  0
LINE
  5
A7A
330
1F
100
AcDbEntity
  8
0
100
AcDbLine
 10
107.1845496230152
 20
40.97381772445944
 30
0.0
 11
107.1845496230152
 21
42.97381772445945
 31
0.0
  0
LINE
  5
A9D
330
1F
100
AcDbEntity
  8
0
100
AcDbLine
 10
92.33454962301541
 20
124.3738177244594
 30
0.0
 11
98.63454962301537
 21
124.3738177244594
 31
0.0
  0
LINE
  5
A9E
330
1F
100
AcDbEntity
  8
0
100
AcDbLine
 10
92.33454962301541
 20
120.9738177244593
 30
0.0
 11
92.33454962301541
 21
124.3738177244594
 31
0.0
  0
LINE
  5
A9F
330
1F
100
AcDbEntity
  8
0
100
AcDbLine
 10
98.63454962301537
 20
124.3738177244594
 30
0.0
 11
98.63454962301537
 21
120.9738177244593
 31
0.0
  0
LINE
  5
AA5
330
1F
100
AcDbEntity
  8
0
100
AcDbLine
 10
57.1845496230153
 20
120.9738177244593
 30
0.0
 11
109.1845496230152
 21
120.9738177244593
 31
0.0
  0
LINE
  5
AA6
330
1F
100
AcDbEntity
  8
0
100
AcDbLine
 10
92.33454962301541
 20
120.9738177244593
 30
0.0
 11
92.33454962301541
 21
124.3738177244594
 31
0.0
  0
LINE
  5
AA7
330
1F
100
AcDbEntity
  8
0
100
AcDbLine
 10
92.33454962301541
 20
124.3738177244594
 30
0.0
 11
98.63454962301537
 21
124.3738177244594
 31
0.0
  0
LINE
  5
AA8
330
1F
100
AcDbEntity
  8
0
100
AcDbLine
 10
98.63454962301537
 20
124.3738177244594
 30
0.0
 11
98.63454962301537
 21
120.9738177244593
 31
0.0
  0
LINE
  5
AFB
330
1F
100
AcDbEntity
  8
2_カバ_
  6
DASHDOT
100
AcDbLine
 10
89.34602261496143
 20
81.97381772446052
 30
0.0
 11
78.78487664193044
 21
81.97381772446052
 31
0.0
  0
CIRCLE
  5
AFC
330
1F
100
AcDbEntity
  8
2_カバ_
  6
CONTINUOUS
100
AcDbCircle
 10
86.6845496230154
 20
81.97381772446052
 30
0.0
 40
1.25
  0
LINE
  5
AFD
330
1F
100
AcDbEntity
  8
2_カバ_
  6
CONTINUOUS
100
AcDbLine
 10
67.18454962301542
 20
103.9738177244593
 30
0.0
 11
109.1845496230152
 21
103.9738177244593
 31
0.0
  0
LINE
  5
AFE
330
1F
100
AcDbEntity
  8
2_カバ_
  6
CONTINUOUS
100
AcDbLine
 10
108.1845496230154
 20
98.97381772445951
 30
0.0
 11
67.18454962301542
 21
98.97381772445951
 31
0.0
  0
LINE
  5
AFF
330
1F
100
AcDbEntity
  8
2_カバ_
  6
CONTINUOUS
100
AcDbLine
 10
108.1845496230154
 20
96.97381772445957
 30
0.0
 11
67.18454962301542
 21
96.97381772445957
 31
0.0
  0
LINE
  5
B00
330
1F
100
AcDbEntity
  8
2_カバ_
  6
CONTINUOUS
100
AcDbLine
 10
108.1845496230154
 20
70.97381772445953
 30
0.0
 11
67.1845496230154
 21
70.97381772445953
 31
0.0
  0
LINE
  5
B01
330
1F
100
AcDbEntity
  8
2_カバ_
  6
CONTINUOUS
100
AcDbLine
 10
108.1845496230154
 20
68.97381772445958
 30
0.0
 11
67.1845496230154
 21
68.97381772445958
 31
0.0
  0
LINE
  5
B02
330
1F
100
AcDbEntity
  8
2_カバ_
  6
CONTINUOUS
100
AcDbLine
 10
108.1845496230154
 20
63.97381772445954
 30
0.0
 11
67.1845496230154
 21
63.97381772446053
 31
0.0
  0
LINE
  5
B03
330
1F
100
AcDbEntity
  8
2_カバ_
  6
CONTINUOUS
100
AcDbLine
 10
108.1845496230154
 20
61.97381772445954
 30
0.0
 11
67.1845496230154
 21
61.97381772445954
 31
0.0
  0
LINE
  5
B04
330
1F
100
AcDbEntity
  8
2_カバ_
  6
CONTINUOUS
100
AcDbLine
 10
108.1845496230154
 20
56.97381772445954
 30
0.0
 11
67.1845496230154
 21
56.97381772445954
 31
0.0
  0
LINE
  5
B05
330
1F
100
AcDbEntity
  8
2_カバ_
  6
CONTINUOUS
100
AcDbLine
 10
108.1845496230154
 20
54.97381772445955
 30
0.0
 11
67.1845496230154
 21
54.97381772445955
 31
0.0
  0
LINE
  5
B06
330
1F
100
AcDbEntity
  8
2_カバ_
  6
CONTINUOUS
100
AcDbLine
 10
105.6845496230154
 20
48.97381772445954
 30
0.0
 11
84.68454962301541
 21
48.97381772445954
 31
0.0
  0
LINE
  5
B07
330
1F
100
AcDbEntity
  8
2_カバ_
  6
CONTINUOUS
100
AcDbLine
 10
84.68454962301541
 20
63.97381772445954
 30
0.0
 11
84.68454962301541
 21
68.97381772445958
 31
0.0
  0
LINE
  5
B08
330
1F
100
AcDbEntity
  8
2_カバ_
  6
CONTINUOUS
100
AcDbLine
 10
84.1845496230154
 20
49.97381772445955
 30
0.0
 11
67.1845496230154
 21
49.97381772445955
 31
0.0
  0
LINE
  5
B09
330
1F
100
AcDbEntity
  8
2_カバ_
  6
CONTINUOUS
100
AcDbLine
 10
84.1845496230154
 20
47.97381772445954
 30
0.0
 11
67.1845496230154
 21
47.97381772445954
 31
0.0
  0
LINE
  5
B0A
330
1F
100
AcDbEntity
  8
2_カバ_
  6
CONTINUOUS
100
AcDbLine
 10
84.68454962301541
 20
48.97381772445954
 30
0.0
 11
84.68454962301541
 21
54.97381772445955
 31
0.0
  0
LINE
  5
B0B
330
1F
100
AcDbEntity
  8
2_カバ_
  6
CONTINUOUS
100
AcDbLine
 10
84.1845496230154
 20
47.97381772445954
 30
0.0
 11
84.1845496230154
 21
49.97381772445955
 31
0.0
  0
LINE
  5
B0C
330
1F
100
AcDbEntity
  8
2_カバ_
  6
CONTINUOUS
100
AcDbLine
 10
84.68454962301541
 20
56.97381772445954
 30
0.0
 11
84.68454962301541
 21
61.97381772445954
 31
0.0
  0
LINE
  5
B0D
330
1F
100
AcDbEntity
  8
2_カバ_
  6
CONTINUOUS
100
AcDbLine
 10
84.1845496230154
 20
91.97381772445957
 30
0.0
 11
67.18454962301542
 21
91.97381772445957
 31
0.0
  0
LINE
  5
B0E
330
1F
100
AcDbEntity
  8
2_カバ_
  6
CONTINUOUS
100
AcDbLine
 10
84.1845496230154
 20
89.97381772445953
 30
0.0
 11
67.18454962301542
 21
89.97381772445953
 31
0.0
  0
LINE
  5
B0F
330
1F
100
AcDbEntity
  8
2_カバ_
  6
CONTINUOUS
100
AcDbLine
 10
84.1845496230154
 20
84.97381772445953
 30
0.0
 11
67.18454962301542
 21
84.97381772445953
 31
0.0
  0
LINE
  5
B10
330
1F
100
AcDbEntity
  8
2_カバ_
  6
CONTINUOUS
100
AcDbLine
 10
84.1845496230154
 20
82.97381772445953
 30
0.0
 11
67.18454962301542
 21
82.97381772445953
 31
0.0
  0
LINE
  5
B11
330
1F
100
AcDbEntity
  8
2_カバ_
  6
CONTINUOUS
100
AcDbLine
 10
84.1845496230154
 20
77.97381772445953
 30
0.0
 11
67.18454962301542
 21
77.97381772445953
 31
0.0
  0
LINE
  5
B12
330
1F
100
AcDbEntity
  8
2_カバ_
  6
CONTINUOUS
100
AcDbLine
 10
84.1845496230154
 20
75.97381772445953
 30
0.0
 11
67.18454962301542
 21
75.97381772445953
 31
0.0
  0
LINE
  5
B13
330
1F
100
AcDbEntity
  8
2_カバ_
  6
CONTINUOUS
100
AcDbLine
 10
84.1845496230154
 20
82.97381772445953
 30
0.0
 11
84.1845496230154
 21
84.97381772445953
 31
0.0
  0
LINE
  5
B14
330
1F
100
AcDbEntity
  8
2_カバ_
  6
CONTINUOUS
100
AcDbLine
 10
84.68454962301541
 20
70.97381772445953
 30
0.0
 11
84.68454962301541
 21
96.97381772445957
 31
0.0
  0
LINE
  5
B15
330
1F
100
AcDbEntity
  8
2_カバ_
  6
DASHDOT
100
AcDbLine
 10
86.6845496230154
 20
85.10321830084855
 30
0.0
 11
86.6845496230154
 21
79.01837696712852
 31
0.0
  0
LINE
  5
B16
330
1F
100
AcDbEntity
  8
2_カバ_
  6
CONTINUOUS
100
AcDbLine
 10
84.1845496230154
 20
75.97381772445953
 30
0.0
 11
84.1845496230154
 21
77.97381772445953
 31
0.0
  0
LINE
  5
B17
330
1F
100
AcDbEntity
  8
2_カバ_
  6
CONTINUOUS
100
AcDbLine
 10
84.1845496230154
 20
89.97381772445953
 30
0.0
 11
84.1845496230154
 21
91.97381772445957
 31
0.0
  0
LINE
  5
B18
330
1F
100
AcDbEntity
  8
2_カバ_
  6
CONTINUOUS
100
AcDbLine
 10
84.68454962301541
 20
98.97381772445951
 30
0.0
 11
84.68454962301541
 21
103.9738177244593
 31
0.0
  0
LINE
  5
B19
330
1F
100
AcDbEntity
  8
2_カバ_
  6
CONTINUOUS
100
AcDbLine
 10
105.6845496230154
 20
68.97381772445958
 30
0.0
 11
105.6845496230154
 21
63.97381772445954
 31
0.0
  0
LINE
  5
B1A
330
1F
100
AcDbEntity
  8
2_カバ_
  6
CONTINUOUS
100
AcDbLine
 10
100.1845496230151
 20
53.47381772445954
 30
0.0
 11
90.18454962301539
 21
53.47381772445954
 31
0.0
  0
LINE
  5
B1B
330
1F
100
AcDbEntity
  8
2_カバ_
  6
CONTINUOUS
100
AcDbLine
 10
90.18454962301539
 20
49.97381772445955
 30
0.0
 11
100.1845496230151
 21
49.97381772445955
 31
0.0
  0
ARC
  5
B1C
330
1F
100
AcDbEntity
  8
2_カバ_
  6
CONTINUOUS
100
AcDbCircle
 10
90.18454962301539
 20
52.97381772446051
 30
0.0
 40
0.5
100
AcDbArc
 50
90.0
 51
180.0
  0
ARC
  5
B1D
330
1F
100
AcDbEntity
  8
2_カバ_
  6
CONTINUOUS
100
AcDbCircle
 10
90.18454962301539
 20
50.47381772445954
 30
0.0
 40
0.5
100
AcDbArc
 50
180.0
 51
270.0
  0
LINE
  5
B1E
330
1F
100
AcDbEntity
  8
2_カバ_
  6
CONTINUOUS
100
AcDbLine
 10
89.68454962301541
 20
52.97381772446051
 30
0.0
 11
89.68454962301541
 21
50.47381772445954
 31
0.0
  0
ARC
  5
B1F
330
1F
100
AcDbEntity
  8
2_カバ_
  6
CONTINUOUS
100
AcDbCircle
 10
100.1845496230151
 20
52.97381772445954
 30
0.0
 40
0.5
100
AcDbArc
 50
0.0
 51
90.0
  0
ARC
  5
B20
330
1F
100
AcDbEntity
  8
2_カバ_
  6
CONTINUOUS
100
AcDbCircle
 10
100.1845496230151
 20
50.47381772445954
 30
0.0
 40
0.5
100
AcDbArc
 50
270.0
 51
0.0
  0
LINE
  5
B21
330
1F
100
AcDbEntity
  8
2_カバ_
  6
CONTINUOUS
100
AcDbLine
 10
100.6845496230154
 20
50.47381772445954
 30
0.0
 11
100.6845496230154
 21
52.97381772445954
 31
0.0
  0
LINE
  5
B22
330
1F
100
AcDbEntity
  8
2_カバ_
  6
CONTINUOUS
100
AcDbLine
 10
105.6845496230154
 20
54.97381772445955
 30
0.0
 11
105.6845496230154
 21
48.97381772445954
 31
0.0
  0
LINE
  5
B23
330
1F
100
AcDbEntity
  8
2_カバ_
  6
CONTINUOUS
100
AcDbLine
 10
108.1845496230154
 20
49.97381772445955
 30
0.0
 11
106.1845496230154
 21
49.97381772445955
 31
0.0
  0
LINE
  5
B24
330
1F
100
AcDbEntity
  8
2_カバ_
  6
CONTINUOUS
100
AcDbLine
 10
108.1845496230154
 20
47.97381772445954
 30
0.0
 11
106.1845496230154
 21
47.97381772445954
 31
0.0
  0
LINE
  5
B25
330
1F
100
AcDbEntity
  8
2_カバ_
  6
CONTINUOUS
100
AcDbLine
 10
107.1845496230154
 20
47.97381772445954
 30
0.0
 11
107.1845496230154
 21
49.97381772445955
 31
0.0
  0
LINE
  5
B26
330
1F
100
AcDbEntity
  8
2_カバ_
  6
CONTINUOUS
100
AcDbLine
 10
106.1845496230154
 20
47.97381772445954
 30
0.0
 11
106.1845496230154
 21
49.97381772445955
 31
0.0
  0
LINE
  5
B27
330
1F
100
AcDbEntity
  8
2_カバ_
  6
CONTINUOUS
100
AcDbLine
 10
105.6845496230154
 20
61.97381772445954
 30
0.0
 11
105.6845496230154
 21
56.97381772446052
 31
0.0
  0
LINE
  5
B28
330
1F
100
AcDbEntity
  8
2_カバ_
  6
CONTINUOUS
100
AcDbLine
 10
107.1845496230154
 20
54.97381772445955
 30
0.0
 11
107.1845496230154
 21
56.97381772445954
 31
0.0
  0
LINE
  5
B29
330
1F
100
AcDbEntity
  8
2_カバ_
  6
CONTINUOUS
100
AcDbLine
 10
106.1845496230154
 20
54.97381772445955
 30
0.0
 11
106.1845496230154
 21
56.97381772445954
 31
0.0
  0
LINE
  5
B2A
330
1F
100
AcDbEntity
  8
2_カバ_
  6
CONTINUOUS
100
AcDbLine
 10
107.1845496230154
 20
61.97381772445954
 30
0.0
 11
107.1845496230154
 21
63.97381772445954
 31
0.0
  0
LINE
  5
B2B
330
1F
100
AcDbEntity
  8
2_カバ_
  6
CONTINUOUS
100
AcDbLine
 10
106.1845496230154
 20
61.97381772445954
 30
0.0
 11
106.1845496230154
 21
63.97381772445954
 31
0.0
  0
LINE
  5
B2C
330
1F
100
AcDbEntity
  8
2_カバ_
  6
CONTINUOUS
100
AcDbLine
 10
107.1845496230154
 20
96.97381772445957
 30
0.0
 11
107.1845496230154
 21
98.97381772445951
 31
0.0
  0
LINE
  5
B2D
330
1F
100
AcDbEntity
  8
2_カバ_
  6
CONTINUOUS
100
AcDbLine
 10
106.1845496230154
 20
96.97381772445957
 30
0.0
 11
106.1845496230154
 21
98.97381772445951
 31
0.0
  0
LINE
  5
B2E
330
1F
100
AcDbEntity
  8
2_カバ_
  6
CONTINUOUS
100
AcDbLine
 10
104.1845496230151
 20
92.47381772445951
 30
0.0
 11
101.6845496230154
 21
92.47381772446049
 31
0.0
  0
LINE
  5
B2F
330
1F
100
AcDbEntity
  8
2_カバ_
  6
CONTINUOUS
100
AcDbLine
 10
104.1845496230151
 20
86.47381772445953
 30
0.0
 11
101.6845496230154
 21
86.47381772445953
 31
0.0
  0
LINE
  5
B30
330
1F
100
AcDbEntity
  8
2_カバ_
  6
DASHDOT
100
AcDbLine
 10
100.1056597409644
 20
89.47381772445957
 30
0.0
 11
106.8541677470194
 21
89.47381772445957
 31
0.0
  0
LINE
  5
B31
330
1F
100
AcDbEntity
  8
2_カバ_
  6
CONTINUOUS
100
AcDbLine
 10
101.1845496230151
 20
91.9738177244605
 30
0.0
 11
101.1845496230151
 21
86.97381772445957
 31
0.0
  0
ARC
  5
B32
330
1F
100
AcDbEntity
  8
2_カバ_
  6
CONTINUOUS
100
AcDbCircle
 10
101.6845496230154
 20
86.97381772445957
 30
0.0
 40
0.5
100
AcDbArc
 50
180.0
 51
270.0
  0
ARC
  5
B33
330
1F
100
AcDbEntity
  8
2_カバ_
  6
CONTINUOUS
100
AcDbCircle
 10
101.6845496230154
 20
91.9738177244605
 30
0.0
 40
0.5
100
AcDbArc
 50
89.99999999999673
 51
180.0
  0
LINE
  5
B34
330
1F
100
AcDbEntity
  8
2_カバ_
  6
CONTINUOUS
100
AcDbLine
 10
107.1845496230154
 20
82.97381772445953
 30
0.0
 11
107.1845496230154
 21
84.97381772445953
 31
0.0
  0
LINE
  5
B35
330
1F
100
AcDbEntity
  8
2_カバ_
  6
CONTINUOUS
100
AcDbLine
 10
106.1845496230154
 20
82.97381772445953
 30
0.0
 11
106.1845496230154
 21
84.97381772445953
 31
0.0
  0
LINE
  5
B36
330
1F
100
AcDbEntity
  8
2_カバ_
  6
CONTINUOUS
100
AcDbLine
 10
105.6845496230154
 20
96.97381772445957
 30
0.0
 11
105.6845496230154
 21
70.97381772446052
 31
0.0
  0
LINE
  5
B37
330
1F
100
AcDbEntity
  8
2_カバ_
  6
CONTINUOUS
100
AcDbLine
 10
107.1845496230154
 20
75.97381772445953
 30
0.0
 11
107.1845496230154
 21
77.97381772446051
 31
0.0
  0
LINE
  5
B38
330
1F
100
AcDbEntity
  8
2_カバ_
  6
CONTINUOUS
100
AcDbLine
 10
106.1845496230154
 20
75.97381772445953
 30
0.0
 11
106.1845496230154
 21
77.97381772446051
 31
0.0
  0
LINE
  5
B39
330
1F
100
AcDbEntity
  8
2_カバ_
  6
CONTINUOUS
100
AcDbLine
 10
108.1845496230154
 20
75.97381772445953
 30
0.0
 11
106.1845496230154
 21
75.97381772445953
 31
0.0
  0
LINE
  5
B3A
330
1F
100
AcDbEntity
  8
2_カバ_
  6
CONTINUOUS
100
AcDbLine
 10
107.1845496230154
 20
68.97381772445958
 30
0.0
 11
107.1845496230154
 21
70.97381772445953
 31
0.0
  0
LINE
  5
B3B
330
1F
100
AcDbEntity
  8
2_カバ_
  6
CONTINUOUS
100
AcDbLine
 10
106.1845496230154
 20
68.97381772445958
 30
0.0
 11
106.1845496230154
 21
70.97381772445953
 31
0.0
  0
LINE
  5
B3C
330
1F
100
AcDbEntity
  8
2_カバ_
  6
CONTINUOUS
100
AcDbLine
 10
108.1845496230154
 20
82.97381772445953
 30
0.0
 11
106.1845496230154
 21
82.97381772445953
 31
0.0
  0
LINE
  5
B3D
330
1F
100
AcDbEntity
  8
2_カバ_
  6
CONTINUOUS
100
AcDbLine
 10
108.1845496230154
 20
77.97381772445953
 30
0.0
 11
106.1845496230154
 21
77.97381772445953
 31
0.0
  0
LINE
  5
B3E
330
1F
100
AcDbEntity
  8
2_カバ_
  6
CONTINUOUS
100
AcDbLine
 10
107.1845496230154
 20
89.97381772445953
 30
0.0
 11
107.1845496230154
 21
91.97381772445957
 31
0.0
  0
LINE
  5
B3F
330
1F
100
AcDbEntity
  8
2_カバ_
  6
CONTINUOUS
100
AcDbLine
 10
104.6845496230154
 20
86.97381772445957
 30
0.0
 11
104.6845496230154
 21
91.97381772445957
 31
0.0
  0
LINE
  5
B40
330
1F
100
AcDbEntity
  8
2_カバ_
  6
CONTINUOUS
100
AcDbLine
 10
106.1845496230154
 20
89.97381772445953
 30
0.0
 11
106.1845496230154
 21
91.97381772445957
 31
0.0
  0
LINE
  5
B41
330
1F
100
AcDbEntity
  8
2_カバ_
  6
CONTINUOUS
100
AcDbLine
 10
108.1845496230154
 20
84.97381772445953
 30
0.0
 11
106.1845496230154
 21
84.97381772445953
 31
0.0
  0
LINE
  5
B42
330
1F
100
AcDbEntity
  8
2_カバ_
  6
CONTINUOUS
100
AcDbLine
 10
108.1845496230154
 20
89.97381772445953
 30
0.0
 11
106.1845496230154
 21
89.97381772445953
 31
0.0
  0
ARC
  5
B43
330
1F
100
AcDbEntity
  8
2_カバ_
  6
CONTINUOUS
100
AcDbCircle
 10
104.1845496230151
 20
86.97381772445957
 30
0.0
 40
0.5
100
AcDbArc
 50
270.0
 51
0.0
  0
LINE
  5
B44
330
1F
100
AcDbEntity
  8
2_カバ_
  6
CONTINUOUS
100
AcDbLine
 10
108.1845496230154
 20
91.97381772445957
 30
0.0
 11
106.1845496230154
 21
91.97381772445957
 31
0.0
  0
ARC
  5
B45
330
1F
100
AcDbEntity
  8
2_カバ_
  6
CONTINUOUS
100
AcDbCircle
 10
104.1845496230151
 20
91.97381772445957
 30
0.0
 40
0.5
100
AcDbArc
 50
0.0
 51
90.0
  0
LINE
  5
B46
330
1F
100
AcDbEntity
  8
2_カバ_
  6
CONTINUOUS
100
AcDbLine
 10
105.6845496230154
 20
103.9738177244593
 30
0.0
 11
105.6845496230154
 21
98.97381772445951
 31
0.0
  0
LINE
  5
B70
330
1F
100
AcDbEntity
  8
0
100
AcDbLine
 10
330.1845496230138
 20
364.8428881166131
 30
0.0
 11
330.1845496230138
 21
171.1047473323053
 31
0.0
  0
LINE
  5
B71
330
1F
100
AcDbEntity
  8
0
100
AcDbLine
 10
325.1845496230139
 20
170.9738177244593
 30
0.0
 11
325.1845496230139
 21
180.9738177244593
 31
0.0
  0
LINE
  5
B72
330
1F
100
AcDbEntity
  8
0
100
AcDbLine
 10
209.1845496230149
 20
180.9738177244593
 30
0.0
 11
209.1845496230149
 21
354.9738177244591
 31
0.0
  0
LINE
  5
B73
330
1F
100
AcDbEntity
  8
0
100
AcDbLine
 10
209.1845496230149
 20
354.9738177244591
 30
0.0
 11
325.1845496230139
 21
354.9738177244591
 31
0.0
  0
LINE
  5
B74
330
1F
100
AcDbEntity
  8
0
100
AcDbLine
 10
209.1845496230149
 20
180.9738177244593
 30
0.0
 11
325.1845496230139
 21
180.9738177244593
 31
0.0
  0
LINE
  5
B75
330
1F
100
AcDbEntity
  8
0
100
AcDbLine
 10
325.1845496230139
 20
364.9738177244591
 30
0.0
 11
330.1845496230138
 21
364.8428881166131
 31
0.0
  0
LINE
  5
B76
330
1F
100
AcDbEntity
  8
0
100
AcDbLine
 10
326.5985893877505
 20
364.9367897900841
 30
0.0
 11
326.5985893877498
 21
171.0108456588343
 31
0.0
  0
LINE
  5
B77
330
1F
100
AcDbEntity
  8
0
100
AcDbLine
 10
325.1845496230139
 20
170.9738177244593
 30
0.0
 11
330.1845496230138
 21
171.1047473323053
 31
0.0
  0
LINE
  5
B78
330
1F
100
AcDbEntity
  8
0
100
AcDbLine
 10
209.1845496230149
 20
180.9738177244593
 30
0.0
 11
209.1845496230149
 21
354.9738177244591
 31
0.0
  0
LINE
  5
B79
330
1F
100
AcDbEntity
  8
0
100
AcDbLine
 10
209.1845496230149
 20
354.9738177244591
 30
0.0
 11
326.5724034661828
 21
354.9738177244591
 31
0.0
  0
LINE
  5
B7A
330
1F
100
AcDbEntity
  8
0
100
AcDbLine
 10
226.1845496230149
 20
180.9738177244593
 30
0.0
 11
226.1845496230149
 21
354.9738177244591
 31
0.0
  0
LINE
  5
B7B
330
1F
100
AcDbEntity
  8
0
100
AcDbLine
 10
308.1845496230146
 20
180.9738177244593
 30
0.0
 11
308.1845496230146
 21
354.9738177244591
 31
0.0
  0
LINE
  5
B7C
330
1F
100
AcDbEntity
  8
0
100
AcDbLine
 10
226.1845496230149
 20
353.9738177244591
 30
0.0
 11
308.1845496230146
 21
353.9738177244591
 31
0.0
  0
LINE
  5
B7D
330
1F
100
AcDbEntity
  8
0
100
AcDbLine
 10
231.1845496230148
 20
351.9738177244591
 30
0.0
 11
233.1845496230148
 21
351.9738177244591
 31
0.0
  0
LINE
  5
B7E
330
1F
100
AcDbEntity
  8
0
100
AcDbLine
 10
231.1845496230148
 20
181.9738177244593
 30
0.0
 11
231.1845496230148
 21
235.2238177244593
 31
0.0
  0
LINE
  5
B7F
330
1F
100
AcDbEntity
  8
0
100
AcDbLine
 10
233.1845496230148
 20
181.9738177244593
 30
0.0
 11
233.1845496230148
 21
235.2238177244593
 31
0.0
  0
LINE
  5
B80
330
1F
100
AcDbEntity
  8
0
100
AcDbLine
 10
231.1845496230148
 20
300.7238177244591
 30
0.0
 11
233.1845496230148
 21
300.7238177244591
 31
0.0
  0
LINE
  5
B81
330
1F
100
AcDbEntity
  8
0
100
AcDbLine
 10
231.1845496230148
 20
235.2238177244593
 30
0.0
 11
233.1845496230148
 21
235.2238177244593
 31
0.0
  0
LINE
  5
B82
330
1F
100
AcDbEntity
  8
0
100
AcDbLine
 10
226.1845496230149
 20
181.9738177244593
 30
0.0
 11
308.1845496230146
 21
181.9738177244593
 31
0.0
  0
LINE
  5
B83
330
1F
100
AcDbEntity
  8
0
100
AcDbLine
 10
231.1845496230148
 20
183.9738177244593
 30
0.0
 11
233.1845496230148
 21
183.9738177244593
 31
0.0
  0
LINE
  5
B84
330
1F
100
AcDbEntity
  8
0
100
AcDbLine
 10
231.1845496230148
 20
300.7238177244591
 30
0.0
 11
231.1845496230148
 21
353.9738177244591
 31
0.0
  0
LINE
  5
B85
330
1F
100
AcDbEntity
  8
0
100
AcDbLine
 10
233.1845496230148
 20
300.7238177244591
 30
0.0
 11
233.1845496230148
 21
353.9738177244591
 31
0.0
  0
LINE
  5
B86
330
1F
100
AcDbEntity
  8
0
100
AcDbLine
 10
238.1845496230149
 20
351.9738177244591
 30
0.0
 11
240.1845496230149
 21
351.9738177244591
 31
0.0
  0
LINE
  5
B87
330
1F
100
AcDbEntity
  8
0
100
AcDbLine
 10
238.1845496230149
 20
181.9738177244593
 30
0.0
 11
238.1845496230149
 21
235.2238177244593
 31
0.0
  0
LINE
  5
B88
330
1F
100
AcDbEntity
  8
0
100
AcDbLine
 10
240.1845496230149
 20
181.9738177244593
 30
0.0
 11
240.1845496230149
 21
235.2238177244593
 31
0.0
  0
LINE
  5
B89
330
1F
100
AcDbEntity
  8
0
100
AcDbLine
 10
238.1845496230149
 20
300.7238177244591
 30
0.0
 11
240.1845496230149
 21
300.7238177244591
 31
0.0
  0
LINE
  5
B8A
330
1F
100
AcDbEntity
  8
0
100
AcDbLine
 10
238.1845496230149
 20
235.2238177244593
 30
0.0
 11
240.1845496230149
 21
235.2238177244593
 31
0.0
  0
LINE
  5
B8B
330
1F
100
AcDbEntity
  8
0
100
AcDbLine
 10
238.1845496230149
 20
183.9738177244593
 30
0.0
 11
240.1845496230149
 21
183.9738177244593
 31
0.0
  0
LINE
  5
B8C
330
1F
100
AcDbEntity
  8
0
100
AcDbLine
 10
238.1845496230149
 20
300.7238177244591
 30
0.0
 11
238.1845496230149
 21
353.9738177244591
 31
0.0
  0
LINE
  5
B8D
330
1F
100
AcDbEntity
  8
0
100
AcDbLine
 10
240.1845496230149
 20
300.7238177244591
 30
0.0
 11
240.1845496230149
 21
353.9738177244591
 31
0.0
  0
LINE
  5
B8E
330
1F
100
AcDbEntity
  8
0
100
AcDbLine
 10
245.1845496230149
 20
351.9738177244591
 30
0.0
 11
247.1845496230149
 21
351.9738177244591
 31
0.0
  0
LINE
  5
B8F
330
1F
100
AcDbEntity
  8
0
100
AcDbLine
 10
245.1845496230149
 20
181.9738177244593
 30
0.0
 11
245.1845496230149
 21
235.2238177244593
 31
0.0
  0
LINE
  5
B90
330
1F
100
AcDbEntity
  8
0
100
AcDbLine
 10
247.1845496230149
 20
181.9738177244593
 30
0.0
 11
247.1845496230149
 21
235.2238177244593
 31
0.0
  0
LINE
  5
B91
330
1F
100
AcDbEntity
  8
0
100
AcDbLine
 10
245.1845496230149
 20
300.7238177244591
 30
0.0
 11
247.1845496230149
 21
300.7238177244591
 31
0.0
  0
LINE
  5
B92
330
1F
100
AcDbEntity
  8
0
100
AcDbLine
 10
245.1845496230149
 20
235.2238177244593
 30
0.0
 11
247.1845496230149
 21
235.2238177244593
 31
0.0
  0
LINE
  5
B93
330
1F
100
AcDbEntity
  8
0
100
AcDbLine
 10
245.1845496230149
 20
183.9738177244593
 30
0.0
 11
247.1845496230149
 21
183.9738177244593
 31
0.0
  0
LINE
  5
B94
330
1F
100
AcDbEntity
  8
0
100
AcDbLine
 10
245.1845496230149
 20
300.7238177244591
 30
0.0
 11
245.1845496230149
 21
353.9738177244591
 31
0.0
  0
LINE
  5
B95
330
1F
100
AcDbEntity
  8
0
100
AcDbLine
 10
247.1845496230149
 20
300.7238177244591
 30
0.0
 11
247.1845496230149
 21
353.9738177244591
 31
0.0
  0
LINE
  5
B96
330
1F
100
AcDbEntity
  8
0
100
AcDbLine
 10
252.1845496230148
 20
181.9738177244593
 30
0.0
 11
252.1845496230148
 21
235.2238177244593
 31
0.0
  0
LINE
  5
B97
330
1F
100
AcDbEntity
  8
0
100
AcDbLine
 10
254.1845496230148
 20
181.9738177244593
 30
0.0
 11
254.1845496230148
 21
235.2238177244593
 31
0.0
  0
LINE
  5
B98
330
1F
100
AcDbEntity
  8
0
100
AcDbLine
 10
252.1845496230148
 20
300.7238177244591
 30
0.0
 11
254.1845496230148
 21
300.7238177244591
 31
0.0
  0
LINE
  5
B99
330
1F
100
AcDbEntity
  8
0
100
AcDbLine
 10
252.1845496230148
 20
235.2238177244593
 30
0.0
 11
254.1845496230148
 21
235.2238177244593
 31
0.0
  0
LINE
  5
B9A
330
1F
100
AcDbEntity
  8
0
100
AcDbLine
 10
252.1845496230148
 20
183.9738177244593
 30
0.0
 11
254.1845496230148
 21
183.9738177244593
 31
0.0
  0
LINE
  5
B9B
330
1F
100
AcDbEntity
  8
0
100
AcDbLine
 10
252.1845496230148
 20
300.7238177244591
 30
0.0
 11
252.1845496230148
 21
353.9738177244591
 31
0.0
  0
LINE
  5
B9C
330
1F
100
AcDbEntity
  8
0
100
AcDbLine
 10
254.1845496230148
 20
300.7238177244591
 30
0.0
 11
254.1845496230148
 21
353.9738177244591
 31
0.0
  0
LINE
  5
B9D
330
1F
100
AcDbEntity
  8
0
100
AcDbLine
 10
259.1845496230149
 20
351.9738177244591
 30
0.0
 11
261.1845496230149
 21
351.9738177244591
 31
0.0
  0
LINE
  5
B9E
330
1F
100
AcDbEntity
  8
0
100
AcDbLine
 10
259.1845496230149
 20
181.9738177244593
 30
0.0
 11
259.1845496230149
 21
235.2238177244593
 31
0.0
  0
LINE
  5
B9F
330
1F
100
AcDbEntity
  8
0
100
AcDbLine
 10
261.1845496230149
 20
181.9738177244593
 30
0.0
 11
261.1845496230149
 21
235.2238177244593
 31
0.0
  0
LINE
  5
BA0
330
1F
100
AcDbEntity
  8
0
100
AcDbLine
 10
259.1845496230149
 20
300.7238177244591
 30
0.0
 11
261.1845496230149
 21
300.7238177244591
 31
0.0
  0
LINE
  5
BA1
330
1F
100
AcDbEntity
  8
0
100
AcDbLine
 10
259.1845496230149
 20
235.2238177244593
 30
0.0
 11
261.1845496230149
 21
235.2238177244593
 31
0.0
  0
LINE
  5
BA2
330
1F
100
AcDbEntity
  8
0
100
AcDbLine
 10
259.1845496230149
 20
183.9738177244593
 30
0.0
 11
261.1845496230149
 21
183.9738177244593
 31
0.0
  0
LINE
  5
BA3
330
1F
100
AcDbEntity
  8
0
100
AcDbLine
 10
259.1845496230149
 20
300.7238177244591
 30
0.0
 11
259.1845496230149
 21
353.9738177244591
 31
0.0
  0
LINE
  5
BA4
330
1F
100
AcDbEntity
  8
0
100
AcDbLine
 10
261.1845496230149
 20
300.7238177244591
 30
0.0
 11
261.1845496230149
 21
353.9738177244591
 31
0.0
  0
LINE
  5
BA5
330
1F
100
AcDbEntity
  8
0
100
AcDbLine
 10
266.1845496230148
 20
351.9738177244591
 30
0.0
 11
268.1845496230149
 21
351.9738177244591
 31
0.0
  0
LINE
  5
BA6
330
1F
100
AcDbEntity
  8
0
100
AcDbLine
 10
266.1845496230148
 20
181.9738177244593
 30
0.0
 11
266.1845496230148
 21
235.2238177244593
 31
0.0
  0
LINE
  5
BA7
330
1F
100
AcDbEntity
  8
0
100
AcDbLine
 10
268.1845496230149
 20
181.9738177244593
 30
0.0
 11
268.1845496230149
 21
235.2238177244593
 31
0.0
  0
LINE
  5
BA8
330
1F
100
AcDbEntity
  8
0
100
AcDbLine
 10
266.1845496230148
 20
300.7238177244591
 30
0.0
 11
268.1845496230149
 21
300.7238177244591
 31
0.0
  0
LINE
  5
BA9
330
1F
100
AcDbEntity
  8
0
100
AcDbLine
 10
266.1845496230148
 20
235.2238177244593
 30
0.0
 11
268.1845496230149
 21
235.2238177244593
 31
0.0
  0
LINE
  5
BAA
330
1F
100
AcDbEntity
  8
0
100
AcDbLine
 10
266.1845496230148
 20
183.9738177244593
 30
0.0
 11
268.1845496230149
 21
183.9738177244593
 31
0.0
  0
LINE
  5
BAB
330
1F
100
AcDbEntity
  8
0
100
AcDbLine
 10
266.1845496230148
 20
300.7238177244591
 30
0.0
 11
266.1845496230148
 21
353.9738177244591
 31
0.0
  0
LINE
  5
BAC
330
1F
100
AcDbEntity
  8
0
100
AcDbLine
 10
268.1845496230149
 20
300.7238177244591
 30
0.0
 11
268.1845496230149
 21
353.9738177244591
 31
0.0
  0
LINE
  5
BAD
330
1F
100
AcDbEntity
  8
0
100
AcDbLine
 10
273.1845496230149
 20
351.9738177244591
 30
0.0
 11
275.1845496230149
 21
351.9738177244591
 31
0.0
  0
LINE
  5
BAE
330
1F
100
AcDbEntity
  8
0
100
AcDbLine
 10
273.1845496230149
 20
181.9738177244593
 30
0.0
 11
273.1845496230149
 21
235.2238177244593
 31
0.0
  0
LINE
  5
BAF
330
1F
100
AcDbEntity
  8
0
100
AcDbLine
 10
275.1845496230149
 20
181.9738177244593
 30
0.0
 11
275.1845496230149
 21
235.2238177244593
 31
0.0
  0
LINE
  5
BB0
330
1F
100
AcDbEntity
  8
0
100
AcDbLine
 10
273.1845496230149
 20
300.7238177244591
 30
0.0
 11
275.1845496230149
 21
300.7238177244591
 31
0.0
  0
LINE
  5
BB1
330
1F
100
AcDbEntity
  8
0
100
AcDbLine
 10
273.1845496230149
 20
235.2238177244593
 30
0.0
 11
275.1845496230149
 21
235.2238177244593
 31
0.0
  0
LINE
  5
BB2
330
1F
100
AcDbEntity
  8
0
100
AcDbLine
 10
273.1845496230149
 20
183.9738177244593
 30
0.0
 11
275.1845496230149
 21
183.9738177244593
 31
0.0
  0
LINE
  5
BB3
330
1F
100
AcDbEntity
  8
0
100
AcDbLine
 10
273.1845496230149
 20
300.7238177244591
 30
0.0
 11
273.1845496230149
 21
353.9738177244591
 31
0.0
  0
LINE
  5
BB4
330
1F
100
AcDbEntity
  8
0
100
AcDbLine
 10
275.1845496230149
 20
300.7238177244591
 30
0.0
 11
275.1845496230149
 21
353.9738177244591
 31
0.0
  0
LINE
  5
BB5
330
1F
100
AcDbEntity
  8
0
100
AcDbLine
 10
280.1845496230149
 20
351.9738177244591
 30
0.0
 11
282.1845496230148
 21
351.9738177244591
 31
0.0
  0
LINE
  5
BB6
330
1F
100
AcDbEntity
  8
0
100
AcDbLine
 10
280.1845496230149
 20
181.9738177244593
 30
0.0
 11
280.1845496230149
 21
235.2238177244593
 31
0.0
  0
LINE
  5
BB7
330
1F
100
AcDbEntity
  8
0
100
AcDbLine
 10
282.1845496230148
 20
181.9738177244593
 30
0.0
 11
282.1845496230148
 21
235.2238177244593
 31
0.0
  0
LINE
  5
BB8
330
1F
100
AcDbEntity
  8
0
100
AcDbLine
 10
280.1845496230149
 20
300.7238177244591
 30
0.0
 11
282.1845496230148
 21
300.7238177244591
 31
0.0
  0
LINE
  5
BB9
330
1F
100
AcDbEntity
  8
0
100
AcDbLine
 10
280.1845496230149
 20
235.2238177244593
 30
0.0
 11
282.1845496230148
 21
235.2238177244593
 31
0.0
  0
LINE
  5
BBA
330
1F
100
AcDbEntity
  8
0
100
AcDbLine
 10
280.1845496230149
 20
183.9738177244593
 30
0.0
 11
282.1845496230148
 21
183.9738177244593
 31
0.0
  0
LINE
  5
BBB
330
1F
100
AcDbEntity
  8
0
100
AcDbLine
 10
280.1845496230149
 20
300.7238177244591
 30
0.0
 11
280.1845496230149
 21
353.9738177244591
 31
0.0
  0
LINE
  5
BBC
330
1F
100
AcDbEntity
  8
0
100
AcDbLine
 10
282.1845496230148
 20
300.7238177244591
 30
0.0
 11
282.1845496230148
 21
353.9738177244591
 31
0.0
  0
LINE
  5
BBD
330
1F
100
AcDbEntity
  8
0
100
AcDbLine
 10
287.1845496230148
 20
351.9738177244591
 30
0.0
 11
289.1845496230148
 21
351.9738177244591
 31
0.0
  0
LINE
  5
BBE
330
1F
100
AcDbEntity
  8
0
100
AcDbLine
 10
287.1845496230148
 20
181.9738177244593
 30
0.0
 11
287.1845496230148
 21
235.2238177244593
 31
0.0
  0
LINE
  5
BBF
330
1F
100
AcDbEntity
  8
0
100
AcDbLine
 10
289.1845496230148
 20
181.9738177244593
 30
0.0
 11
289.1845496230148
 21
235.2238177244593
 31
0.0
  0
LINE
  5
BC0
330
1F
100
AcDbEntity
  8
0
100
AcDbLine
 10
287.1845496230148
 20
300.7238177244591
 30
0.0
 11
289.1845496230148
 21
300.7238177244591
 31
0.0
  0
LINE
  5
BC1
330
1F
100
AcDbEntity
  8
0
100
AcDbLine
 10
287.1845496230148
 20
235.2238177244593
 30
0.0
 11
289.1845496230148
 21
235.2238177244593
 31
0.0
  0
LINE
  5
BC2
330
1F
100
AcDbEntity
  8
0
100
AcDbLine
 10
287.1845496230148
 20
183.9738177244593
 30
0.0
 11
289.1845496230148
 21
183.9738177244593
 31
0.0
  0
LINE
  5
BC3
330
1F
100
AcDbEntity
  8
0
100
AcDbLine
 10
287.1845496230148
 20
300.7238177244591
 30
0.0
 11
287.1845496230148
 21
353.9738177244591
 31
0.0
  0
LINE
  5
BC4
330
1F
100
AcDbEntity
  8
0
100
AcDbLine
 10
289.1845496230148
 20
300.7238177244591
 30
0.0
 11
289.1845496230148
 21
353.9738177244591
 31
0.0
  0
LINE
  5
BC5
330
1F
100
AcDbEntity
  8
0
100
AcDbLine
 10
294.1845496230148
 20
351.9738177244591
 30
0.0
 11
296.1845496230148
 21
351.9738177244591
 31
0.0
  0
LINE
  5
BC6
330
1F
100
AcDbEntity
  8
0
100
AcDbLine
 10
294.1845496230148
 20
181.9738177244593
 30
0.0
 11
294.1845496230148
 21
235.2238177244593
 31
0.0
  0
LINE
  5
BC7
330
1F
100
AcDbEntity
  8
0
100
AcDbLine
 10
296.1845496230148
 20
181.9738177244593
 30
0.0
 11
296.1845496230148
 21
235.2238177244593
 31
0.0
  0
LINE
  5
BC8
330
1F
100
AcDbEntity
  8
0
100
AcDbLine
 10
294.1845496230148
 20
300.7238177244591
 30
0.0
 11
296.1845496230148
 21
300.7238177244591
 31
0.0
  0
LINE
  5
BC9
330
1F
100
AcDbEntity
  8
0
100
AcDbLine
 10
294.1845496230148
 20
235.2238177244593
 30
0.0
 11
296.1845496230148
 21
235.2238177244593
 31
0.0
  0
LINE
  5
BCA
330
1F
100
AcDbEntity
  8
0
100
AcDbLine
 10
294.1845496230148
 20
183.9738177244593
 30
0.0
 11
296.1845496230148
 21
183.9738177244593
 31
0.0
  0
LINE
  5
BCB
330
1F
100
AcDbEntity
  8
0
100
AcDbLine
 10
294.1845496230148
 20
300.7238177244591
 30
0.0
 11
294.1845496230148
 21
353.9738177244591
 31
0.0
  0
LINE
  5
BCC
330
1F
100
AcDbEntity
  8
0
100
AcDbLine
 10
296.1845496230148
 20
300.7238177244591
 30
0.0
 11
296.1845496230148
 21
353.9738177244591
 31
0.0
  0
LINE
  5
BCD
330
1F
100
AcDbEntity
  8
0
100
AcDbLine
 10
301.1845496230148
 20
351.9738177244591
 30
0.0
 11
303.1845496230146
 21
351.9738177244591
 31
0.0
  0
LINE
  5
BCE
330
1F
100
AcDbEntity
  8
0
100
AcDbLine
 10
301.1845496230148
 20
181.9738177244593
 30
0.0
 11
301.1845496230148
 21
235.2238177244593
 31
0.0
  0
LINE
  5
BCF
330
1F
100
AcDbEntity
  8
0
100
AcDbLine
 10
303.1845496230146
 20
181.9738177244593
 30
0.0
 11
303.1845496230146
 21
235.2238177244593
 31
0.0
  0
LINE
  5
BD0
330
1F
100
AcDbEntity
  8
0
100
AcDbLine
 10
301.1845496230148
 20
300.7238177244591
 30
0.0
 11
303.1845496230146
 21
300.7238177244591
 31
0.0
  0
LINE
  5
BD1
330
1F
100
AcDbEntity
  8
0
100
AcDbLine
 10
301.1845496230148
 20
235.2238177244593
 30
0.0
 11
303.1845496230146
 21
235.2238177244593
 31
0.0
  0
LINE
  5
BD2
330
1F
100
AcDbEntity
  8
0
100
AcDbLine
 10
301.1845496230148
 20
183.9738177244593
 30
0.0
 11
303.1845496230146
 21
183.9738177244593
 31
0.0
  0
LINE
  5
BD3
330
1F
100
AcDbEntity
  8
0
100
AcDbLine
 10
301.1845496230148
 20
300.7238177244591
 30
0.0
 11
301.1845496230148
 21
353.9738177244591
 31
0.0
  0
LINE
  5
BD4
330
1F
100
AcDbEntity
  8
0
100
AcDbLine
 10
303.1845496230146
 20
300.7238177244591
 30
0.0
 11
303.1845496230146
 21
353.9738177244591
 31
0.0
  0
LINE
  5
BD5
330
1F
100
AcDbEntity
  8
0
100
AcDbLine
 10
231.1845496230148
 20
329.4738177244592
 30
0.0
 11
233.1845496230148
 21
329.4738177244592
 31
0.0
  0
LINE
  5
BD6
330
1F
100
AcDbEntity
  8
0
100
AcDbLine
 10
231.1845496230148
 20
326.4738177244591
 30
0.0
 11
233.1845496230148
 21
326.4738177244591
 31
0.0
  0
LINE
  5
BD7
330
1F
100
AcDbEntity
  8
0
100
AcDbLine
 10
231.1845496230148
 20
209.4738177244593
 30
0.0
 11
233.1845496230148
 21
209.4738177244593
 31
0.0
  0
LINE
  5
BD8
330
1F
100
AcDbEntity
  8
0
100
AcDbLine
 10
231.1845496230148
 20
206.4738177244592
 30
0.0
 11
233.1845496230148
 21
206.4738177244592
 31
0.0
  0
LINE
  5
BD9
330
1F
100
AcDbEntity
  8
0
100
AcDbLine
 10
238.1845496230149
 20
329.4738177244592
 30
0.0
 11
240.1845496230149
 21
329.4738177244592
 31
0.0
  0
LINE
  5
BDA
330
1F
100
AcDbEntity
  8
0
100
AcDbLine
 10
238.1845496230149
 20
326.4738177244591
 30
0.0
 11
240.1845496230149
 21
326.4738177244591
 31
0.0
  0
LINE
  5
BDB
330
1F
100
AcDbEntity
  8
0
100
AcDbLine
 10
238.1845496230149
 20
209.4738177244593
 30
0.0
 11
240.1845496230149
 21
209.4738177244593
 31
0.0
  0
LINE
  5
BDC
330
1F
100
AcDbEntity
  8
0
100
AcDbLine
 10
238.1845496230149
 20
206.4738177244592
 30
0.0
 11
240.1845496230149
 21
206.4738177244592
 31
0.0
  0
LINE
  5
BDD
330
1F
100
AcDbEntity
  8
0
100
AcDbLine
 10
245.1845496230149
 20
329.4738177244592
 30
0.0
 11
247.1845496230149
 21
329.4738177244592
 31
0.0
  0
LINE
  5
BDE
330
1F
100
AcDbEntity
  8
0
100
AcDbLine
 10
245.1845496230149
 20
326.4738177244591
 30
0.0
 11
247.1845496230149
 21
326.4738177244591
 31
0.0
  0
LINE
  5
BDF
330
1F
100
AcDbEntity
  8
0
100
AcDbLine
 10
245.1845496230149
 20
209.4738177244593
 30
0.0
 11
247.1845496230149
 21
209.4738177244593
 31
0.0
  0
LINE
  5
BE0
330
1F
100
AcDbEntity
  8
0
100
AcDbLine
 10
245.1845496230149
 20
206.4738177244592
 30
0.0
 11
247.1845496230149
 21
206.4738177244592
 31
0.0
  0
LINE
  5
BE1
330
1F
100
AcDbEntity
  8
0
100
AcDbLine
 10
252.1845496230148
 20
329.4738177244592
 30
0.0
 11
254.1845496230148
 21
329.4738177244592
 31
0.0
  0
LINE
  5
BE2
330
1F
100
AcDbEntity
  8
0
100
AcDbLine
 10
252.1845496230148
 20
326.4738177244591
 30
0.0
 11
254.1845496230148
 21
326.4738177244591
 31
0.0
  0
LINE
  5
BE3
330
1F
100
AcDbEntity
  8
0
100
AcDbLine
 10
252.1845496230148
 20
209.4738177244593
 30
0.0
 11
254.1845496230148
 21
209.4738177244593
 31
0.0
  0
LINE
  5
BE4
330
1F
100
AcDbEntity
  8
0
100
AcDbLine
 10
252.1845496230148
 20
206.4738177244592
 30
0.0
 11
254.1845496230148
 21
206.4738177244592
 31
0.0
  0
LINE
  5
BE5
330
1F
100
AcDbEntity
  8
0
100
AcDbLine
 10
259.1845496230149
 20
329.4738177244592
 30
0.0
 11
261.1845496230149
 21
329.4738177244592
 31
0.0
  0
LINE
  5
BE6
330
1F
100
AcDbEntity
  8
0
100
AcDbLine
 10
259.1845496230149
 20
326.4738177244591
 30
0.0
 11
261.1845496230149
 21
326.4738177244591
 31
0.0
  0
LINE
  5
BE7
330
1F
100
AcDbEntity
  8
0
100
AcDbLine
 10
259.1845496230149
 20
209.4738177244593
 30
0.0
 11
261.1845496230149
 21
209.4738177244593
 31
0.0
  0
LINE
  5
BE8
330
1F
100
AcDbEntity
  8
0
100
AcDbLine
 10
259.1845496230149
 20
206.4738177244592
 30
0.0
 11
261.1845496230149
 21
206.4738177244592
 31
0.0
  0
LINE
  5
BE9
330
1F
100
AcDbEntity
  8
0
100
AcDbLine
 10
266.1845496230148
 20
329.4738177244592
 30
0.0
 11
268.1845496230149
 21
329.4738177244592
 31
0.0
  0
LINE
  5
BEA
330
1F
100
AcDbEntity
  8
0
100
AcDbLine
 10
266.1845496230148
 20
326.4738177244591
 30
0.0
 11
268.1845496230149
 21
326.4738177244591
 31
0.0
  0
LINE
  5
BEB
330
1F
100
AcDbEntity
  8
0
100
AcDbLine
 10
266.1845496230148
 20
209.4738177244593
 30
0.0
 11
268.1845496230149
 21
209.4738177244593
 31
0.0
  0
LINE
  5
BEC
330
1F
100
AcDbEntity
  8
0
100
AcDbLine
 10
266.1845496230148
 20
206.4738177244592
 30
0.0
 11
268.1845496230149
 21
206.4738177244592
 31
0.0
  0
LINE
  5
BED
330
1F
100
AcDbEntity
  8
0
100
AcDbLine
 10
273.1845496230149
 20
329.4738177244592
 30
0.0
 11
275.1845496230149
 21
329.4738177244592
 31
0.0
  0
LINE
  5
BEE
330
1F
100
AcDbEntity
  8
0
100
AcDbLine
 10
273.1845496230149
 20
326.4738177244591
 30
0.0
 11
275.1845496230149
 21
326.4738177244591
 31
0.0
  0
LINE
  5
BEF
330
1F
100
AcDbEntity
  8
0
100
AcDbLine
 10
273.1845496230149
 20
209.4738177244593
 30
0.0
 11
275.1845496230149
 21
209.4738177244593
 31
0.0
  0
LINE
  5
BF0
330
1F
100
AcDbEntity
  8
0
100
AcDbLine
 10
273.1845496230149
 20
206.4738177244592
 30
0.0
 11
275.1845496230149
 21
206.4738177244592
 31
0.0
  0
LINE
  5
BF1
330
1F
100
AcDbEntity
  8
0
100
AcDbLine
 10
280.1845496230149
 20
329.4738177244592
 30
0.0
 11
282.1845496230148
 21
329.4738177244592
 31
0.0
  0
LINE
  5
BF2
330
1F
100
AcDbEntity
  8
0
100
AcDbLine
 10
280.1845496230149
 20
326.4738177244591
 30
0.0
 11
282.1845496230148
 21
326.4738177244591
 31
0.0
  0
LINE
  5
BF3
330
1F
100
AcDbEntity
  8
0
100
AcDbLine
 10
280.1845496230149
 20
209.4738177244593
 30
0.0
 11
282.1845496230148
 21
209.4738177244593
 31
0.0
  0
LINE
  5
BF4
330
1F
100
AcDbEntity
  8
0
100
AcDbLine
 10
280.1845496230149
 20
206.4738177244592
 30
0.0
 11
282.1845496230148
 21
206.4738177244592
 31
0.0
  0
LINE
  5
BF5
330
1F
100
AcDbEntity
  8
0
100
AcDbLine
 10
287.1845496230148
 20
329.4738177244592
 30
0.0
 11
289.1845496230148
 21
329.4738177244592
 31
0.0
  0
LINE
  5
BF6
330
1F
100
AcDbEntity
  8
0
100
AcDbLine
 10
287.1845496230148
 20
326.4738177244591
 30
0.0
 11
289.1845496230148
 21
326.4738177244591
 31
0.0
  0
LINE
  5
BF7
330
1F
100
AcDbEntity
  8
0
100
AcDbLine
 10
287.1845496230148
 20
209.4738177244593
 30
0.0
 11
289.1845496230148
 21
209.4738177244593
 31
0.0
  0
LINE
  5
BF8
330
1F
100
AcDbEntity
  8
0
100
AcDbLine
 10
287.1845496230148
 20
206.4738177244592
 30
0.0
 11
289.1845496230148
 21
206.4738177244592
 31
0.0
  0
LINE
  5
BF9
330
1F
100
AcDbEntity
  8
0
100
AcDbLine
 10
294.1845496230148
 20
329.4738177244592
 30
0.0
 11
296.1845496230148
 21
329.4738177244592
 31
0.0
  0
LINE
  5
BFA
330
1F
100
AcDbEntity
  8
0
100
AcDbLine
 10
294.1845496230148
 20
326.4738177244591
 30
0.0
 11
296.1845496230148
 21
326.4738177244591
 31
0.0
  0
LINE
  5
BFB
330
1F
100
AcDbEntity
  8
0
100
AcDbLine
 10
294.1845496230148
 20
209.4738177244593
 30
0.0
 11
296.1845496230148
 21
209.4738177244593
 31
0.0
  0
LINE
  5
BFC
330
1F
100
AcDbEntity
  8
0
100
AcDbLine
 10
294.1845496230148
 20
206.4738177244592
 30
0.0
 11
296.1845496230148
 21
206.4738177244592
 31
0.0
  0
LINE
  5
BFD
330
1F
100
AcDbEntity
  8
0
100
AcDbLine
 10
301.1845496230148
 20
329.4738177244592
 30
0.0
 11
303.1845496230146
 21
329.4738177244592
 31
0.0
  0
LINE
  5
BFE
330
1F
100
AcDbEntity
  8
0
100
AcDbLine
 10
301.1845496230148
 20
326.4738177244591
 30
0.0
 11
303.1845496230146
 21
326.4738177244591
 31
0.0
  0
LINE
  5
BFF
330
1F
100
AcDbEntity
  8
0
100
AcDbLine
 10
301.1845496230148
 20
209.4738177244593
 30
0.0
 11
303.1845496230146
 21
209.4738177244593
 31
0.0
  0
LINE
  5
C00
330
1F
100
AcDbEntity
  8
0
100
AcDbLine
 10
301.1845496230148
 20
206.4738177244592
 30
0.0
 11
303.1845496230146
 21
206.4738177244592
 31
0.0
  0
LINE
  5
C01
330
1F
100
AcDbEntity
  8
0
100
AcDbLine
 10
281.1845496230148
 20
181.9738177244593
 30
0.0
 11
281.1845496230139
 21
181.4738177244593
 31
0.0
  0
LINE
  5
C02
330
1F
100
AcDbEntity
  8
0
100
AcDbLine
 10
226.1845496230149
 20
181.4738177244593
 30
0.0
 11
281.1845496230148
 21
181.4738177244593
 31
0.0
  0
LINE
  5
C03
330
1F
100
AcDbEntity
  8
0
100
AcDbLine
 10
326.5724034661818
 20
180.9738177244593
 30
0.0
 11
326.5724034661828
 21
354.9738177244591
 31
0.0
  0
LINE
  5
C04
330
1F
100
AcDbEntity
  8
0
100
AcDbLine
 10
205.7845496230148
 20
221.6738184581496
 30
0.0
 11
205.7845496230148
 21
201.4738184581494
 31
0.0
  0
LINE
  5
C05
330
1F
100
AcDbEntity
  8
0
100
AcDbLine
 10
206.6845496230149
 20
197.9738184581496
 30
0.0
 11
206.1845496230148
 21
198.4738184581494
 31
0.0
  0
LINE
  5
C06
330
1F
100
AcDbEntity
  8
0
100
AcDbLine
 10
206.1845496230148
 20
199.3738184581497
 30
0.0
 11
206.1845496230148
 21
198.4738184581494
 31
0.0
  0
LINE
  5
C07
330
1F
100
AcDbEntity
  8
0
100
AcDbLine
 10
207.4845496230151
 20
197.9738184581496
 30
0.0
 11
206.6845496230149
 21
197.9738184581496
 31
0.0
  0
ARC
  5
C08
330
1F
100
AcDbEntity
  8
0
100
AcDbCircle
 10
207.184549623015
 20
199.3738184581496
 30
0.0
 40
1.0
100
AcDbArc
 50
90.0
 51
180.0
  0
LINE
  5
C09
330
1F
100
AcDbEntity
  8
0
100
AcDbLine
 10
209.1845496230149
 20
200.3738184581496
 30
0.0
 11
207.184549623015
 21
200.3738184581496
 31
0.0
  0
LINE
  5
C0A
330
1F
100
AcDbEntity
  8
0
100
AcDbLine
 10
209.1845496230149
 20
199.1738184581496
 30
0.0
 11
207.4845496230151
 21
199.1738184581496
 31
0.0
  0
LINE
  5
C0B
330
1F
100
AcDbEntity
  8
0
100
AcDbLine
 10
209.1845496230149
 20
201.4738184581494
 30
0.0
 11
205.7845496230148
 21
201.4738184581494
 31
0.0
  0
LINE
  5
C0C
330
1F
100
AcDbEntity
  8
0
100
AcDbLine
 10
207.4845496230151
 20
197.9738184581496
 30
0.0
 11
207.4845496230151
 21
199.1738184581496
 31
0.0
  0
LINE
  5
C0D
330
1F
100
AcDbEntity
  8
0
100
AcDbLine
 10
206.6845496230151
 20
225.1738184581496
 30
0.0
 11
206.1845496230151
 21
224.6738184581495
 31
0.0
  0
LINE
  5
C0E
330
1F
100
AcDbEntity
  8
0
100
AcDbLine
 10
206.1845496230151
 20
224.6738184581495
 30
0.0
 11
206.1845496230151
 21
223.7738184581496
 31
0.0
  0
LINE
  5
C0F
330
1F
100
AcDbEntity
  8
0
100
AcDbLine
 10
207.4845496230151
 20
225.1738184581496
 30
0.0
 11
206.6845496230151
 21
225.1738184581496
 31
0.0
  0
ARC
  5
C10
330
1F
100
AcDbEntity
  8
0
100
AcDbCircle
 10
207.184549623015
 20
223.7738184581496
 30
0.0
 40
1.0
100
AcDbArc
 50
180.0
 51
270.0
  0
LINE
  5
C11
330
1F
100
AcDbEntity
  8
0
100
AcDbLine
 10
209.1845496230149
 20
222.7738184581496
 30
0.0
 11
207.184549623015
 21
222.7738184581496
 31
0.0
  0
LINE
  5
C12
330
1F
100
AcDbEntity
  8
0
100
AcDbLine
 10
205.7845496230148
 20
221.6738184581496
 30
0.0
 11
209.1845496230149
 21
221.6738184581496
 31
0.0
  0
LINE
  5
C13
330
1F
100
AcDbEntity
  8
0
100
AcDbLine
 10
209.1845496230149
 20
223.9738184581494
 30
0.0
 11
207.4845496230149
 21
223.9738184581494
 31
0.0
  0
LINE
  5
C14
330
1F
100
AcDbEntity
  8
0
100
AcDbLine
 10
207.4845496230151
 20
223.9738184581494
 30
0.0
 11
207.4845496230151
 21
225.1738184581496
 31
0.0
  0
LINE
  5
C15
330
1F
100
AcDbEntity
  8
0
100
AcDbLine
 10
209.1845496230149
 20
185.9738184581494
 30
0.0
 11
206.6845496230148
 21
185.9738184581494
 31
0.0
  0
LINE
  5
C16
330
1F
100
AcDbEntity
  8
0
100
AcDbLine
 10
206.6845496230148
 20
185.9738184581494
 30
0.0
 11
206.6845496230148
 21
191.4738184581494
 31
0.0
  0
LINE
  5
C17
330
1F
100
AcDbEntity
  8
0
100
AcDbLine
 10
206.6845496230148
 20
191.4738184581494
 30
0.0
 11
209.1845496230149
 21
191.4738184581494
 31
0.0
  0
LINE
  5
C18
330
1F
100
AcDbEntity
  8
0
100
AcDbLine
 10
209.1845496230149
 20
226.6138177244594
 30
0.0
 11
208.1845496230148
 21
226.6138177244594
 31
0.0
  0
LINE
  5
C19
330
1F
100
AcDbEntity
  8
0
100
AcDbLine
 10
208.1845496230148
 20
226.6138177244594
 30
0.0
 11
208.1845496230148
 21
223.9738184581494
 31
0.0
  0
LINE
  5
C1A
330
1F
100
AcDbEntity
  8
0
100
AcDbLine
 10
202.5845496230149
 20
276.9738177244592
 30
0.0
 11
209.1845496230149
 21
276.9738177244592
 31
0.0
  0
LINE
  5
C1B
330
1F
100
AcDbEntity
  8
0
100
AcDbLine
 10
209.1845496230149
 20
301.1338177244591
 30
0.0
 11
202.5845496230149
 21
301.1338177244591
 31
0.0
  0
LINE
  5
C1C
330
1F
100
AcDbEntity
  8
0
100
AcDbLine
 10
202.5845496230149
 20
301.1338177244591
 30
0.0
 11
202.5845496230149
 21
276.9738177244592
 31
0.0
  0
LINE
  5
C1D
330
1F
100
AcDbEntity
  8
0
100
AcDbLine
 10
203.8845496230149
 20
235.8138177244593
 30
0.0
 11
203.8845496230149
 21
264.2738177244595
 31
0.0
  0
LINE
  5
C1E
330
1F
100
AcDbEntity
  8
0
100
AcDbLine
 10
203.8845496230149
 20
239.9238177244594
 30
0.0
 11
208.1845496230148
 21
239.9238177244594
 31
0.0
  0
LINE
  5
C1F
330
1F
100
AcDbEntity
  8
0
100
AcDbLine
 10
208.1845496230148
 20
235.8138177244593
 30
0.0
 11
203.8845496230149
 21
235.8138177244593
 31
0.0
  0
LINE
  5
C20
330
1F
100
AcDbEntity
  8
0
100
AcDbLine
 10
203.8845496230149
 20
260.1638177244594
 30
0.0
 11
209.1845496230149
 21
260.1638177244594
 31
0.0
  0
LINE
  5
C21
330
1F
100
AcDbEntity
  8
0
100
AcDbLine
 10
203.8845496230149
 20
255.1638177244594
 30
0.0
 11
209.1845496230149
 21
255.1638177244594
 31
0.0
  0
LINE
  5
C22
330
1F
100
AcDbEntity
  8
0
100
AcDbLine
 10
203.8845496230149
 20
247.5438177244594
 30
0.0
 11
209.1845496230149
 21
247.5438177244594
 31
0.0
  0
LINE
  5
C23
330
1F
100
AcDbEntity
  8
0
100
AcDbLine
 10
203.8845496230149
 20
252.5438177244593
 30
0.0
 11
209.1845496230149
 21
252.5438177244593
 31
0.0
  0
LINE
  5
C24
330
1F
100
AcDbEntity
  8
0
100
AcDbLine
 10
203.8845496230149
 20
244.9238177244594
 30
0.0
 11
208.3845496230149
 21
244.9238177244594
 31
0.0
  0
LINE
  5
C25
330
1F
100
AcDbEntity
  8
0
100
AcDbLine
 10
208.3845496230149
 20
264.2738177244595
 30
0.0
 11
203.8845496230149
 21
264.2738177244595
 31
0.0
  0
LINE
  5
C26
330
1F
100
AcDbEntity
  8
0
100
AcDbLine
 10
252.1845496230148
 20
351.9738177244591
 30
0.0
 11
254.1845496230148
 21
351.9738177244591
 31
0.0
  0
LINE
  5
C27
330
1F
100
AcDbEntity
  8
0
100
AcDbLine
 10
325.1845496230139
 20
354.9738177244591
 30
0.0
 11
325.1845496230139
 21
364.9738177244591
 31
0.0
  0
LINE
  5
C28
330
1F
100
AcDbEntity
  8
0
100
AcDbLine
 10
209.1845496230149
 20
180.9738177244593
 30
0.0
 11
326.5724034661828
 21
180.9738177244593
 31
0.0
  0
LINE
  5
C30
330
1F
100
AcDbEntity
  8
0
100
AcDbLine
 10
208.1845496230148
 20
222.7738184581496
 30
0.0
 11
208.1845496230148
 21
221.6738184581496
 31
0.0
  0
LINE
  5
C31
330
1F
100
AcDbEntity
  8
0
100
AcDbLine
 10
208.1845496230148
 20
201.4738184581494
 30
0.0
 11
208.1845496230148
 21
200.3738184581496
 31
0.0
  0
LINE
  5
C32
330
1F
100
AcDbEntity
  8
0
100
AcDbLine
 10
208.1845496230148
 20
199.1738184581496
 30
0.0
 11
208.1845496230148
 21
191.4738184581494
 31
0.0
  0
LINE
  5
C33
330
1F
100
AcDbEntity
  8
0
100
AcDbLine
 10
209.1845496230149
 20
322.4138177244593
 30
0.0
 11
208.1801876821638
 21
322.4138177244593
 31
0.0
  0
LINE
  5
C34
330
1F
100
AcDbEntity
  8
0
100
AcDbLine
 10
209.1845496230149
 20
233.1738184581495
 30
0.0
 11
208.1845496230148
 21
233.1738184581495
 31
0.0
  0
LINE
  5
C35
330
1F
100
AcDbEntity
  8
0
100
AcDbLine
 10
208.1845496230148
 20
233.1738184581495
 30
0.0
 11
208.1845496230148
 21
241.5738184581496
 31
0.0
  0
LINE
  5
C36
330
1F
100
AcDbEntity
  8
0
100
AcDbLine
 10
208.1845496230148
 20
241.5738184581496
 30
0.0
 11
209.1845496230149
 21
241.5738184581496
 31
0.0
  0
LINE
  5
C37
330
1F
100
AcDbEntity
  8
0
100
AcDbLine
 10
209.1845496230149
 20
243.0738184581496
 30
0.0
 11
208.3845496230149
 21
243.0738184581496
 31
0.0
  0
LINE
  5
C38
330
1F
100
AcDbEntity
  8
0
100
AcDbLine
 10
208.3845496230149
 20
243.0738184581496
 30
0.0
 11
208.3845496230149
 21
246.0738184581496
 31
0.0
  0
LINE
  5
C39
330
1F
100
AcDbEntity
  8
0
100
AcDbLine
 10
208.3845496230149
 20
246.0738184581496
 30
0.0
 11
209.1845496230149
 21
246.0738184581496
 31
0.0
  0
LINE
  5
C3A
330
1F
100
AcDbEntity
  8
0
100
AcDbLine
 10
209.1845496230149
 20
263.0738184581496
 30
0.0
 11
208.3845496230149
 21
263.0738184581496
 31
0.0
  0
LINE
  5
C3B
330
1F
100
AcDbEntity
  8
0
100
AcDbLine
 10
208.3845496230149
 20
263.0738184581496
 30
0.0
 11
208.3845496230149
 21
266.0738184581496
 31
0.0
  0
LINE
  5
C3C
330
1F
100
AcDbEntity
  8
0
100
AcDbLine
 10
208.3845496230149
 20
266.0738184581496
 30
0.0
 11
209.1845496230149
 21
266.0738184581496
 31
0.0
  0
LINE
  5
C3D
330
1F
100
AcDbEntity
  8
0
  6
CONTINUOUS
100
AcDbLine
 10
208.1801876821638
 20
322.4138177244593
 30
0.0
 11
208.1801876821638
 21
307.0138177244592
 31
0.0
  0
LINE
  5
C3E
330
1F
100
AcDbEntity
  8
0
  6
CONTINUOUS
100
AcDbLine
 10
208.1801876821638
 20
307.0138177244592
 30
0.0
 11
209.1845496230149
 21
307.0138177244592
 31
0.0
  0
MTEXT
  5
C96
330
1F
100
AcDbEntity
  8
0
100
AcDbMText
 10
36.70726744894567
 20
404.9366685723842
 30
0.0
 40
10.0
 41
0.0
 71
     1
 72
     5
  1
SCON-CA-400I~750I-CC-*-1/2\PSCON-CA-100SI~750SI-CC-*-1/2
1001
ACAD
1000
MTEXTBEGIN
1070
    73
1070
     1
1070
    44
1040
1.0
1070
    74
1070
     0
1000
MTEXTEND
1000
MTEXTBEGIN
1070
    73
1070
     1
1070
    44
1040
1.0
1070
    74
1070
     0
1000
MTEXTEND
1000
MTEXTBEGIN
1070
    73
1070
     1
1070
    44
1040
1.0
1070
    74
1070
     0
1000
MTEXTEND
  0
ENDSEC
  0
SECTION
  2
OBJECTS
  0
DICTIONARY
  5
C
330
0
100
AcDbDictionary
  3
ACAD_GROUP
350
D
  3
ACAD_LAYOUT
350
1A
  3
ACAD_MLINESTYLE
350
17
  3
ACAD_PLOTSETTINGS
350
19
  3
ACAD_PLOTSTYLENAME
350
E
  3
ACDBHEADERROUNDTRIPXREC
350
CEB
  3
ACDBVARIABLEDICTIONARY
350
915
  0
DICTIONARY
  5
2DF
330
2
100
AcDbDictionary
280
     1
  3
ACAD_LAYERSTATES
360
2E0
  0
DICTIONARY
  5
93B
330
1F
100
AcDbDictionary
280
     1
  3
ACAD_LAYOUTSELFREF
360
D0C
  0
DICTIONARY
  5
939
330
1B
100
AcDbDictionary
280
     1
  3
ACAD_LAYOUTSELFREF
360
D0B
  0
DICTIONARY
  5
D
102
{ACAD_REACTORS
330
C
102
}
330
C
100
AcDbDictionary
  0
DICTIONARY
  5
1A
102
{ACAD_REACTORS
330
C
102
}
330
C
100
AcDbDictionary
  0
DICTIONARY
  5
17
102
{ACAD_REACTORS
330
C
102
}
330
C
100
AcDbDictionary
  3
STANDARD
350
18
  0
DICTIONARY
  5
19
102
{ACAD_REACTORS
330
C
102
}
330
C
100
AcDbDictionary
  0
ACDBDICTIONARYWDFLT
  5
E
102
{ACAD_REACTORS
330
C
102
}
330
C
100
AcDbDictionary
281
     1
  3
Normal
350
F
100
AcDbDictionaryWithDefault
340
F
  0
DICTIONARY
  5
CEB
102
{ACAD_REACTORS
330
C
102
}
330
C
100
AcDbDictionary
  3
CEPSNTYPE
350
CF5
  3
FINGERPRINTGUID
350
CF6
  3
HYPERLINKBASE
350
CEE
  3
INSUNITS
350
CF4
  3
LAYOUTDICT
350
CF0
  3
LWETCUNION
350
CF3
  3
PLOTSETDICT
350
CF1
  3
PLOTSTYLNAMDICT
350
CF2
  3
PSVPSCALE
350
CF8
  3
PUCSBASE
350
CFB
  3
PUCSORGBACK
350
D01
  3
PUCSORGBOTTOM
350
CFD
  3
PUCSORGFRONT
350
D00
  3
PUCSORGLEFT
350
CFE
  3
PUCSORGRIGHT
350
CFF
  3
PUCSORGTOP
350
CFC
  3
PUCSORTHOREF
350
CF9
  3
PUCSORTHOVIEW
350
CFA
  3
STYLESHEET
350
CEF
  3
TSTACKALIGN
350
CEC
  3
TSTACKSIZE
350
CED
  3
UCSBASE
350
D04
  3
UCSORGBACK
350
D0A
  3
UCSORGBOTTOM
350
D06
  3
UCSORGFRONT
350
D09
  3
UCSORGLEFT
350
D07
  3
UCSORGRIGHT
350
D08
  3
UCSORGTOP
350
D05
  3
UCSORTHOREF
350
D02
  3
UCSORTHOVIEW
350
D03
  3
VERSIONGUID
350
CF7
  0
DICTIONARY
  5
915
102
{ACAD_REACTORS
330
C
102
}
330
C
100
AcDbDictionary
  3
DIMASSOC
350
917
  3
HIDETEXT
350
916
  0
DICTIONARY
  5
2E0
102
{ACAD_REACTORS
330
2DF
102
}
330
2DF
100
AcDbDictionary
  0
XRECORD
  5
D0C
102
{ACAD_REACTORS
330
93B
102
}
330
93B
100
AcDbXrecord
340
1F
  0
XRECORD
  5
D0B
102
{ACAD_REACTORS
330
939
102
}
330
939
100
AcDbXrecord
340
1B
  0
MLINESTYLE
  5
18
102
{ACAD_REACTORS
330
17
102
}
330
17
100
AcDbMlineStyle
  2
STANDARD
 70
     0
  3

 62
   256
 51
90.0
 52
90.0
 71
     2
 49
0.5
 62
   256
  6
BYLAYER
 49
-0.5
 62
   256
  6
BYLAYER
  0
ACDBPLACEHOLDER
  5
F
102
{ACAD_REACTORS
330
E
102
}
330
E
100
AcDbPlaceHolder
280
     0
  0
XRECORD
  5
CF5
102
{ACAD_REACTORS
330
CEB
102
}
330
CEB
100
AcDbXrecord
 90
        0
  0
XRECORD
  5
CF6
102
{ACAD_REACTORS
330
CEB
102
}
330
CEB
100
AcDbXrecord
  1
{79F6EF2F-D7A9-42AD-985F-FC4C0D8411B1}
  0
XRECORD
  5
CEE
102
{ACAD_REACTORS
330
CEB
102
}
330
CEB
100
AcDbXrecord
  1

  0
XRECORD
  5
CF4
102
{ACAD_REACTORS
330
CEB
102
}
330
CEB
100
AcDbXrecord
 90
        4
  0
XRECORD
  5
CF0
102
{ACAD_REACTORS
330
CEB
102
}
330
CEB
100
AcDbXrecord
340
1A
  0
XRECORD
  5
CF3
102
{ACAD_REACTORS
330
CEB
102
}
330
CEB
100
AcDbXrecord
 90
    10781
  0
XRECORD
  5
CF1
102
{ACAD_REACTORS
330
CEB
102
}
330
CEB
100
AcDbXrecord
340
19
  0
XRECORD
  5
CF2
102
{ACAD_REACTORS
330
CEB
102
}
330
CEB
100
AcDbXrecord
340
E
  0
XRECORD
  5
CF8
102
{ACAD_REACTORS
330
CEB
102
}
330
CEB
100
AcDbXrecord
 40
0.0
  0
XRECORD
  5
CFB
102
{ACAD_REACTORS
330
CEB
102
}
330
CEB
100
AcDbXrecord
340
0
  0
XRECORD
  5
D01
102
{ACAD_REACTORS
330
CEB
102
}
330
CEB
100
AcDbXrecord
 10
0.0
 20
0.0
 30
0.0
  0
XRECORD
  5
CFD
102
{ACAD_REACTORS
330
CEB
102
}
330
CEB
100
AcDbXrecord
 10
0.0
 20
0.0
 30
0.0
  0
XRECORD
  5
D00
102
{ACAD_REACTORS
330
CEB
102
}
330
CEB
100
AcDbXrecord
 10
0.0
 20
0.0
 30
0.0
  0
XRECORD
  5
CFE
102
{ACAD_REACTORS
330
CEB
102
}
330
CEB
100
AcDbXrecord
 10
0.0
 20
0.0
 30
0.0
  0
XRECORD
  5
CFF
102
{ACAD_REACTORS
330
CEB
102
}
330
CEB
100
AcDbXrecord
 10
0.0
 20
0.0
 30
0.0
  0
XRECORD
  5
CFC
102
{ACAD_REACTORS
330
CEB
102
}
330
CEB
100
AcDbXrecord
 10
0.0
 20
0.0
 30
0.0
  0
XRECORD
  5
CF9
102
{ACAD_REACTORS
330
CEB
102
}
330
CEB
100
AcDbXrecord
340
0
  0
XRECORD
  5
CFA
102
{ACAD_REACTORS
330
CEB
102
}
330
CEB
100
AcDbXrecord
 70
     0
  0
XRECORD
  5
CEF
102
{ACAD_REACTORS
330
CEB
102
}
330
CEB
100
AcDbXrecord
  1

  0
XRECORD
  5
CEC
102
{ACAD_REACTORS
330
CEB
102
}
330
CEB
100
AcDbXrecord
 90
        1
  0
XRECORD
  5
CED
102
{ACAD_REACTORS
330
CEB
102
}
330
CEB
100
AcDbXrecord
 90
       70
  0
XRECORD
  5
D04
102
{ACAD_REACTORS
330
CEB
102
}
330
CEB
100
AcDbXrecord
340
0
  0
XRECORD
  5
D0A
102
{ACAD_REACTORS
330
CEB
102
}
330
CEB
100
AcDbXrecord
 10
0.0
 20
0.0
 30
0.0
  0
XRECORD
  5
D06
102
{ACAD_REACTORS
330
CEB
102
}
330
CEB
100
AcDbXrecord
 10
0.0
 20
0.0
 30
0.0
  0
XRECORD
  5
D09
102
{ACAD_REACTORS
330
CEB
102
}
330
CEB
100
AcDbXrecord
 10
0.0
 20
0.0
 30
0.0
  0
XRECORD
  5
D07
102
{ACAD_REACTORS
330
CEB
102
}
330
CEB
100
AcDbXrecord
 10
0.0
 20
0.0
 30
0.0
  0
XRECORD
  5
D08
102
{ACAD_REACTORS
330
CEB
102
}
330
CEB
100
AcDbXrecord
 10
0.0
 20
0.0
 30
0.0
  0
XRECORD
  5
D05
102
{ACAD_REACTORS
330
CEB
102
}
330
CEB
100
AcDbXrecord
 10
0.0
 20
0.0
 30
0.0
  0
XRECORD
  5
D02
102
{ACAD_REACTORS
330
CEB
102
}
330
CEB
100
AcDbXrecord
340
0
  0
XRECORD
  5
D03
102
{ACAD_REACTORS
330
CEB
102
}
330
CEB
100
AcDbXrecord
 70
     0
  0
XRECORD
  5
CF7
102
{ACAD_REACTORS
330
CEB
102
}
330
CEB
100
AcDbXrecord
  1
{E7381AF0-1375-4C07-A186-B603FBA55295}
  0
DICTIONARYVAR
  5
917
102
{ACAD_REACTORS
330
915
102
}
330
915
100
DictionaryVariables
280
     0
  1
2
  0
DICTIONARYVAR
  5
916
102
{ACAD_REACTORS
330
915
102
}
330
915
100
DictionaryVariables
280
     0
  1
1
  0
ENDSEC
  0
EOF
