  0
SECTION
  2
HEADER
  9
$ACADVER
  1
AC1014
  9
$ACADMAINTVER
 70
     9
  9
$DWGCODEPAGE
  3
ANSI_932
  9
$INSBASE
 10
0.0
 20
0.0
 30
0.0
  9
$EXTMIN
 10
30.81117061825931
 20
-0.000000779020752
 30
0.0
  9
$EXTMAX
 10
439.0771910146114
 20
418.4629587584216
 30
0.0
  9
$LIMMIN
 10
0.0
 20
0.0
  9
$LIMMAX
 10
420.0
 20
297.0
  9
$ORTHOMODE
 70
     0
  9
$REGENMODE
 70
     1
  9
$FILLMODE
 70
     1
  9
$QTEXTMODE
 70
     0
  9
$MIRRTEXT
 70
     1
  9
$DRAGMODE
 70
     2
  9
$LTSCALE
 40
1.0
  9
$OSMODE
 70
    55
  9
$ATTMODE
 70
     1
  9
$TEXTSIZE
 40
2.5
  9
$TRACEWID
 40
1.0
  9
$TEXTSTYLE
  7
STANDARD
  9
$CLAYER
  8
0
  9
$CELTYPE
  6
BYLAYER
  9
$CECOLOR
 62
   256
  9
$CELTSCALE
 40
1.0
  9
$DELOBJ
 70
     1
  9
$DISPSILH
 70
     0
  9
$DIMSCALE
 40
1.0
  9
$DIMASZ
 40
2.5
  9
$DIMEXO
 40
0.625
  9
$DIMDLI
 40
3.75
  9
$DIMRND
 40
0.0
  9
$DIMDLE
 40
0.0
  9
$DIMEXE
 40
1.25
  9
$DIMTP
 40
0.0
  9
$DIMTM
 40
0.0
  9
$DIMTXT
 40
2.5
  9
$DIMCEN
 40
2.5
  9
$DIMTSZ
 40
0.0
  9
$DIMTOL
 70
     0
  9
$DIMLIM
 70
     0
  9
$DIMTIH
 70
     0
  9
$DIMTOH
 70
     0
  9
$DIMSE1
 70
     0
  9
$DIMSE2
 70
     0
  9
$DIMTAD
 70
     1
  9
$DIMZIN
 70
     8
  9
$DIMBLK
  1

  9
$DIMASO
 70
     1
  9
$DIMSHO
 70
     1
  9
$DIMPOST
  1

  9
$DIMAPOST
  1

  9
$DIMALT
 70
     0
  9
$DIMALTD
 70
     3
  9
$DIMALTF
 40
0.03937007874016
  9
$DIMLFAC
 40
1.0
  9
$DIMTOFL
 70
     1
  9
$DIMTVP
 40
0.0
  9
$DIMTIX
 70
     0
  9
$DIMSOXD
 70
     0
  9
$DIMSAH
 70
     0
  9
$DIMBLK1
  1

  9
$DIMBLK2
  1

  9
$DIMSTYLE
  2
ISO-25
  9
$DIMCLRD
 70
     0
  9
$DIMCLRE
 70
     0
  9
$DIMCLRT
 70
     0
  9
$DIMTFAC
 40
1.0
  9
$DIMGAP
 40
0.625
  9
$DIMJUST
 70
     0
  9
$DIMSD1
 70
     0
  9
$DIMSD2
 70
     0
  9
$DIMTOLJ
 70
     0
  9
$DIMTZIN
 70
     8
  9
$DIMALTZ
 70
     0
  9
$DIMALTTZ
 70
     0
  9
$DIMFIT
 70
     3
  9
$DIMUPT
 70
     0
  9
$DIMUNIT
 70
     2
  9
$DIMDEC
 70
     2
  9
$DIMTDEC
 70
     2
  9
$DIMALTU
 70
     2
  9
$DIMALTTD
 70
     3
  9
$DIMTXSTY
  7
STANDARD
  9
$DIMAUNIT
 70
     0
  9
$LUNITS
 70
     2
  9
$LUPREC
 70
     4
  9
$SKETCHINC
 40
1.0
  9
$FILLETRAD
 40
10.0
  9
$AUNITS
 70
     0
  9
$AUPREC
 70
     0
  9
$MENU
  1
.
  9
$ELEVATION
 40
0.0
  9
$PELEVATION
 40
0.0
  9
$THICKNESS
 40
0.0
  9
$LIMCHECK
 70
     0
  9
$BLIPMODE
 70
     0
  9
$CHAMFERA
 40
10.0
  9
$CHAMFERB
 40
10.0
  9
$CHAMFERC
 40
20.0
  9
$CHAMFERD
 40
0.0
  9
$SKPOLY
 70
     0
  9
$TDCREATE
 40
2455874.715734143
  9
$TDUPDATE
 40
2456013.758090278
  9
$TDINDWG
 40
0.0056586343
  9
$TDUSRTIMER
 40
0.0056581019
  9
$USRTIMER
 70
     1
  9
$ANGBASE
 50
0.0
  9
$ANGDIR
 70
     0
  9
$PDMODE
 70
     0
  9
$PDSIZE
 40
0.0
  9
$PLINEWID
 40
0.0
  9
$COORDS
 70
     1
  9
$SPLFRAME
 70
     0
  9
$SPLINETYPE
 70
     6
  9
$SPLINESEGS
 70
     8
  9
$ATTDIA
 70
     0
  9
$ATTREQ
 70
     1
  9
$HANDLING
 70
 22529
  9
$HANDSEED
  5
BFA
  9
$SURFTAB1
 70
     6
  9
$SURFTAB2
 70
     6
  9
$SURFTYPE
 70
     6
  9
$SURFU
 70
     6
  9
$SURFV
 70
     6
  9
$UCSNAME
  2

  9
$UCSORG
 10
0.0
 20
0.0
 30
0.0
  9
$UCSXDIR
 10
1.0
 20
0.0
 30
0.0
  9
$UCSYDIR
 10
0.0
 20
1.0
 30
0.0
  9
$PUCSNAME
  2

  9
$PUCSORG
 10
0.0
 20
0.0
 30
0.0
  9
$PUCSXDIR
 10
1.0
 20
0.0
 30
0.0
  9
$PUCSYDIR
 10
0.0
 20
1.0
 30
0.0
  9
$USERI1
 70
     0
  9
$USERI2
 70
     0
  9
$USERI3
 70
     0
  9
$USERI4
 70
     0
  9
$USERI5
 70
     0
  9
$USERR1
 40
0.0
  9
$USERR2
 40
0.0
  9
$USERR3
 40
0.0
  9
$USERR4
 40
0.0
  9
$USERR5
 40
0.0
  9
$WORLDVIEW
 70
     1
  9
$SHADEDGE
 70
     3
  9
$SHADEDIF
 70
    70
  9
$TILEMODE
 70
     1
  9
$MAXACTVP
 70
    64
  9
$PINSBASE
 10
0.0
 20
0.0
 30
0.0
  9
$PLIMCHECK
 70
     0
  9
$PEXTMIN
 10
1.000000000000000E+20
 20
1.000000000000000E+20
 30
1.000000000000000E+20
  9
$PEXTMAX
 10
-1.000000000000000E+20
 20
-1.000000000000000E+20
 30
-1.000000000000000E+20
  9
$PLIMMIN
 10
0.0
 20
0.0
  9
$PLIMMAX
 10
420.0
 20
297.0
  9
$UNITMODE
 70
     0
  9
$VISRETAIN
 70
     1
  9
$PLINEGEN
 70
     0
  9
$PSLTSCALE
 70
     1
  9
$TREEDEPTH
 70
  3020
  9
$PICKSTYLE
 70
     1
  9
$CMLSTYLE
  2
STANDARD
  9
$CMLJUST
 70
     0
  9
$CMLSCALE
 40
20.0
  9
$PROXYGRAPHICS
 70
     1
  9
$MEASUREMENT
 70
     1
  0
ENDSEC
  0
SECTION
  2
CLASSES
  0
CLASS
  1
ACDBDICTIONARYWDFLT
  2
AcDbDictionaryWithDefault
  3
AutoCAD 2000
 90
        0
280
     0
281
     0
  0
CLASS
  1
ACDBPLACEHOLDER
  2
AcDbPlaceHolder
  3
AutoCAD 2000
 90
        0
280
     0
281
     0
  0
CLASS
  1
LAYOUT
  2
AcDbLayout
  3
AutoCAD 2000
 90
        0
280
     0
281
     0
  0
CLASS
  1
DICTIONARYVAR
  2
AcDbDictionaryVar
  3
AutoCAD 2000
 90
        0
280
     0
281
     0
  0
CLASS
  1
LONG_TRANSACTION
  2
AcDbLongTransaction
  3
AutoCAD 2000
 90
        0
280
     0
281
     0
  0
CLASS
  1
LWPOLYLINE
  2
AcDbPolyline
  3
AutoCAD 2000
 90
        0
280
     0
281
     1
  0
CLASS
  1
HATCH
  2
AcDbHatch
  3
AutoCAD 2000
 90
        0
280
     0
281
     1
  0
CLASS
  1
XRECORD
  2
AcDbXrecord
  3
AutoCAD 2000
 90
        0
280
     0
281
     0
  0
CLASS
  1
LONG_TRANSACTION
  2
AcDbLongTransaction
  3
AutoCAD 2000
 90
        0
280
     0
281
     0
  0
CLASS
  1
LWPOLYLINE
  2
AcDbPolyline
  3
AutoCAD 2000
 90
        0
280
     0
281
     1
  0
CLASS
  1
HATCH
  2
AcDbHatch
  3
AutoCAD 2000
 90
        0
280
     0
281
     1
  0
CLASS
  1
XRECORD
  2
AcDbXrecord
  3
AutoCAD 2000
 90
        0
280
     0
281
     0
  0
CLASS
  1
LONG_TRANSACTION
  2
AcDbLongTransaction
  3
AutoCAD 2000
 90
        0
280
     0
281
     0
  0
CLASS
  1
LWPOLYLINE
  2
AcDbPolyline
  3
AutoCAD 2000
 90
        0
280
     0
281
     1
  0
CLASS
  1
HATCH
  2
AcDbHatch
  3
AutoCAD 2000
 90
        0
280
     0
281
     1
  0
CLASS
  1
XRECORD
  2
AcDbXrecord
  3
AutoCAD 2000
 90
        0
280
     0
281
     0
  0
CLASS
  1
LONG_TRANSACTION
  2
AcDbLongTransaction
  3
AutoCAD 2000
 90
        0
280
     0
281
     0
  0
CLASS
  1
LWPOLYLINE
  2
AcDbPolyline
  3
AutoCAD 2000
 90
        0
280
     0
281
     1
  0
CLASS
  1
HATCH
  2
AcDbHatch
  3
AutoCAD 2000
 90
        0
280
     0
281
     1
  0
CLASS
  1
XRECORD
  2
AcDbXrecord
  3
AutoCAD 2000
 90
        0
280
     0
281
     0
  0
CLASS
  1
LONG_TRANSACTION
  2
AcDbLongTransaction
  3
AutoCAD 2000
 90
        0
280
     0
281
     0
  0
CLASS
  1
LWPOLYLINE
  2
AcDbPolyline
  3
AutoCAD 2000
 90
        0
280
     0
281
     1
  0
CLASS
  1
HATCH
  2
AcDbHatch
  3
AutoCAD 2000
 90
        0
280
     0
281
     1
  0
CLASS
  1
XRECORD
  2
AcDbXrecord
  3
AutoCAD 2000
 90
        0
280
     0
281
     0
  0
CLASS
  1
LONG_TRANSACTION
  2
AcDbLongTransaction
  3
AutoCAD 2000
 90
        0
280
     0
281
     0
  0
CLASS
  1
LWPOLYLINE
  2
AcDbPolyline
  3
AutoCAD 2000
 90
        0
280
     0
281
     1
  0
CLASS
  1
HATCH
  2
AcDbHatch
  3
AutoCAD 2000
 90
        0
280
     0
281
     1
  0
CLASS
  1
XRECORD
  2
AcDbXrecord
  3
AutoCAD 2000
 90
        0
280
     0
281
     0
  0
ENDSEC
  0
SECTION
  2
TABLES
  0
TABLE
  2
VPORT
  5
8
330
0
100
AcDbSymbolTable
 70
     2
  0
VPORT
  5
BD7
330
8
100
AcDbSymbolTableRecord
100
AcDbViewportTableRecord
  2
*ACTIVE
 70
     0
 10
0.0
 20
0.0
 11
1.0
 21
1.0
 12
180.4879770177513
 22
209.2382608291888
 13
0.0
 23
0.0
 14
10.0
 24
10.0
 15
10.0
 25
10.0
 16
0.0
 26
0.0
 36
1.0
 17
0.0
 27
0.0
 37
0.0
 40
421.5290710649829
 41
1.46415552855407
 42
50.0
 43
0.0
 44
0.0
 50
0.0
 51
0.0
 71
     0
 72
   100
 73
     1
 74
     3
 75
     0
 76
     0
 77
     0
 78
     0
  0
ENDTAB
  0
TABLE
  2
LTYPE
  5
5
330
0
100
AcDbSymbolTable
 70
     3
  0
LTYPE
  5
14
330
5
100
AcDbSymbolTableRecord
100
AcDbLinetypeTableRecord
  2
BYBLOCK
 70
     0
  3

 72
    65
 73
     0
 40
0.0
  0
LTYPE
  5
15
330
5
100
AcDbSymbolTableRecord
100
AcDbLinetypeTableRecord
  2
BYLAYER
 70
     0
  3

 72
    65
 73
     0
 40
0.0
  0
LTYPE
  5
16
330
5
100
AcDbSymbolTableRecord
100
AcDbLinetypeTableRecord
  2
CONTINUOUS
 70
     0
  3
Solid line
 72
    65
 73
     0
 40
0.0
  0
LTYPE
  5
330
330
5
100
AcDbSymbolTableRecord
100
AcDbLinetypeTableRecord
  2
CENTER
 70
     0
  3
__ . __ . __ . __ . __ . __ . __ . __ . __ . __
 72
    65
 73
     4
 40
1.0
 49
0.5
 74
     0
 49
-0.25
 74
     0
 49
0.0
 74
     0
 49
-0.25
 74
     0
  0
LTYPE
  5
A8F
330
5
100
AcDbSymbolTableRecord
100
AcDbLinetypeTableRecord
  2
DASHDOT
 70
     0
  3
__ . __ . __ . __ . __ . __ . __ . __ . __ . __
 72
    65
 73
     4
 40
7.5
 49
6.0
 74
     0
 49
-0.5
 74
     0
 49
0.5
 74
     0
 49
-0.5
 74
     0
  0
ENDTAB
  0
TABLE
  2
LAYER
  5
2
102
{ACAD_XDICTIONARY
360
338
102
}
330
0
100
AcDbSymbolTable
 70
     6
  0
LAYER
  5
10
330
2
100
AcDbSymbolTableRecord
100
AcDbLayerTableRecord
  2
0
 70
     0
 62
     7
  6
CONTINUOUS
  0
LAYER
  5
332
330
2
100
AcDbSymbolTableRecord
100
AcDbLayerTableRecord
  2
DEFPOINTS
 70
     0
 62
    -7
  6
CONTINUOUS
  0
LAYER
  5
333
330
2
100
AcDbSymbolTableRecord
100
AcDbLayerTableRecord
  2
1
 70
     0
 62
     3
  6
CONTINUOUS
  0
LAYER
  5
334
330
2
100
AcDbSymbolTableRecord
100
AcDbLayerTableRecord
  2
部品
 70
     0
 62
     7
  6
CONTINUOUS
  0
LAYER
  5
335
330
2
100
AcDbSymbolTableRecord
100
AcDbLayerTableRecord
  2
3_表示パネル
 70
     0
 62
     7
  6
CONTINUOUS
  0
LAYER
  5
A90
330
2
100
AcDbSymbolTableRecord
100
AcDbLayerTableRecord
  2
2_カバ_
 70
     0
 62
     7
  6
CONTINUOUS
  0
ENDTAB
  0
TABLE
  2
STYLE
  5
3
330
0
100
AcDbSymbolTable
 70
     1
  0
STYLE
  5
11
330
3
100
AcDbSymbolTableRecord
100
AcDbTextStyleTableRecord
  2
STANDARD
 70
     0
 40
0.0
 41
1.0
 50
0.0
 71
     0
 42
2.5
  3
txt
  4

  0
ENDTAB
  0
TABLE
  2
VIEW
  5
6
330
0
100
AcDbSymbolTable
 70
     0
  0
ENDTAB
  0
TABLE
  2
UCS
  5
7
330
0
100
AcDbSymbolTable
 70
     0
  0
ENDTAB
  0
TABLE
  2
APPID
  5
9
330
0
100
AcDbSymbolTable
 70
     1
  0
APPID
  5
12
330
9
100
AcDbSymbolTableRecord
100
AcDbRegAppTableRecord
  2
ACAD
 70
     0
  0
ENDTAB
  0
TABLE
  2
DIMSTYLE
  5
A
330
0
100
AcDbSymbolTable
 70
     2
  0
DIMSTYLE
105
27
330
A
100
AcDbSymbolTableRecord
100
AcDbDimStyleTableRecord
  2
ISO-25
 70
     0
  3

  4

  5

  6

  7

 40
1.0
 41
2.5
 42
0.625
 43
3.75
 44
1.25
 45
0.0
 46
0.0
 47
0.0
 48
0.0
140
2.5
141
2.5
142
0.0
143
0.03937007874016
144
1.0
145
0.0
146
1.0
147
0.625
 71
     0
 72
     0
 73
     0
 74
     0
 75
     0
 76
     0
 77
     1
 78
     8
170
     0
171
     3
172
     1
173
     0
174
     0
175
     0
176
     0
177
     0
178
     0
270
     2
271
     2
272
     2
273
     2
274
     3
340
11
275
     0
280
     0
281
     0
282
     0
283
     0
284
     8
285
     0
286
     0
287
     3
288
     0
  0
DIMSTYLE
105
337
330
A
100
AcDbSymbolTableRecord
100
AcDbDimStyleTableRecord
  2
STANDARD
 70
     0
  3

  4

  5

  6

  7

 40
1.0
 41
2.5
 42
0.625
 43
3.75
 44
1.25
 45
0.0
 46
0.0
 47
0.0
 48
0.0
140
2.5
141
2.5
142
0.0
143
0.0394
144
1.0
145
0.0
146
1.0
147
0.625
 71
     0
 72
     0
 73
     0
 74
     0
 75
     0
 76
     0
 77
     1
 78
     8
170
     0
171
     4
172
     1
173
     0
174
     0
175
     0
176
     0
177
     0
178
     0
270
     2
271
     4
272
     4
273
     8
274
     4
340
11
275
     0
280
     0
281
     0
282
     0
283
     1
284
     0
285
     0
286
     0
287
     3
288
     0
  0
ENDTAB
  0
TABLE
  2
BLOCK_RECORD
  5
1
330
0
100
AcDbSymbolTable
 70
     3
  0
BLOCK_RECORD
  5
1F
102
{ACAD_XDICTIONARY
360
922
102
}
330
1
100
AcDbSymbolTableRecord
100
AcDbBlockTableRecord
  2
*MODEL_SPACE
  0
BLOCK_RECORD
  5
1B
102
{ACAD_XDICTIONARY
360
920
102
}
330
1
100
AcDbSymbolTableRecord
100
AcDbBlockTableRecord
  2
*PAPER_SPACE
  0
BLOCK_RECORD
  5
191
330
1
100
AcDbSymbolTableRecord
100
AcDbBlockTableRecord
  2
A$C2A5F753D
  0
BLOCK_RECORD
  5
308
330
1
100
AcDbSymbolTableRecord
100
AcDbBlockTableRecord
  2
A$C2B5B324C
  0
ENDTAB
  0
ENDSEC
  0
SECTION
  2
BLOCKS
  0
BLOCK
  5
20
330
1F
100
AcDbEntity
  8
0
100
AcDbBlockBegin
  2
*MODEL_SPACE
 70
     0
 10
0.0
 20
0.0
 30
0.0
  3
*MODEL_SPACE
  1

  0
ENDBLK
  5
21
330
1F
100
AcDbEntity
  8
0
100
AcDbBlockEnd
  0
BLOCK
  5
1C
330
1B
100
AcDbEntity
 67
     1
  8
0
100
AcDbBlockBegin
  2
*PAPER_SPACE
 70
     0
 10
0.0
 20
0.0
 30
0.0
  3
*PAPER_SPACE
  1

  0
ENDBLK
  5
1D
330
1B
100
AcDbEntity
 67
     1
  8
0
100
AcDbBlockEnd
  0
BLOCK
  5
297
330
191
100
AcDbEntity
  8
0
100
AcDbBlockBegin
  2
A$C2A5F753D
 70
     0
 10
0.0
 20
0.0
 30
0.0
  3
A$C2A5F753D
  1

  0
LINE
  5
192
330
191
100
AcDbEntity
  8
3_表示パネル
 62
    40
100
AcDbLine
 10
20.09985163882992
 20
-41.52500174595388
 30
0.0
 11
20.09985163882992
 21
-44.22500174595461
 31
0.0
  0
LINE
  5
193
330
191
100
AcDbEntity
  8
3_表示パネル
 62
    40
100
AcDbLine
 10
18.49985163882957
 20
-44.22500174595461
 30
0.0
 11
18.49985163882957
 21
-41.52500174595388
 31
0.0
  0
LINE
  5
194
330
191
100
AcDbEntity
  8
3_表示パネル
  6
CENTER
 62
    40
100
AcDbLine
 10
20.09985163882992
 20
-41.52500174595388
 30
0.0
 11
18.49985163882957
 21
-41.52500174595388
 31
0.0
  0
LINE
  5
195
330
191
100
AcDbEntity
  8
3_表示パネル
  6
CENTER
 62
    40
100
AcDbLine
 10
20.09985163882992
 20
-44.22500174595461
 30
0.0
 11
18.49985163882957
 21
-44.22500174595461
 31
0.0
  0
LINE
  5
196
330
191
100
AcDbEntity
  8
3_表示パネル
 62
    40
100
AcDbLine
 10
20.09985163882992
 20
-47.02499774591433
 30
0.0
 11
20.09985163882992
 21
-49.72499774591506
 31
0.0
  0
LINE
  5
197
330
191
100
AcDbEntity
  8
3_表示パネル
 62
    40
100
AcDbLine
 10
18.49985163882957
 20
-49.72499774591506
 30
0.0
 11
18.49985163882957
 21
-47.02499774591433
 31
0.0
  0
LINE
  5
198
330
191
100
AcDbEntity
  8
3_表示パネル
  6
CENTER
 62
    40
100
AcDbLine
 10
20.09985163882992
 20
-47.02499774591433
 30
0.0
 11
18.49985163882957
 21
-47.02499774591433
 31
0.0
  0
LINE
  5
199
330
191
100
AcDbEntity
  8
3_表示パネル
  6
CENTER
 62
    40
100
AcDbLine
 10
20.09985163882992
 20
-49.72499774591506
 30
0.0
 11
18.49985163882957
 21
-49.72499774591506
 31
0.0
  0
LINE
  5
19A
330
191
100
AcDbEntity
  8
0
100
AcDbLine
 10
20.09985163882992
 20
-41.52500174595365
 30
0.0
 11
20.09985163882992
 21
-44.22500174595437
 31
0.0
  0
LINE
  5
19B
330
191
100
AcDbEntity
  8
0
100
AcDbLine
 10
18.49985163882957
 20
-44.22500174595437
 30
0.0
 11
18.49985163882957
 21
-41.52500174595365
 31
0.0
  0
LINE
  5
19C
330
191
100
AcDbEntity
  8
0
  6
CENTER
100
AcDbLine
 10
20.09985163882992
 20
-41.52500174595365
 30
0.0
 11
18.49985163882957
 21
-41.52500174595365
 31
0.0
  0
LINE
  5
19D
330
191
100
AcDbEntity
  8
0
  6
CENTER
100
AcDbLine
 10
20.09985163882992
 20
-44.22500174595437
 30
0.0
 11
18.49985163882957
 21
-44.22500174595437
 31
0.0
  0
LINE
  5
19E
330
191
100
AcDbEntity
  8
0
100
AcDbLine
 10
20.09985163882992
 20
-47.0249977459141
 30
0.0
 11
20.09985163882992
 21
-49.72499774591483
 31
0.0
  0
LINE
  5
19F
330
191
100
AcDbEntity
  8
0
100
AcDbLine
 10
18.49985163882957
 20
-49.72499774591483
 30
0.0
 11
18.49985163882957
 21
-47.0249977459141
 31
0.0
  0
LINE
  5
1A0
330
191
100
AcDbEntity
  8
0
  6
CENTER
100
AcDbLine
 10
20.09985163882992
 20
-47.0249977459141
 30
0.0
 11
18.49985163882957
 21
-47.0249977459141
 31
0.0
  0
LINE
  5
1A1
330
191
100
AcDbEntity
  8
0
  6
CENTER
100
AcDbLine
 10
20.09985163882992
 20
-49.72499774591483
 30
0.0
 11
18.49985163882957
 21
-49.72499774591483
 31
0.0
  0
LINE
  5
1A2
330
191
100
AcDbEntity
  8
0
100
AcDbLine
 10
17.00000011174958
 20
-50.24505853127175
 30
0.0
 11
17.00000011174958
 21
-85.90494146872812
 31
0.0
  0
LINE
  5
1A3
330
191
100
AcDbEntity
  8
0
100
AcDbLine
 10
13.80000011175001
 20
-50.24505853127175
 30
0.0
 11
17.00000011174958
 21
-50.24505853127175
 31
0.0
  0
LINE
  5
1A4
330
191
100
AcDbEntity
  8
0
100
AcDbLine
 10
13.80000011175001
 20
-47.24505853127197
 30
0.0
 11
13.80000011175001
 21
-50.24505853127175
 31
0.0
  0
LINE
  5
1A5
330
191
100
AcDbEntity
  8
0
100
AcDbLine
 10
7.200000111750112
 20
-47.24505853127197
 30
0.0
 11
13.80000011175001
 21
-47.24505853127197
 31
0.0
  0
LINE
  5
1A6
330
191
100
AcDbEntity
  8
0
100
AcDbLine
 10
7.200000111750112
 20
-50.24667519510468
 30
0.0
 11
7.200000111750112
 21
-47.24505853127197
 31
0.0
  0
LINE
  5
1A7
330
191
100
AcDbEntity
  8
0
100
AcDbLine
 10
7.200000111750112
 20
-50.24667519510468
 30
0.0
 11
4.598606297407513
 21
-50.24667519510468
 31
0.0
  0
LINE
  5
1A8
330
191
100
AcDbEntity
  8
0
100
AcDbLine
 10
13.80000026392667
 20
-85.90494146872812
 30
0.0
 11
17.00000011174958
 21
-85.90494146872812
 31
0.0
  0
LINE
  5
1A9
330
191
100
AcDbEntity
  8
0
100
AcDbLine
 10
13.80000026392667
 20
-88.90494146872809
 30
0.0
 11
13.80000026392667
 21
-85.90494146872812
 31
0.0
  0
LINE
  5
1AA
330
191
100
AcDbEntity
  8
0
100
AcDbLine
 10
7.200000263926766
 20
-88.90494146872809
 30
0.0
 11
13.80000026392667
 21
-88.90494146872809
 31
0.0
  0
LINE
  5
1AB
330
191
100
AcDbEntity
  8
0
100
AcDbLine
 10
7.200000263926766
 20
-85.90494146872812
 30
0.0
 11
7.200000263926766
 21
-88.90494146872809
 31
0.0
  0
LINE
  5
1AC
330
191
100
AcDbEntity
  8
0
100
AcDbLine
 10
7.200000263926766
 20
-85.90494146872812
 30
0.0
 11
4.598606297407741
 21
-85.90484374061245
 31
0.0
  0
LINE
  5
1AD
330
191
100
AcDbEntity
  8
0
 48
5.0
100
AcDbLine
 10
4.598606297407741
 20
-85.90484374061245
 30
0.0
 11
4.598606262804196
 21
-50.24578999719347
 31
0.0
  0
LINE
  5
1AE
330
191
100
AcDbEntity
  8
部品
  6
CONTINUOUS
100
AcDbLine
 10
7.450000088650082
 20
-59.22500013259969
 30
0.0
 11
7.450000088650082
 21
-76.92499986739972
 31
0.0
  0
LINE
  5
1AF
330
191
100
AcDbEntity
  8
部品
  6
CONTINUOUS
100
AcDbLine
 10
6.000000223500137
 20
-59.22500013259969
 30
0.0
 11
6.000000223500137
 21
-76.92499986739972
 31
0.0
  0
LINE
  5
1B0
330
191
100
AcDbEntity
  8
部品
  6
CONTINUOUS
100
AcDbLine
 10
7.150000132600097
 20
-76.92499986739972
 30
0.0
 11
7.150000132600097
 21
-59.22500013259969
 31
0.0
  0
LINE
  5
1B1
330
191
100
AcDbEntity
  8
部品
  6
CONTINUOUS
100
AcDbLine
 10
14.55000013485005
 20
-61.57499986589982
 30
0.0
 11
14.55000013485005
 21
-60.22500029654975
 31
0.0
  0
LINE
  5
1B2
330
191
100
AcDbEntity
  8
部品
  6
CONTINUOUS
100
AcDbLine
 10
14.85000009090003
 20
-59.9249998748496
 30
0.0
 11
14.85000009090003
 21
-61.27499990984961
 31
0.0
  0
LINE
  5
1B3
330
191
100
AcDbEntity
  8
部品
  6
CONTINUOUS
100
AcDbLine
 10
16.0
 20
-61.27499990984961
 30
0.0
 11
16.0
 21
-55.77500040529979
 31
0.0
  0
LINE
  5
1B4
330
191
100
AcDbEntity
  8
部品
  6
CONTINUOUS
100
AcDbLine
 10
12.75000016574995
 20
-78.37500019819981
 30
0.0
 11
12.75000016574995
 21
-75.92499970344966
 31
0.0
  0
LINE
  5
1B5
330
191
100
AcDbEntity
  8
部品
  6
CONTINUOUS
100
AcDbLine
 10
9.250000057749957
 20
-76.92499986739972
 30
0.0
 11
9.250000057749957
 21
-78.37500019819981
 31
0.0
  0
LINE
  5
1B6
330
191
100
AcDbEntity
  8
部品
  6
CONTINUOUS
100
AcDbLine
 10
6.000000223500137
 20
-77.22500028909962
 30
0.0
 11
6.000000223500137
 21
-76.92499986739972
 31
0.0
  0
LINE
  5
1B7
330
191
100
AcDbEntity
  8
部品
  6
CONTINUOUS
100
AcDbLine
 10
8.95000010169997
 20
-77.22500028909962
 30
0.0
 11
9.250000057749957
 21
-76.92499986739972
 31
0.0
  0
LINE
  5
1B8
330
191
100
AcDbEntity
  8
部品
  6
CONTINUOUS
100
AcDbLine
 10
16.0
 20
-80.37499959469959
 30
0.0
 11
16.0
 21
-74.87500009014979
 31
0.0
  0
LINE
  5
1B9
330
191
100
AcDbEntity
  8
部品
  6
CONTINUOUS
100
AcDbLine
 10
13.05000012179992
 20
-76.22500012514979
 30
0.0
 11
13.05000012179992
 21
-78.67499968854962
 31
0.0
  0
LINE
  5
1BA
330
191
100
AcDbEntity
  8
部品
  6
CONTINUOUS
100
AcDbLine
 10
6.300000179550124
 20
-84.70499950349973
 30
0.0
 11
15.70000004395001
 21
-84.70499950349973
 31
0.0
  0
LINE
  5
1BB
330
191
100
AcDbEntity
  8
部品
  6
CONTINUOUS
100
AcDbLine
 10
16.0
 20
-80.37499959469959
 30
0.0
 11
6.000000223500137
 21
-80.37499959469959
 31
0.0
  0
LINE
  5
1BC
330
191
100
AcDbEntity
  8
部品
  6
CONTINUOUS
100
AcDbLine
 10
16.0
 20
-84.40500001309967
 30
0.0
 11
16.0
 21
-80.37499959469959
 31
0.0
  0
LINE
  5
1BD
330
191
100
AcDbEntity
  8
部品
  6
CONTINUOUS
100
AcDbLine
 10
15.70000004395001
 20
-84.70499950349973
 30
0.0
 11
16.0
 21
-84.40500001309967
 31
0.0
  0
LINE
  5
1BE
330
191
100
AcDbEntity
  8
部品
  6
CONTINUOUS
100
AcDbLine
 10
8.95000010169997
 20
-77.22500028909962
 30
0.0
 11
6.000000223500137
 21
-77.22500028909962
 31
0.0
  0
LINE
  5
1BF
330
191
100
AcDbEntity
  8
部品
  6
CONTINUOUS
100
AcDbLine
 10
9.250000057749957
 20
-78.37500019819981
 30
0.0
 11
12.75000016574995
 21
-78.37500019819981
 31
0.0
  0
LINE
  5
1C0
330
191
100
AcDbEntity
  8
部品
  6
CONTINUOUS
100
AcDbLine
 10
13.05000012179992
 20
-78.67499968854962
 30
0.0
 11
8.95000010169997
 21
-78.67499968854962
 31
0.0
  0
LINE
  5
1C1
330
191
100
AcDbEntity
  8
部品
  6
CONTINUOUS
100
AcDbLine
 10
13.05000012179992
 20
-78.67499968854962
 30
0.0
 11
12.75000016574995
 21
-78.37500019819981
 31
0.0
  0
LINE
  5
1C2
330
191
100
AcDbEntity
  8
部品
  6
CONTINUOUS
100
AcDbLine
 10
8.95000010169997
 20
-78.67499968854962
 30
0.0
 11
9.250000057749957
 21
-78.37500019819981
 31
0.0
  0
LINE
  5
1C3
330
191
100
AcDbEntity
  8
部品
  6
CONTINUOUS
100
AcDbLine
 10
8.95000010169997
 20
-78.67499968854962
 30
0.0
 11
8.95000010169997
 21
-77.22500028909962
 31
0.0
  0
LINE
  5
1C4
330
191
100
AcDbEntity
  8
部品
  6
CONTINUOUS
100
AcDbLine
 10
6.000000223500137
 20
-80.37499959469959
 30
0.0
 11
6.000000223499909
 21
-84.40500001309967
 31
0.0
  0
LINE
  5
1C5
330
191
100
AcDbEntity
  8
部品
  6
CONTINUOUS
100
AcDbLine
 10
6.000000223499909
 20
-84.40500001309967
 30
0.0
 11
6.300000179550124
 21
-84.70499950349973
 31
0.0
  0
LINE
  5
1C6
330
191
100
AcDbEntity
  8
部品
  6
CONTINUOUS
100
AcDbLine
 10
6.000000223500137
 20
-77.22500028909962
 30
0.0
 11
6.000000223500137
 21
-80.37499959469959
 31
0.0
  0
LINE
  5
1C7
330
191
100
AcDbEntity
  8
部品
  6
CONTINUOUS
100
AcDbLine
 10
12.75000016574995
 20
-75.92499970344966
 30
0.0
 11
14.55000013485005
 21
-75.92499970344966
 31
0.0
  0
LINE
  5
1C8
330
191
100
AcDbEntity
  8
部品
  6
CONTINUOUS
100
AcDbLine
 10
14.85000009090003
 20
-76.22500012514979
 30
0.0
 11
13.05000012179992
 21
-76.22500012514979
 31
0.0
  0
LINE
  5
1C9
330
191
100
AcDbEntity
  8
部品
  6
CONTINUOUS
100
AcDbLine
 10
16.0
 20
-74.57500013409981
 30
0.0
 11
16.0
 21
-61.57499986589982
 31
0.0
  0
LINE
  5
1CA
330
191
100
AcDbEntity
  8
部品
  6
CONTINUOUS
100
AcDbLine
 10
14.55000013485005
 20
-74.57500013409981
 30
0.0
 11
14.55000013485005
 21
-61.57499986589982
 31
0.0
  0
LINE
  5
1CB
330
191
100
AcDbEntity
  8
部品
  6
CONTINUOUS
100
AcDbLine
 10
14.85000009090003
 20
-61.57499986589982
 30
0.0
 11
14.85000009090003
 21
-74.57500013409981
 31
0.0
  0
LINE
  5
1CC
330
191
100
AcDbEntity
  8
部品
  6
CONTINUOUS
100
AcDbLine
 10
14.55000013485005
 20
-75.92499970344966
 30
0.0
 11
14.55000013485005
 21
-74.57500013409981
 31
0.0
  0
LINE
  5
1CD
330
191
100
AcDbEntity
  8
部品
  6
CONTINUOUS
100
AcDbLine
 10
14.85000009090003
 20
-74.87500009014979
 30
0.0
 11
14.85000009090003
 21
-76.22500012514979
 31
0.0
  0
LINE
  5
1CE
330
191
100
AcDbEntity
  8
部品
  6
CONTINUOUS
100
AcDbLine
 10
14.85000009090003
 20
-76.22500012514979
 30
0.0
 11
14.55000013485005
 21
-75.92499970344966
 31
0.0
  0
LINE
  5
1CF
330
191
100
AcDbEntity
  8
部品
  6
CONTINUOUS
100
AcDbLine
 10
16.0
 20
-74.57500013409981
 30
0.0
 11
16.0
 21
-74.87500009014979
 31
0.0
  0
LINE
  5
1D0
330
191
100
AcDbEntity
  8
部品
  6
CONTINUOUS
100
AcDbLine
 10
14.55000013485005
 20
-74.57500013409981
 30
0.0
 11
16.0
 21
-74.57500013409981
 31
0.0
  0
LINE
  5
1D1
330
191
100
AcDbEntity
  8
部品
  6
CONTINUOUS
100
AcDbLine
 10
14.85000009090003
 20
-74.87500009014979
 30
0.0
 11
14.55000013485005
 21
-74.57500013409981
 31
0.0
  0
LINE
  5
1D2
330
191
100
AcDbEntity
  8
部品
  6
CONTINUOUS
100
AcDbLine
 10
16.0
 20
-74.87500009014979
 30
0.0
 11
14.85000009090003
 21
-74.87500009014979
 31
0.0
  0
LINE
  5
1D3
330
191
100
AcDbEntity
  8
部品
  6
CONTINUOUS
100
AcDbLine
 10
16.0
 20
-61.27499990984961
 30
0.0
 11
16.0
 21
-61.57499986589982
 31
0.0
  0
LINE
  5
1D4
330
191
100
AcDbEntity
  8
部品
  6
CONTINUOUS
100
AcDbLine
 10
16.0
 20
-61.57499986589982
 30
0.0
 11
14.55000013485005
 21
-61.57499986589982
 31
0.0
  0
LINE
  5
1D5
330
191
100
AcDbEntity
  8
部品
  6
CONTINUOUS
100
AcDbLine
 10
14.55000013485005
 20
-61.57499986589982
 30
0.0
 11
14.85000009090003
 21
-61.27499990984961
 31
0.0
  0
LINE
  5
1D6
330
191
100
AcDbEntity
  8
部品
  6
CONTINUOUS
100
AcDbLine
 10
14.85000009090003
 20
-61.27499990984961
 30
0.0
 11
16.0
 21
-61.27499990984961
 31
0.0
  0
LINE
  5
1D7
330
191
100
AcDbEntity
  8
部品
  6
CONTINUOUS
100
AcDbLine
 10
10.40000008325
 20
-68.44499999429968
 30
0.0
 11
10.70000009750015
 21
-68.74499997944963
 31
0.0
  0
LINE
  5
1D8
330
191
100
AcDbEntity
  8
部品
  6
CONTINUOUS
100
AcDbLine
 10
11.60000014025013
 20
-68.44499999429968
 30
0.0
 11
11.30000012599998
 21
-68.74499997944986
 31
0.0
  0
LINE
  5
1D9
330
191
100
AcDbEntity
  8
部品
  6
CONTINUOUS
100
AcDbLine
 10
12.92500010130015
 20
-61.52499995084962
 30
0.0
 11
12.92500010130015
 21
-74.62500004914978
 31
0.0
  0
LINE
  5
1DA
330
191
100
AcDbEntity
  8
部品
  6
CONTINUOUS
100
AcDbLine
 10
12.62500014524992
 20
-74.32500009314981
 30
0.0
 11
12.62500014524992
 21
-61.82499990684982
 31
0.0
  0
LINE
  5
1DB
330
191
100
AcDbEntity
  8
部品
  6
CONTINUOUS
100
AcDbLine
 10
11.60000014025013
 20
-68.44499999429968
 30
0.0
 11
11.60000014025013
 21
-70.24499999249974
 31
0.0
  0
LINE
  5
1DC
330
191
100
AcDbEntity
  8
部品
  6
CONTINUOUS
100
AcDbLine
 10
10.40000008325
 20
-70.24499999249974
 30
0.0
 11
10.40000008325
 21
-68.44499999429968
 31
0.0
  0
LINE
  5
1DD
330
191
100
AcDbEntity
  8
部品
  6
CONTINUOUS
100
AcDbLine
 10
9.375000078199946
 20
-61.82499990684982
 30
0.0
 11
9.375000078199946
 21
-74.32500009314981
 31
0.0
  0
LINE
  5
1DE
330
191
100
AcDbEntity
  8
部品
  6
CONTINUOUS
100
AcDbLine
 10
9.075000122199979
 20
-74.62500004914978
 30
0.0
 11
9.075000122199979
 21
-61.52499995084962
 31
0.0
  0
LINE
  5
1DF
330
191
100
AcDbEntity
  8
部品
  6
CONTINUOUS
100
AcDbLine
 10
6.000000223500137
 20
-76.92499986739972
 30
0.0
 11
9.250000057749957
 21
-76.92499986739972
 31
0.0
  0
LINE
  5
1E0
330
191
100
AcDbEntity
  8
部品
  6
CONTINUOUS
100
AcDbLine
 10
12.75000016574995
 20
-76.92499986739972
 30
0.0
 11
9.250000057749957
 21
-76.92499986739972
 31
0.0
  0
LINE
  5
1E1
330
191
100
AcDbEntity
  8
部品
  6
CONTINUOUS
100
AcDbLine
 10
12.92500010130015
 20
-74.62500004914978
 30
0.0
 11
9.075000122199979
 21
-74.62500004914978
 31
0.0
  0
LINE
  5
1E2
330
191
100
AcDbEntity
  8
部品
  6
CONTINUOUS
100
AcDbLine
 10
9.375000078199946
 20
-74.32500009314981
 30
0.0
 11
12.62500014524992
 21
-74.32500009314981
 31
0.0
  0
LINE
  5
1E3
330
191
100
AcDbEntity
  8
部品
  6
CONTINUOUS
100
AcDbLine
 10
13.05000012179992
 20
-76.22500012514979
 30
0.0
 11
12.75000016574995
 21
-75.92499970344966
 31
0.0
  0
LINE
  5
1E4
330
191
100
AcDbEntity
  8
部品
  6
CONTINUOUS
100
AcDbLine
 10
12.62500014524992
 20
-74.32500009314981
 30
0.0
 11
12.92500010130015
 21
-74.62500004914978
 31
0.0
  0
LINE
  5
1E5
330
191
100
AcDbEntity
  8
部品
  6
CONTINUOUS
100
AcDbLine
 10
9.075000122199979
 20
-74.62500004914978
 30
0.0
 11
9.375000078199946
 21
-74.32500009314981
 31
0.0
  0
LINE
  5
1E6
330
191
100
AcDbEntity
  8
部品
  6
CONTINUOUS
100
AcDbLine
 10
10.70000009750015
 20
-72.4850000522997
 30
0.0
 11
11.30000012599998
 21
-72.4850000522997
 31
0.0
  0
LINE
  5
1E7
330
191
100
AcDbEntity
  8
部品
  6
CONTINUOUS
100
AcDbLine
 10
11.30000012599998
 20
-71.28499999529982
 30
0.0
 11
10.70000009750015
 21
-71.28499999529982
 31
0.0
  0
LINE
  5
1E8
330
191
100
AcDbEntity
  8
部品
  6
CONTINUOUS
100
AcDbLine
 10
10.70000009750015
 20
-69.94500003644976
 30
0.0
 11
11.30000012599998
 21
-69.94500003644976
 31
0.0
  0
LINE
  5
1E9
330
191
100
AcDbEntity
  8
部品
  6
CONTINUOUS
100
AcDbLine
 10
11.30000012599998
 20
-68.74499997944986
 30
0.0
 11
10.70000009750015
 21
-68.74499997944963
 31
0.0
  0
LINE
  5
1EA
330
191
100
AcDbEntity
  8
部品
  6
CONTINUOUS
100
AcDbLine
 10
11.60000014025013
 20
-70.24499999249974
 30
0.0
 11
10.40000008325
 21
-70.24499999249974
 31
0.0
  0
LINE
  5
1EB
330
191
100
AcDbEntity
  8
部品
  6
CONTINUOUS
100
AcDbLine
 10
10.40000008325
 20
-70.9850000392496
 30
0.0
 11
11.60000014025013
 21
-70.98500003924981
 31
0.0
  0
LINE
  5
1EC
330
191
100
AcDbEntity
  8
部品
  6
CONTINUOUS
100
AcDbLine
 10
11.60000014025013
 20
-72.7850000083497
 30
0.0
 11
10.40000008325
 21
-72.7850000083497
 31
0.0
  0
ARC
  5
1ED
330
191
100
AcDbEntity
  8
部品
  6
CONTINUOUS
100
AcDbCircle
 10
10.7000001117501
 20
-69.65499999999974
 30
0.0
 40
0.1000000000000041
100
AcDbArc
 50
303.1270179968066
 51
0.0
  0
LINE
  5
1EE
330
191
100
AcDbEntity
  8
部品
  6
CONTINUOUS
100
AcDbLine
 10
10.75327695835017
 20
-69.75499998664964
 30
0.0
 11
10.90794863230007
 21
-69.75499998664964
 31
0.0
  0
LINE
  5
1EF
330
191
100
AcDbEntity
  8
部品
  6
CONTINUOUS
100
AcDbLine
 10
10.88000011479994
 20
-69.1549999581498
 30
0.0
 11
10.7324359673
 21
-69.1549999581498
 31
0.0
  0
LINE
  5
1F0
330
191
100
AcDbEntity
  8
部品
  6
CONTINUOUS
100
AcDbLine
 10
10.88000011479994
 20
-69.55499997714969
 30
0.0
 11
10.7324359673
 21
-69.55499997714969
 31
0.0
  0
ARC
  5
1F1
330
191
100
AcDbEntity
  8
部品
  6
CONTINUOUS
100
AcDbCircle
 10
10.7000001117501
 20
-72.19499999999971
 30
0.0
 40
0.1000000000000041
100
AcDbArc
 50
303.1270179968066
 51
0.0
  0
LINE
  5
1F2
330
191
100
AcDbEntity
  8
部品
  6
CONTINUOUS
100
AcDbLine
 10
10.75327695835017
 20
-72.29500000254962
 30
0.0
 11
10.90794863230007
 21
-72.29500000254962
 31
0.0
  0
LINE
  5
1F3
330
191
100
AcDbEntity
  8
部品
  6
CONTINUOUS
100
AcDbLine
 10
10.88000011479994
 20
-71.69500009044964
 30
0.0
 11
10.7324359673
 21
-71.69500009044964
 31
0.0
  0
LINE
  5
1F4
330
191
100
AcDbEntity
  8
部品
  6
CONTINUOUS
100
AcDbLine
 10
10.88000011479994
 20
-72.09499987659978
 30
0.0
 11
10.7324359673
 21
-72.09499987659978
 31
0.0
  0
LINE
  5
1F5
330
191
100
AcDbEntity
  8
部品
  6
CONTINUOUS
100
AcDbLine
 10
11.30000012599998
 20
-72.4850000522997
 30
0.0
 11
11.30000012599998
 21
-71.28499999529982
 31
0.0
  0
LINE
  5
1F6
330
191
100
AcDbEntity
  8
部品
  6
CONTINUOUS
100
AcDbLine
 10
11.30000012599998
 20
-72.4850000522997
 30
0.0
 11
11.60000014025013
 21
-72.7850000083497
 31
0.0
  0
LINE
  5
1F7
330
191
100
AcDbEntity
  8
部品
  6
CONTINUOUS
100
AcDbLine
 10
11.60000014025013
 20
-70.98500003924981
 30
0.0
 11
11.30000012599998
 21
-71.28499999529982
 31
0.0
  0
LINE
  5
1F8
330
191
100
AcDbEntity
  8
部品
  6
CONTINUOUS
100
AcDbLine
 10
11.60000014025013
 20
-70.98500003924981
 30
0.0
 11
11.60000014025013
 21
-72.7850000083497
 31
0.0
  0
LINE
  5
1F9
330
191
100
AcDbEntity
  8
部品
  6
CONTINUOUS
100
AcDbLine
 10
11.20000010670014
 20
-71.48499988839967
 30
0.0
 11
11.30000012599998
 21
-71.48499988839967
 31
0.0
  0
LINE
  5
1FA
330
191
100
AcDbEntity
  8
部品
  6
CONTINUOUS
100
AcDbLine
 10
11.20000010670014
 20
-72.28499992639966
 30
0.0
 11
11.24587864290015
 21
-72.28499992639966
 31
0.0
  0
LINE
  5
1FB
330
191
100
AcDbEntity
  8
部品
  6
CONTINUOUS
100
AcDbLine
 10
10.80000011679999
 20
-71.48499988839967
 30
0.0
 11
11.20000010670014
 21
-71.48499988839967
 31
0.0
  0
LINE
  5
1FC
330
191
100
AcDbEntity
  8
部品
  6
CONTINUOUS
100
AcDbLine
 10
10.80000011679999
 20
-71.69500009044964
 30
0.0
 11
10.80000011679999
 21
-71.48499988839967
 31
0.0
  0
LINE
  5
1FD
330
191
100
AcDbEntity
  8
部品
  6
CONTINUOUS
100
AcDbLine
 10
10.80000011679999
 20
-72.19500017239965
 30
0.0
 11
10.80000011679999
 21
-72.09499987659978
 31
0.0
  0
LINE
  5
1FE
330
191
100
AcDbEntity
  8
部品
  6
CONTINUOUS
100
AcDbLine
 10
11.19183341179996
 20
-72.28499992639966
 30
0.0
 11
11.18989806529998
 21
-72.29500000254962
 31
0.0
  0
LINE
  5
1FF
330
191
100
AcDbEntity
  8
部品
  6
CONTINUOUS
100
AcDbLine
 10
11.20000010670014
 20
-72.28499992639966
 30
0.0
 11
11.19183341179996
 21
-72.28499992639966
 31
0.0
  0
LINE
  5
200
330
191
100
AcDbEntity
  8
部品
  6
CONTINUOUS
100
AcDbLine
 10
11.20000010670014
 20
-71.69500009044964
 30
0.0
 11
11.20000010670014
 21
-71.48499988839967
 31
0.0
  0
LINE
  5
201
330
191
100
AcDbEntity
  8
部品
  6
CONTINUOUS
100
AcDbLine
 10
11.20000010670014
 20
-72.28499992639966
 30
0.0
 11
11.20000010670014
 21
-72.09499987659978
 31
0.0
  0
LINE
  5
202
330
191
100
AcDbEntity
  8
部品
  6
CONTINUOUS
100
AcDbLine
 10
11.09205159120006
 20
-72.29500000254962
 30
0.0
 11
10.90794863230007
 21
-72.29500000254962
 31
0.0
  0
LINE
  5
203
330
191
100
AcDbEntity
  8
部品
  6
CONTINUOUS
100
AcDbLine
 10
11.09205159120006
 20
-72.29500000254962
 30
0.0
 11
11.24672326514996
 21
-72.29500000254962
 31
0.0
  0
LINE
  5
204
330
191
100
AcDbEntity
  8
部品
  6
CONTINUOUS
100
AcDbLine
 10
11.26277129189998
 20
-72.4850000522997
 30
0.0
 11
11.22983061615013
 21
-72.09499987659978
 31
0.0
  0
LINE
  5
205
330
191
100
AcDbEntity
  8
部品
  6
CONTINUOUS
100
AcDbLine
 10
11.12000010869997
 20
-71.69500009044964
 30
0.0
 11
11.26756425620007
 21
-71.69500009044964
 31
0.0
  0
LINE
  5
206
330
191
100
AcDbEntity
  8
部品
  6
CONTINUOUS
100
AcDbLine
 10
11.12000010869997
 20
-72.09499987659978
 30
0.0
 11
11.26756425620007
 21
-72.09499987659978
 31
0.0
  0
LINE
  5
207
330
191
100
AcDbEntity
  8
部品
  6
CONTINUOUS
100
AcDbLine
 10
11.26756425620007
 20
-71.69500009044964
 30
0.0
 11
11.30000012599998
 21
-71.69500009044964
 31
0.0
  0
LINE
  5
208
330
191
100
AcDbEntity
  8
部品
  6
CONTINUOUS
100
AcDbLine
 10
11.26756425620007
 20
-72.09499987659978
 30
0.0
 11
11.30000012599998
 21
-72.09499987659978
 31
0.0
  0
LINE
  5
209
330
191
100
AcDbEntity
  8
部品
  6
CONTINUOUS
100
AcDbLine
 10
11.12000010869997
 20
-71.69500009044964
 30
0.0
 11
11.12000010869997
 21
-72.09499987659978
 31
0.0
  0
LINE
  5
20A
330
191
100
AcDbEntity
  8
部品
  6
CONTINUOUS
100
AcDbLine
 10
10.88000011479994
 20
-72.09499987659978
 30
0.0
 11
10.88000011479994
 21
-71.69500009044964
 31
0.0
  0
LINE
  5
20B
330
191
100
AcDbEntity
  8
部品
  6
CONTINUOUS
100
AcDbLine
 10
11.30000012599998
 20
-69.94500003644976
 30
0.0
 11
11.30000012599998
 21
-68.74499997944986
 31
0.0
  0
LINE
  5
20C
330
191
100
AcDbEntity
  8
部品
  6
CONTINUOUS
100
AcDbLine
 10
11.30000012599998
 20
-69.94500003644976
 30
0.0
 11
11.60000014025013
 21
-70.24499999249974
 31
0.0
  0
LINE
  5
20D
330
191
100
AcDbEntity
  8
部品
  6
CONTINUOUS
100
AcDbLine
 10
11.20000010670014
 20
-68.94499998894978
 30
0.0
 11
11.30000012599998
 21
-68.94499998894978
 31
0.0
  0
LINE
  5
20E
330
191
100
AcDbEntity
  8
部品
  6
CONTINUOUS
100
AcDbLine
 10
11.20000010670014
 20
-69.74500002694981
 30
0.0
 11
11.24587864290015
 21
-69.74500002694981
 31
0.0
  0
LINE
  5
20F
330
191
100
AcDbEntity
  8
部品
  6
CONTINUOUS
100
AcDbLine
 10
10.80000011679999
 20
-68.94499998894978
 30
0.0
 11
11.20000010670014
 21
-68.94499998894978
 31
0.0
  0
LINE
  5
210
330
191
100
AcDbEntity
  8
部品
  6
CONTINUOUS
100
AcDbLine
 10
10.80000011679999
 20
-69.1549999581498
 30
0.0
 11
10.80000011679999
 21
-68.94499998894978
 31
0.0
  0
LINE
  5
211
330
191
100
AcDbEntity
  8
部品
  6
CONTINUOUS
100
AcDbLine
 10
10.80000011679999
 20
-69.65500004009959
 30
0.0
 11
10.80000011679999
 21
-69.55499997714969
 31
0.0
  0
LINE
  5
212
330
191
100
AcDbEntity
  8
部品
  6
CONTINUOUS
100
AcDbLine
 10
11.19183341179996
 20
-69.74500002694981
 30
0.0
 11
11.18989806529998
 21
-69.75499998664964
 31
0.0
  0
LINE
  5
213
330
191
100
AcDbEntity
  8
部品
  6
CONTINUOUS
100
AcDbLine
 10
11.20000010670014
 20
-69.74500002694981
 30
0.0
 11
11.19183341179996
 21
-69.74500002694981
 31
0.0
  0
LINE
  5
214
330
191
100
AcDbEntity
  8
部品
  6
CONTINUOUS
100
AcDbLine
 10
11.20000010670014
 20
-69.1549999581498
 30
0.0
 11
11.20000010670014
 21
-68.94499998894978
 31
0.0
  0
LINE
  5
215
330
191
100
AcDbEntity
  8
部品
  6
CONTINUOUS
100
AcDbLine
 10
11.20000010670014
 20
-69.74500002694981
 30
0.0
 11
11.20000010670014
 21
-69.55499997714969
 31
0.0
  0
LINE
  5
216
330
191
100
AcDbEntity
  8
部品
  6
CONTINUOUS
100
AcDbLine
 10
11.09205159120006
 20
-69.75499998664964
 30
0.0
 11
10.90794863230007
 21
-69.75499998664964
 31
0.0
  0
LINE
  5
217
330
191
100
AcDbEntity
  8
部品
  6
CONTINUOUS
100
AcDbLine
 10
11.09205159120006
 20
-69.75499998664964
 30
0.0
 11
11.24672326514996
 21
-69.75499998664964
 31
0.0
  0
LINE
  5
218
330
191
100
AcDbEntity
  8
部品
  6
CONTINUOUS
100
AcDbLine
 10
11.26277129189998
 20
-69.94500003644976
 30
0.0
 11
11.22983061615013
 21
-69.55499997714969
 31
0.0
  0
LINE
  5
219
330
191
100
AcDbEntity
  8
部品
  6
CONTINUOUS
100
AcDbLine
 10
11.12000010869997
 20
-69.1549999581498
 30
0.0
 11
11.26756425620007
 21
-69.1549999581498
 31
0.0
  0
LINE
  5
21A
330
191
100
AcDbEntity
  8
部品
  6
CONTINUOUS
100
AcDbLine
 10
11.12000010869997
 20
-69.55499997714969
 30
0.0
 11
11.26756425620007
 21
-69.55499997714969
 31
0.0
  0
LINE
  5
21B
330
191
100
AcDbEntity
  8
部品
  6
CONTINUOUS
100
AcDbLine
 10
11.26756425620007
 20
-69.1549999581498
 30
0.0
 11
11.30000012599998
 21
-69.1549999581498
 31
0.0
  0
LINE
  5
21C
330
191
100
AcDbEntity
  8
部品
  6
CONTINUOUS
100
AcDbLine
 10
11.26756425620007
 20
-69.55499997714969
 30
0.0
 11
11.30000012599998
 21
-69.55499997714969
 31
0.0
  0
LINE
  5
21D
330
191
100
AcDbEntity
  8
部品
  6
CONTINUOUS
100
AcDbLine
 10
11.12000010869997
 20
-69.1549999581498
 30
0.0
 11
11.12000010869997
 21
-69.55499997714969
 31
0.0
  0
LINE
  5
21E
330
191
100
AcDbEntity
  8
部品
  6
CONTINUOUS
100
AcDbLine
 10
10.88000011479994
 20
-69.55499997714969
 30
0.0
 11
10.88000011479994
 21
-69.1549999581498
 31
0.0
  0
LINE
  5
21F
330
191
100
AcDbEntity
  8
部品
  6
CONTINUOUS
100
AcDbLine
 10
10.70000009750015
 20
-72.4850000522997
 30
0.0
 11
10.40000008325
 21
-72.7850000083497
 31
0.0
  0
LINE
  5
220
330
191
100
AcDbEntity
  8
部品
  6
CONTINUOUS
100
AcDbLine
 10
10.70000009750015
 20
-71.28499999529982
 30
0.0
 11
10.70000009750015
 21
-72.4850000522997
 31
0.0
  0
LINE
  5
221
330
191
100
AcDbEntity
  8
部品
  6
CONTINUOUS
100
AcDbLine
 10
10.40000008325
 20
-70.9850000392496
 30
0.0
 11
10.70000009750015
 21
-71.28499999529982
 31
0.0
  0
LINE
  5
222
330
191
100
AcDbEntity
  8
部品
  6
CONTINUOUS
100
AcDbLine
 10
10.40000008325
 20
-72.7850000083497
 30
0.0
 11
10.40000008325
 21
-70.9850000392496
 31
0.0
  0
LINE
  5
223
330
191
100
AcDbEntity
  8
部品
  6
CONTINUOUS
100
AcDbLine
 10
10.73722893160015
 20
-72.4850000522997
 30
0.0
 11
10.77016960734999
 21
-72.09499987659978
 31
0.0
  0
LINE
  5
224
330
191
100
AcDbEntity
  8
部品
  6
CONTINUOUS
100
AcDbLine
 10
10.7324359673
 20
-71.69500009044964
 30
0.0
 11
10.70000009750015
 21
-71.69500009044964
 31
0.0
  0
LINE
  5
225
330
191
100
AcDbEntity
  8
部品
  6
CONTINUOUS
100
AcDbLine
 10
10.7324359673
 20
-72.09499987659978
 30
0.0
 11
10.70000009750015
 21
-72.09499987659978
 31
0.0
  0
LINE
  5
226
330
191
100
AcDbEntity
  8
部品
  6
CONTINUOUS
100
AcDbLine
 10
10.70000009750015
 20
-69.94500003644976
 30
0.0
 11
10.40000008325
 21
-70.24499999249974
 31
0.0
  0
LINE
  5
227
330
191
100
AcDbEntity
  8
部品
  6
CONTINUOUS
100
AcDbLine
 10
10.70000009750015
 20
-68.74499997944963
 30
0.0
 11
10.70000009750015
 21
-69.94500003644976
 31
0.0
  0
LINE
  5
228
330
191
100
AcDbEntity
  8
部品
  6
CONTINUOUS
100
AcDbLine
 10
10.73722893160015
 20
-69.94500003644976
 30
0.0
 11
10.77016960734999
 21
-69.55499997714969
 31
0.0
  0
LINE
  5
229
330
191
100
AcDbEntity
  8
部品
  6
CONTINUOUS
100
AcDbLine
 10
10.7324359673
 20
-69.1549999581498
 30
0.0
 11
10.70000009750015
 21
-69.1549999581498
 31
0.0
  0
LINE
  5
22A
330
191
100
AcDbEntity
  8
部品
  6
CONTINUOUS
100
AcDbLine
 10
10.7324359673
 20
-69.55499997714969
 30
0.0
 11
10.70000009750015
 21
-69.55499997714969
 31
0.0
  0
LINE
  5
22B
330
191
100
AcDbEntity
  8
部品
  6
CONTINUOUS
100
AcDbLine
 10
11.30000012599998
 20
-64.86500000469982
 30
0.0
 11
11.30000012599998
 21
-63.6649999476997
 31
0.0
  0
LINE
  5
22C
330
191
100
AcDbEntity
  8
部品
  6
CONTINUOUS
100
AcDbLine
 10
10.70000009750015
 20
-63.6649999476997
 30
0.0
 11
10.70000009750015
 21
-64.86500000469982
 31
0.0
  0
LINE
  5
22D
330
191
100
AcDbEntity
  8
部品
  6
CONTINUOUS
100
AcDbLine
 10
11.60000014025013
 20
-63.36499999164971
 30
0.0
 11
11.60000014025013
 21
-65.16499996074981
 31
0.0
  0
LINE
  5
22E
330
191
100
AcDbEntity
  8
部品
  6
CONTINUOUS
100
AcDbLine
 10
10.40000008325
 20
-65.16499996074981
 30
0.0
 11
10.40000008325
 21
-63.36499999164971
 31
0.0
  0
ARC
  5
22F
330
191
100
AcDbEntity
  8
部品
  6
CONTINUOUS
100
AcDbCircle
 10
10.7000001117501
 20
-64.5749999999998
 30
0.0
 40
0.0999999999999804
100
AcDbArc
 50
303.1270179968066
 51
0.0
  0
LINE
  5
230
330
191
100
AcDbEntity
  8
部品
  6
CONTINUOUS
100
AcDbLine
 10
11.20000010670014
 20
-64.66500011159974
 30
0.0
 11
11.20000010670014
 21
-64.47500006184964
 31
0.0
  0
LINE
  5
231
330
191
100
AcDbEntity
  8
部品
  6
CONTINUOUS
100
AcDbLine
 10
11.26277129189998
 20
-64.86500000469982
 30
0.0
 11
11.22983061615013
 21
-64.47500006184964
 31
0.0
  0
LINE
  5
232
330
191
100
AcDbEntity
  8
部品
  6
CONTINUOUS
100
AcDbLine
 10
10.73722893160015
 20
-64.86500000469982
 30
0.0
 11
10.77016960734999
 21
-64.47500006184964
 31
0.0
  0
LINE
  5
233
330
191
100
AcDbEntity
  8
部品
  6
CONTINUOUS
100
AcDbLine
 10
10.70000009750015
 20
-67.40500002054978
 30
0.0
 11
11.30000012599998
 21
-67.40500002054978
 31
0.0
  0
LINE
  5
234
330
191
100
AcDbEntity
  8
部品
  6
CONTINUOUS
100
AcDbLine
 10
11.30000012599998
 20
-66.20499996354965
 30
0.0
 11
10.70000009750015
 21
-66.20499996354965
 31
0.0
  0
LINE
  5
235
330
191
100
AcDbEntity
  8
部品
  6
CONTINUOUS
100
AcDbLine
 10
10.70000009750015
 20
-64.86500000469982
 30
0.0
 11
11.30000012599998
 21
-64.86500000469982
 31
0.0
  0
LINE
  5
236
330
191
100
AcDbEntity
  8
部品
  6
CONTINUOUS
100
AcDbLine
 10
11.60000014025013
 20
-65.16499996074981
 30
0.0
 11
10.40000008325
 21
-65.16499996074981
 31
0.0
  0
LINE
  5
237
330
191
100
AcDbEntity
  8
部品
  6
CONTINUOUS
100
AcDbLine
 10
10.40000008325
 20
-65.90500000754969
 30
0.0
 11
11.60000014025013
 21
-65.90500000754969
 31
0.0
  0
LINE
  5
238
330
191
100
AcDbEntity
  8
部品
  6
CONTINUOUS
100
AcDbLine
 10
11.60000014025013
 20
-67.70500000569973
 30
0.0
 11
10.40000008325
 21
-67.70500000569973
 31
0.0
  0
LINE
  5
239
330
191
100
AcDbEntity
  8
部品
  6
CONTINUOUS
100
AcDbLine
 10
10.40000008325
 20
-68.44499999429968
 30
0.0
 11
11.60000014025013
 21
-68.44499999429968
 31
0.0
  0
ARC
  5
23A
330
191
100
AcDbEntity
  8
部品
  6
CONTINUOUS
100
AcDbCircle
 10
10.7000001117501
 20
-67.11499999999978
 30
0.0
 40
0.1000000000000041
100
AcDbArc
 50
303.1270179968066
 51
0.0
  0
LINE
  5
23B
330
191
100
AcDbEntity
  8
部品
  6
CONTINUOUS
100
AcDbLine
 10
10.75327695835017
 20
-67.21500002899961
 30
0.0
 11
10.90794863230007
 21
-67.21500002899961
 31
0.0
  0
LINE
  5
23C
330
191
100
AcDbEntity
  8
部品
  6
CONTINUOUS
100
AcDbLine
 10
10.88000011479994
 20
-66.61499994229962
 30
0.0
 11
10.7324359673
 21
-66.61499994229962
 31
0.0
  0
LINE
  5
23D
330
191
100
AcDbEntity
  8
部品
  6
CONTINUOUS
100
AcDbLine
 10
10.88000011479994
 20
-67.01499996129975
 30
0.0
 11
10.7324359673
 21
-67.01499996129975
 31
0.0
  0
LINE
  5
23E
330
191
100
AcDbEntity
  8
部品
  6
CONTINUOUS
100
AcDbLine
 10
10.75327695835017
 20
-64.6749999548997
 30
0.0
 11
10.90794863230007
 21
-64.6749999548997
 31
0.0
  0
LINE
  5
23F
330
191
100
AcDbEntity
  8
部品
  6
CONTINUOUS
100
AcDbLine
 10
11.30000012599998
 20
-67.40500002054978
 30
0.0
 11
11.30000012599998
 21
-66.20499996354965
 31
0.0
  0
LINE
  5
240
330
191
100
AcDbEntity
  8
部品
  6
CONTINUOUS
100
AcDbLine
 10
11.60000014025013
 20
-65.90500000754969
 30
0.0
 11
11.60000014025013
 21
-67.70500000569973
 31
0.0
  0
LINE
  5
241
330
191
100
AcDbEntity
  8
部品
  6
CONTINUOUS
100
AcDbLine
 10
11.12000010869997
 20
-66.61499994229962
 30
0.0
 11
11.12000010869997
 21
-67.01499996129975
 31
0.0
  0
LINE
  5
242
330
191
100
AcDbEntity
  8
部品
  6
CONTINUOUS
100
AcDbLine
 10
10.88000011479994
 20
-67.01499996129975
 30
0.0
 11
10.88000011479994
 21
-66.61499994229962
 31
0.0
  0
LINE
  5
243
330
191
100
AcDbEntity
  8
部品
  6
CONTINUOUS
100
AcDbLine
 10
11.30000012599998
 20
-67.40500002054978
 30
0.0
 11
11.60000014025013
 21
-67.70500000569973
 31
0.0
  0
LINE
  5
244
330
191
100
AcDbEntity
  8
部品
  6
CONTINUOUS
100
AcDbLine
 10
11.20000010670014
 20
-67.20500001104984
 30
0.0
 11
11.24587864290015
 21
-67.20500001104984
 31
0.0
  0
LINE
  5
245
330
191
100
AcDbEntity
  8
部品
  6
CONTINUOUS
100
AcDbLine
 10
10.80000011679999
 20
-67.11500002424964
 30
0.0
 11
10.80000011679999
 21
-67.01499996129975
 31
0.0
  0
LINE
  5
246
330
191
100
AcDbEntity
  8
部品
  6
CONTINUOUS
100
AcDbLine
 10
11.19183341179996
 20
-67.20500001104984
 30
0.0
 11
11.18989806529998
 21
-67.21500002899984
 31
0.0
  0
LINE
  5
247
330
191
100
AcDbEntity
  8
部品
  6
CONTINUOUS
100
AcDbLine
 10
11.20000010670014
 20
-67.20500001104984
 30
0.0
 11
11.19183341179996
 21
-67.20500001104984
 31
0.0
  0
LINE
  5
248
330
191
100
AcDbEntity
  8
部品
  6
CONTINUOUS
100
AcDbLine
 10
11.20000010670014
 20
-67.20500001104984
 30
0.0
 11
11.20000010670014
 21
-67.01499996129975
 31
0.0
  0
LINE
  5
249
330
191
100
AcDbEntity
  8
部品
  6
CONTINUOUS
100
AcDbLine
 10
11.09205159120006
 20
-67.21500002899984
 30
0.0
 11
10.90794863230007
 21
-67.21500002899961
 31
0.0
  0
LINE
  5
24A
330
191
100
AcDbEntity
  8
部品
  6
CONTINUOUS
100
AcDbLine
 10
11.09205159120006
 20
-67.21500002899984
 30
0.0
 11
11.24672326514996
 21
-67.21500002899984
 31
0.0
  0
LINE
  5
24B
330
191
100
AcDbEntity
  8
部品
  6
CONTINUOUS
100
AcDbLine
 10
11.26277129189998
 20
-67.40500002054978
 30
0.0
 11
11.22983061615013
 21
-67.01499996129975
 31
0.0
  0
LINE
  5
24C
330
191
100
AcDbEntity
  8
部品
  6
CONTINUOUS
100
AcDbLine
 10
11.12000010869997
 20
-67.01499996129975
 30
0.0
 11
11.26756425620007
 21
-67.01499996129975
 31
0.0
  0
LINE
  5
24D
330
191
100
AcDbEntity
  8
部品
  6
CONTINUOUS
100
AcDbLine
 10
11.26756425620007
 20
-67.01499996129975
 30
0.0
 11
11.30000012599998
 21
-67.01499996129975
 31
0.0
  0
LINE
  5
24E
330
191
100
AcDbEntity
  8
部品
  6
CONTINUOUS
100
AcDbLine
 10
11.60000014025013
 20
-65.90500000754969
 30
0.0
 11
11.30000012599998
 21
-66.20499996354965
 31
0.0
  0
LINE
  5
24F
330
191
100
AcDbEntity
  8
部品
  6
CONTINUOUS
100
AcDbLine
 10
11.30000012599998
 20
-64.86500000469982
 30
0.0
 11
11.60000014025013
 21
-65.16499996074981
 31
0.0
  0
LINE
  5
250
330
191
100
AcDbEntity
  8
部品
  6
CONTINUOUS
100
AcDbLine
 10
11.20000010670014
 20
-66.4049999730496
 30
0.0
 11
11.30000012599998
 21
-66.4049999730496
 31
0.0
  0
LINE
  5
251
330
191
100
AcDbEntity
  8
部品
  6
CONTINUOUS
100
AcDbLine
 10
10.80000011679999
 20
-66.4049999730496
 30
0.0
 11
11.20000010670014
 21
-66.4049999730496
 31
0.0
  0
LINE
  5
252
330
191
100
AcDbEntity
  8
部品
  6
CONTINUOUS
100
AcDbLine
 10
10.80000011679999
 20
-66.61499994229962
 30
0.0
 11
10.80000011679999
 21
-66.4049999730496
 31
0.0
  0
LINE
  5
253
330
191
100
AcDbEntity
  8
部品
  6
CONTINUOUS
100
AcDbLine
 10
11.20000010670014
 20
-66.61499994229962
 30
0.0
 11
11.20000010670014
 21
-66.4049999730496
 31
0.0
  0
LINE
  5
254
330
191
100
AcDbEntity
  8
部品
  6
CONTINUOUS
100
AcDbLine
 10
11.12000010869997
 20
-66.61499994229962
 30
0.0
 11
11.26756425620007
 21
-66.61499994229962
 31
0.0
  0
LINE
  5
255
330
191
100
AcDbEntity
  8
部品
  6
CONTINUOUS
100
AcDbLine
 10
11.26756425620007
 20
-66.61499994229962
 30
0.0
 11
11.30000012599998
 21
-66.61499994229962
 31
0.0
  0
LINE
  5
256
330
191
100
AcDbEntity
  8
部品
  6
CONTINUOUS
100
AcDbLine
 10
11.20000010670014
 20
-64.66500011159974
 30
0.0
 11
11.24587864290015
 21
-64.66500011159974
 31
0.0
  0
LINE
  5
257
330
191
100
AcDbEntity
  8
部品
  6
CONTINUOUS
100
AcDbLine
 10
11.19183341179996
 20
-64.66500011159974
 30
0.0
 11
11.18989806529998
 21
-64.6749999548997
 31
0.0
  0
LINE
  5
258
330
191
100
AcDbEntity
  8
部品
  6
CONTINUOUS
100
AcDbLine
 10
11.20000010670014
 20
-64.66500011159974
 30
0.0
 11
11.19183341179996
 21
-64.66500011159974
 31
0.0
  0
LINE
  5
259
330
191
100
AcDbEntity
  8
部品
  6
CONTINUOUS
100
AcDbLine
 10
11.09205159120006
 20
-64.6749999548997
 30
0.0
 11
10.90794863230007
 21
-64.6749999548997
 31
0.0
  0
LINE
  5
25A
330
191
100
AcDbEntity
  8
部品
  6
CONTINUOUS
100
AcDbLine
 10
11.09205159120006
 20
-64.6749999548997
 30
0.0
 11
11.24672326514996
 21
-64.6749999548997
 31
0.0
  0
LINE
  5
25B
330
191
100
AcDbEntity
  8
部品
  6
CONTINUOUS
100
AcDbLine
 10
10.70000009750015
 20
-66.20499996354965
 30
0.0
 11
10.70000009750015
 21
-67.40500002054978
 31
0.0
  0
LINE
  5
25C
330
191
100
AcDbEntity
  8
部品
  6
CONTINUOUS
100
AcDbLine
 10
10.40000008325
 20
-67.70500000569973
 30
0.0
 11
10.40000008325
 21
-65.90500000754969
 31
0.0
  0
LINE
  5
25D
330
191
100
AcDbEntity
  8
部品
  6
CONTINUOUS
100
AcDbLine
 10
10.70000009750015
 20
-67.40500002054978
 30
0.0
 11
10.40000008325
 21
-67.70500000569973
 31
0.0
  0
LINE
  5
25E
330
191
100
AcDbEntity
  8
部品
  6
CONTINUOUS
100
AcDbLine
 10
10.73722893160015
 20
-67.40500002054978
 30
0.0
 11
10.77016960734999
 21
-67.01499996129975
 31
0.0
  0
LINE
  5
25F
330
191
100
AcDbEntity
  8
部品
  6
CONTINUOUS
100
AcDbLine
 10
10.7324359673
 20
-67.01499996129975
 30
0.0
 11
10.70000009750015
 21
-67.01499996129975
 31
0.0
  0
LINE
  5
260
330
191
100
AcDbEntity
  8
部品
  6
CONTINUOUS
100
AcDbLine
 10
10.40000008325
 20
-65.90500000754969
 30
0.0
 11
10.70000009750015
 21
-66.20499996354965
 31
0.0
  0
LINE
  5
261
330
191
100
AcDbEntity
  8
部品
  6
CONTINUOUS
100
AcDbLine
 10
10.70000009750015
 20
-64.86500000469982
 30
0.0
 11
10.40000008325
 21
-65.16499996074981
 31
0.0
  0
LINE
  5
262
330
191
100
AcDbEntity
  8
部品
  6
CONTINUOUS
100
AcDbLine
 10
10.7324359673
 20
-66.61499994229962
 30
0.0
 11
10.70000009750015
 21
-66.61499994229962
 31
0.0
  0
LINE
  5
263
330
191
100
AcDbEntity
  8
部品
  6
CONTINUOUS
100
AcDbLine
 10
11.30000012599998
 20
-63.6649999476997
 30
0.0
 11
10.70000009750015
 21
-63.6649999476997
 31
0.0
  0
LINE
  5
264
330
191
100
AcDbEntity
  8
部品
  6
CONTINUOUS
100
AcDbLine
 10
10.40000008325
 20
-63.36499999164971
 30
0.0
 11
11.60000014025013
 21
-63.36499999164971
 31
0.0
  0
LINE
  5
265
330
191
100
AcDbEntity
  8
部品
  6
CONTINUOUS
100
AcDbLine
 10
9.075000122199979
 20
-61.52499995084962
 30
0.0
 11
12.92500010130015
 21
-61.52499995084962
 31
0.0
  0
LINE
  5
266
330
191
100
AcDbEntity
  8
部品
  6
CONTINUOUS
100
AcDbLine
 10
12.62500014524992
 20
-61.82499990684982
 30
0.0
 11
9.375000078199946
 21
-61.82499990684982
 31
0.0
  0
LINE
  5
267
330
191
100
AcDbEntity
  8
部品
  6
CONTINUOUS
100
AcDbLine
 10
10.88000011479994
 20
-64.07499980999978
 30
0.0
 11
10.7324359673
 21
-64.07499980999978
 31
0.0
  0
LINE
  5
268
330
191
100
AcDbEntity
  8
部品
  6
CONTINUOUS
100
AcDbLine
 10
10.88000011479994
 20
-64.47500006184964
 30
0.0
 11
10.7324359673
 21
-64.47500006184964
 31
0.0
  0
LINE
  5
269
330
191
100
AcDbEntity
  8
部品
  6
CONTINUOUS
100
AcDbLine
 10
11.60000014025013
 20
-63.36499999164971
 30
0.0
 11
11.30000012599998
 21
-63.6649999476997
 31
0.0
  0
LINE
  5
26A
330
191
100
AcDbEntity
  8
部品
  6
CONTINUOUS
100
AcDbLine
 10
11.20000010670014
 20
-63.86500007359973
 30
0.0
 11
11.30000012599998
 21
-63.86500007359973
 31
0.0
  0
LINE
  5
26B
330
191
100
AcDbEntity
  8
部品
  6
CONTINUOUS
100
AcDbLine
 10
10.80000011679999
 20
-63.86500007359973
 30
0.0
 11
11.20000010670014
 21
-63.86500007359973
 31
0.0
  0
LINE
  5
26C
330
191
100
AcDbEntity
  8
部品
  6
CONTINUOUS
100
AcDbLine
 10
10.80000011679999
 20
-64.07499980999978
 30
0.0
 11
10.80000011679999
 21
-63.86500007359973
 31
0.0
  0
LINE
  5
26D
330
191
100
AcDbEntity
  8
部品
  6
CONTINUOUS
100
AcDbLine
 10
10.80000011679999
 20
-64.5749998919498
 30
0.0
 11
10.80000011679999
 21
-64.47500006184964
 31
0.0
  0
LINE
  5
26E
330
191
100
AcDbEntity
  8
部品
  6
CONTINUOUS
100
AcDbLine
 10
11.20000010670014
 20
-64.07499980999978
 30
0.0
 11
11.20000010670014
 21
-63.86500007359973
 31
0.0
  0
LINE
  5
26F
330
191
100
AcDbEntity
  8
部品
  6
CONTINUOUS
100
AcDbLine
 10
11.12000010869997
 20
-64.07499980999978
 30
0.0
 11
11.26756425620007
 21
-64.07499980999978
 31
0.0
  0
LINE
  5
270
330
191
100
AcDbEntity
  8
部品
  6
CONTINUOUS
100
AcDbLine
 10
11.12000010869997
 20
-64.47500006184964
 30
0.0
 11
11.26756425620007
 21
-64.47500006184964
 31
0.0
  0
LINE
  5
271
330
191
100
AcDbEntity
  8
部品
  6
CONTINUOUS
100
AcDbLine
 10
11.26756425620007
 20
-64.07499980999978
 30
0.0
 11
11.30000012599998
 21
-64.07499980999978
 31
0.0
  0
LINE
  5
272
330
191
100
AcDbEntity
  8
部品
  6
CONTINUOUS
100
AcDbLine
 10
11.26756425620007
 20
-64.47500006184964
 30
0.0
 11
11.30000012599998
 21
-64.47500006184964
 31
0.0
  0
LINE
  5
273
330
191
100
AcDbEntity
  8
部品
  6
CONTINUOUS
100
AcDbLine
 10
11.12000010869997
 20
-64.07499980999978
 30
0.0
 11
11.12000010869997
 21
-64.47500006184964
 31
0.0
  0
LINE
  5
274
330
191
100
AcDbEntity
  8
部品
  6
CONTINUOUS
100
AcDbLine
 10
10.88000011479994
 20
-64.47500006184964
 30
0.0
 11
10.88000011479994
 21
-64.07499980999978
 31
0.0
  0
LINE
  5
275
330
191
100
AcDbEntity
  8
部品
  6
CONTINUOUS
100
AcDbLine
 10
12.62500014524992
 20
-61.82499990684982
 30
0.0
 11
12.92500010130015
 21
-61.52499995084962
 31
0.0
  0
LINE
  5
276
330
191
100
AcDbEntity
  8
部品
  6
CONTINUOUS
100
AcDbLine
 10
10.40000008325
 20
-63.36499999164971
 30
0.0
 11
10.70000009750015
 21
-63.6649999476997
 31
0.0
  0
LINE
  5
277
330
191
100
AcDbEntity
  8
部品
  6
CONTINUOUS
100
AcDbLine
 10
10.7324359673
 20
-64.07499980999978
 30
0.0
 11
10.70000009750015
 21
-64.07499980999978
 31
0.0
  0
LINE
  5
278
330
191
100
AcDbEntity
  8
部品
  6
CONTINUOUS
100
AcDbLine
 10
10.7324359673
 20
-64.47500006184964
 30
0.0
 11
10.70000009750015
 21
-64.47500006184964
 31
0.0
  0
LINE
  5
279
330
191
100
AcDbEntity
  8
部品
  6
CONTINUOUS
100
AcDbLine
 10
9.075000122199979
 20
-61.52499995084962
 30
0.0
 11
9.375000078199946
 21
-61.82499990684982
 31
0.0
  0
LINE
  5
27A
330
191
100
AcDbEntity
  8
部品
  6
CONTINUOUS
100
AcDbLine
 10
15.70000004395001
 20
-51.44500049649969
 30
0.0
 11
6.300000179550124
 21
-51.44500049649969
 31
0.0
  0
LINE
  5
27B
330
191
100
AcDbEntity
  8
部品
  6
CONTINUOUS
100
AcDbLine
 10
14.55000013485005
 20
-60.22500029654975
 30
0.0
 11
12.75000016574995
 21
-60.22500029654975
 31
0.0
  0
LINE
  5
27C
330
191
100
AcDbEntity
  8
部品
  6
CONTINUOUS
100
AcDbLine
 10
13.05000012179992
 20
-59.9249998748496
 30
0.0
 11
14.85000009090003
 21
-59.9249998748496
 31
0.0
  0
LINE
  5
27D
330
191
100
AcDbEntity
  8
部品
  6
CONTINUOUS
100
AcDbLine
 10
6.000000223500137
 20
-55.77500040529979
 30
0.0
 11
16.0
 21
-55.77500040529979
 31
0.0
  0
LINE
  5
27E
330
191
100
AcDbEntity
  8
部品
  6
CONTINUOUS
100
AcDbLine
 10
16.0
 20
-55.77500040529979
 30
0.0
 11
16.0
 21
-51.74499998689976
 31
0.0
  0
LINE
  5
27F
330
191
100
AcDbEntity
  8
部品
  6
CONTINUOUS
100
AcDbLine
 10
14.55000013485005
 20
-60.22500029654975
 30
0.0
 11
14.85000009090003
 21
-59.9249998748496
 31
0.0
  0
LINE
  5
280
330
191
100
AcDbEntity
  8
部品
  6
CONTINUOUS
100
AcDbLine
 10
16.0
 20
-51.74499998689976
 30
0.0
 11
15.70000004395001
 21
-51.44500049649969
 31
0.0
  0
LINE
  5
281
330
191
100
AcDbEntity
  8
部品
  6
CONTINUOUS
100
AcDbLine
 10
6.000000223500137
 20
-51.74499998689976
 30
0.0
 11
6.000000223500137
 21
-55.77500040529979
 31
0.0
  0
LINE
  5
282
330
191
100
AcDbEntity
  8
部品
  6
CONTINUOUS
100
AcDbLine
 10
9.250000057749957
 20
-59.22500013259969
 30
0.0
 11
6.000000223500137
 21
-59.22500013259969
 31
0.0
  0
LINE
  5
283
330
191
100
AcDbEntity
  8
部品
  6
CONTINUOUS
100
AcDbLine
 10
6.000000223500137
 20
-58.92499971089979
 30
0.0
 11
8.95000010169997
 21
-58.92499971089979
 31
0.0
  0
LINE
  5
284
330
191
100
AcDbEntity
  8
部品
  6
CONTINUOUS
100
AcDbLine
 10
12.75000016574995
 20
-59.22500013259969
 30
0.0
 11
9.250000057749957
 21
-59.22500013259969
 31
0.0
  0
LINE
  5
285
330
191
100
AcDbEntity
  8
部品
  6
CONTINUOUS
100
AcDbLine
 10
12.75000016574995
 20
-57.77499980179982
 30
0.0
 11
9.250000057749957
 21
-57.77499980179982
 31
0.0
  0
LINE
  5
286
330
191
100
AcDbEntity
  8
部品
  6
CONTINUOUS
100
AcDbLine
 10
8.95000010169997
 20
-57.47500031144977
 30
0.0
 11
13.05000012179992
 21
-57.47500031144977
 31
0.0
  0
LINE
  5
287
330
191
100
AcDbEntity
  8
部品
  6
CONTINUOUS
100
AcDbLine
 10
12.75000016574995
 20
-60.22500029654975
 30
0.0
 11
12.75000016574995
 21
-57.77499980179982
 31
0.0
  0
LINE
  5
288
330
191
100
AcDbEntity
  8
部品
  6
CONTINUOUS
100
AcDbLine
 10
13.05000012179992
 20
-57.47500031144977
 30
0.0
 11
13.05000012179992
 21
-59.9249998748496
 31
0.0
  0
LINE
  5
289
330
191
100
AcDbEntity
  8
部品
  6
CONTINUOUS
100
AcDbLine
 10
12.75000016574995
 20
-60.22500029654975
 30
0.0
 11
13.05000012179992
 21
-59.9249998748496
 31
0.0
  0
LINE
  5
28A
330
191
100
AcDbEntity
  8
部品
  6
CONTINUOUS
100
AcDbLine
 10
12.75000016574995
 20
-57.77499980179982
 30
0.0
 11
13.05000012179992
 21
-57.47500031144977
 31
0.0
  0
LINE
  5
28B
330
191
100
AcDbEntity
  8
部品
  6
CONTINUOUS
100
AcDbLine
 10
9.250000057749957
 20
-57.77499980179982
 30
0.0
 11
9.250000057749957
 21
-59.22500013259969
 31
0.0
  0
LINE
  5
28C
330
191
100
AcDbEntity
  8
部品
  6
CONTINUOUS
100
AcDbLine
 10
8.95000010169997
 20
-58.92499971089979
 30
0.0
 11
8.95000010169997
 21
-57.47500031144977
 31
0.0
  0
LINE
  5
28D
330
191
100
AcDbEntity
  8
部品
  6
CONTINUOUS
100
AcDbLine
 10
9.250000057749957
 20
-59.22500013259969
 30
0.0
 11
8.95000010169997
 21
-58.92499971089979
 31
0.0
  0
LINE
  5
28E
330
191
100
AcDbEntity
  8
部品
  6
CONTINUOUS
100
AcDbLine
 10
9.250000057749957
 20
-57.77499980179982
 30
0.0
 11
8.95000010169997
 21
-57.47500031144977
 31
0.0
  0
LINE
  5
28F
330
191
100
AcDbEntity
  8
部品
  6
CONTINUOUS
100
AcDbLine
 10
6.000000223500137
 20
-55.77500040529979
 30
0.0
 11
6.000000223500137
 21
-58.92499971089979
 31
0.0
  0
LINE
  5
290
330
191
100
AcDbEntity
  8
部品
  6
CONTINUOUS
100
AcDbLine
 10
6.000000223500137
 20
-59.22500013259969
 30
0.0
 11
6.000000223500137
 21
-58.92499971089979
 31
0.0
  0
LINE
  5
291
330
191
100
AcDbEntity
  8
部品
  6
CONTINUOUS
100
AcDbLine
 10
6.300000179550124
 20
-51.44500049649969
 30
0.0
 11
6.000000223500137
 21
-51.74499998689976
 31
0.0
  0
LWPOLYLINE
  5
292
330
191
100
AcDbEntity
  8
0
100
AcDbPolyline
 90
        4
 70
     1
 43
0.0
 10
16.0
 20
-50.24505853127175
 10
17.00000011174958
 20
-50.24505853127175
 10
17.00000011174958
 20
-50.24505853127175
 10
16.0
 20
-50.24505853127175
  0
LWPOLYLINE
  5
293
330
191
100
AcDbEntity
  8
0
100
AcDbPolyline
 90
        4
 70
     1
 43
0.0
 10
17.00000011174958
 20
-84.37500000000024
 10
16.0
 20
-84.37500000000024
 10
16.0
 20
-51.74499998689976
 10
17.00000011174958
 20
-51.74499998689976
  0
LWPOLYLINE
  5
294
330
191
100
AcDbEntity
  8
0
100
AcDbPolyline
 90
        4
 70
     1
 43
0.0
 10
17.00000011174958
 20
-85.90494146872812
 10
16.0
 20
-85.90494146872812
 10
16.0
 20
-50.24505853127175
 10
17.00000011174958
 20
-50.24505853127175
  0
LWPOLYLINE
  5
295
330
191
100
AcDbEntity
  8
0
100
AcDbPolyline
 90
        4
 70
     1
 43
0.0
 10
18.49985163882957
 20
-41.52500174595388
 10
20.09985163882992
 20
-41.52500174595388
 10
20.09985163882992
 20
-44.22500174595461
 10
18.49985163882957
 20
-44.22500174595461
  0
LWPOLYLINE
  5
296
330
191
100
AcDbEntity
  8
0
100
AcDbPolyline
 90
        4
 70
     1
 43
0.0
 10
18.49985163882957
 20
-47.02499774591433
 10
20.09985163882992
 20
-47.02499774591433
 10
20.09985163882992
 20
-49.72499774591506
 10
18.49985163882957
 20
-49.72499774591506
  0
ENDBLK
  5
298
330
191
100
AcDbEntity
  8
0
100
AcDbBlockEnd
  0
BLOCK
  5
32E
330
308
100
AcDbEntity
  8
0
100
AcDbBlockBegin
  2
A$C2B5B324C
 70
     0
 10
0.0
 20
0.0
 30
0.0
  3
A$C2B5B324C
  1

  0
LINE
  5
309
330
308
100
AcDbEntity
  8
0
100
AcDbLine
 10
-3.199999922500181
 20
-71.22499939145882
 30
0.0
 11
-3.199999922500181
 21
-69.87499935645883
 31
0.0
  0
LINE
  5
30A
330
308
100
AcDbEntity
  8
0
100
AcDbLine
 10
-2.900000432100112
 20
-69.57499940040861
 30
0.0
 11
-2.900000432100112
 21
-70.92499896975869
 31
0.0
  0
LINE
  5
30B
330
308
100
AcDbEntity
  8
0
100
AcDbLine
 10
-0.400000022300219
 20
-71.92499913370875
 30
0.0
 11
-0.400000022300219
 21
-54.22499939890895
 31
0.0
  0
LINE
  5
30C
330
308
100
AcDbEntity
  8
0
100
AcDbLine
 10
-2.199999758550345
 20
-46.44499976280893
 30
0.0
 11
0.0
 21
-46.44499976280893
 31
0.0
  0
LINE
  5
30D
330
308
100
AcDbEntity
  8
0
100
AcDbLine
 10
0.0
 20
-46.74499925320879
 30
0.0
 11
-2.199999758550345
 21
-46.74499925320879
 31
0.0
  0
LINE
  5
30E
330
308
100
AcDbEntity
  8
0
100
AcDbLine
 10
-3.199999922500181
 20
-54.92499914115889
 30
0.0
 11
-3.199999922500181
 21
-53.92499897720881
 31
0.0
  0
LINE
  5
30F
330
308
100
AcDbEntity
  8
0
100
AcDbLine
 10
-3.199999922500181
 20
-53.92499897720881
 30
0.0
 11
-2.900000432100112
 21
-54.22499939890895
 31
0.0
  0
LINE
  5
310
330
308
100
AcDbEntity
  8
0
100
AcDbLine
 10
-2.199999758550345
 20
-50.77499967160884
 30
0.0
 11
-2.199999758550345
 21
-46.74499925320879
 31
0.0
  0
LINE
  5
311
330
308
100
AcDbEntity
  8
0
100
AcDbLine
 10
-2.199999758550345
 20
-46.74499925320879
 30
0.0
 11
-2.199999758550345
 21
-46.44499976280893
 31
0.0
  0
LINE
  5
312
330
308
100
AcDbEntity
  8
0
100
AcDbLine
 10
-3.199999922500181
 20
-53.92499897720881
 30
0.0
 11
-3.199999922500181
 21
-50.77499967160884
 31
0.0
  0
LINE
  5
313
330
308
100
AcDbEntity
  8
0
100
AcDbLine
 10
-2.199999758550345
 20
-50.77499967160884
 30
0.0
 11
-3.199999922500181
 21
-50.77499967160884
 31
0.0
  0
LINE
  5
314
330
308
100
AcDbEntity
  8
0
100
AcDbLine
 10
-0.400000022300219
 20
-56.57499913220863
 30
0.0
 11
-2.900000432100112
 21
-56.57499913220863
 31
0.0
  0
LINE
  5
315
330
308
100
AcDbEntity
  8
0
100
AcDbLine
 10
-2.900000432100112
 20
-69.57499940040861
 30
0.0
 11
-0.400000022300219
 21
-69.57499940040861
 31
0.0
  0
LINE
  5
316
330
308
100
AcDbEntity
  8
0
100
AcDbLine
 10
-2.900000432100112
 20
-55.22499956285901
 30
0.0
 11
-0.400000022300219
 21
-55.22499956285901
 31
0.0
  0
LINE
  5
317
330
308
100
AcDbEntity
  8
0
100
AcDbLine
 10
-0.400000022300219
 20
-54.22499939890895
 30
0.0
 11
-2.900000432100112
 21
-54.22499939890895
 31
0.0
  0
LINE
  5
318
330
308
100
AcDbEntity
  8
0
100
AcDbLine
 10
-3.199999922500181
 20
-56.27499917615885
 30
0.0
 11
-3.199999922500181
 21
-54.92499914115889
 31
0.0
  0
LINE
  5
319
330
308
100
AcDbEntity
  8
0
100
AcDbLine
 10
-2.900000432100112
 20
-55.22499956285901
 30
0.0
 11
-2.900000432100112
 21
-56.57499913220863
 31
0.0
  0
LINE
  5
31A
330
308
100
AcDbEntity
  8
0
100
AcDbLine
 10
-3.199999922500181
 20
-54.92499914115889
 30
0.0
 11
-2.900000432100112
 21
-55.22499956285901
 31
0.0
  0
LINE
  5
31B
330
308
100
AcDbEntity
  8
0
100
AcDbLine
 10
-2.900000432100112
 20
-54.22499939890895
 30
0.0
 11
-2.900000432100112
 21
-55.22499956285901
 31
0.0
  0
LINE
  5
31C
330
308
100
AcDbEntity
  8
0
100
AcDbLine
 10
-3.199999922500181
 20
-56.27499917615885
 30
0.0
 11
-2.900000432100112
 21
-56.57499913220863
 31
0.0
  0
LINE
  5
31D
330
308
100
AcDbEntity
  8
0
100
AcDbLine
 10
-2.900000432100112
 20
-69.57499940040861
 30
0.0
 11
-3.199999922500181
 21
-69.87499935645883
 31
0.0
  0
LINE
  5
31E
330
308
100
AcDbEntity
  8
0
100
AcDbLine
 10
-0.5999996825503331
 20
-69.57499940040861
 30
0.0
 11
-0.5999996825503331
 21
-56.57499913220863
 31
0.0
  0
LINE
  5
31F
330
308
100
AcDbEntity
  8
0
100
AcDbLine
 10
0.0
 20
-79.70499876980875
 30
0.0
 11
-2.199999758550345
 21
-79.70499876980875
 31
0.0
  0
LINE
  5
320
330
308
100
AcDbEntity
  8
0
100
AcDbLine
 10
-2.199999758550345
 20
-79.4049992794089
 30
0.0
 11
0.0
 21
-79.4049992794089
 31
0.0
  0
LINE
  5
321
330
308
100
AcDbEntity
  8
0
100
AcDbLine
 10
-2.900000432100112
 20
-70.92499896975869
 30
0.0
 11
-0.400000022300219
 21
-70.92499896975869
 31
0.0
  0
LINE
  5
322
330
308
100
AcDbEntity
  8
0
100
AcDbLine
 10
-2.900000432100112
 20
-71.92499913370875
 30
0.0
 11
-0.400000022300219
 21
-71.92499913370875
 31
0.0
  0
LINE
  5
323
330
308
100
AcDbEntity
  8
0
100
AcDbLine
 10
-2.199999758550345
 20
-79.4049992794089
 30
0.0
 11
-2.199999758550345
 21
-75.37499886100886
 31
0.0
  0
LINE
  5
324
330
308
100
AcDbEntity
  8
0
100
AcDbLine
 10
-3.199999922500181
 20
-75.37499886100886
 30
0.0
 11
-3.199999922500181
 21
-72.22499955540889
 31
0.0
  0
LINE
  5
325
330
308
100
AcDbEntity
  8
0
100
AcDbLine
 10
-3.199999922500181
 20
-72.22499955540889
 30
0.0
 11
-3.199999922500181
 21
-71.22499939145882
 31
0.0
  0
LINE
  5
326
330
308
100
AcDbEntity
  8
0
100
AcDbLine
 10
-2.900000432100112
 20
-70.92499896975869
 30
0.0
 11
-3.199999922500181
 21
-71.22499939145882
 31
0.0
  0
LINE
  5
327
330
308
100
AcDbEntity
  8
0
100
AcDbLine
 10
-2.900000432100112
 20
-70.92499896975869
 30
0.0
 11
-2.900000432100112
 21
-71.92499913370875
 31
0.0
  0
LINE
  5
328
330
308
100
AcDbEntity
  8
0
100
AcDbLine
 10
-2.900000432100112
 20
-71.92499913370875
 30
0.0
 11
-3.199999922500181
 21
-72.22499955540889
 31
0.0
  0
LINE
  5
329
330
308
100
AcDbEntity
  8
0
100
AcDbLine
 10
-2.199999758550345
 20
-75.37499886100886
 30
0.0
 11
-3.199999922500181
 21
-75.37499886100886
 31
0.0
  0
LINE
  5
32A
330
308
100
AcDbEntity
  8
0
100
AcDbLine
 10
-2.199999758550345
 20
-79.70499876980875
 30
0.0
 11
-2.199999758550345
 21
-79.4049992794089
 31
0.0
  0
LINE
  5
32B
330
308
100
AcDbEntity
  8
0
100
AcDbLine
 10
-6.600000000000138
 20
-78.0
 30
0.0
 11
-2.199999758550345
 21
-78.0
 31
0.0
  0
LINE
  5
32C
330
308
100
AcDbEntity
  8
0
100
AcDbLine
 10
-3.199999922500181
 20
-53.83999999999968
 30
0.0
 11
-6.600000000000138
 21
-53.83999999999968
 31
0.0
  0
LINE
  5
32D
330
308
100
AcDbEntity
  8
0
100
AcDbLine
 10
-6.600000000000138
 20
-53.83999999999968
 30
0.0
 11
-6.600000000000138
 21
-78.0
 31
0.0
  0
ENDBLK
  5
32F
330
308
100
AcDbEntity
  8
0
100
AcDbBlockEnd
  0
ENDSEC
  0
SECTION
  2
ENTITIES
  0
LINE
  5
5BA
330
1F
100
AcDbEntity
  8
1
100
AcDbLine
 10
72.68454962301496
 20
175.9738132994096
 30
0.0
 11
87.68454962301484
 21
175.9738132994096
 31
0.0
  0
LINE
  5
5BB
330
1F
100
AcDbEntity
  8
1
100
AcDbLine
 10
80.18454962301484
 20
168.4738132994095
 30
0.0
 11
80.18454962301484
 21
183.4738132994094
 31
0.0
  0
LINE
  5
5BC
330
1F
100
AcDbEntity
  8
1
100
AcDbLine
 10
80.18454962301474
 20
352.4738132994094
 30
0.0
 11
80.18454962301474
 21
367.4738132994094
 31
0.0
  0
LINE
  5
5BD
330
1F
100
AcDbEntity
  8
1
100
AcDbLine
 10
72.68454962301496
 20
359.9738132994096
 30
0.0
 11
87.68454962301484
 21
359.9738132994096
 31
0.0
  0
LINE
  5
5CB
330
1F
100
AcDbEntity
  8
0
100
AcDbLine
 10
98.63454962301501
 20
204.0900964420013
 30
0.0
 11
98.63454962301501
 21
219.0575301568183
 31
0.0
  0
LINE
  5
5CC
330
1F
100
AcDbEntity
  8
0
100
AcDbLine
 10
92.33454962301479
 20
219.6738132994096
 30
0.0
 11
92.33454962301479
 21
203.4738132994094
 31
0.0
  0
LINE
  5
5CD
330
1F
100
AcDbEntity
  8
0
100
AcDbLine
 10
93.884549623015
 20
220.1738132994095
 30
0.0
 11
93.884549623015
 21
202.9738132994094
 31
0.0
  0
LINE
  5
5CE
330
1F
100
AcDbEntity
  8
0
100
AcDbLine
 10
97.08454962301495
 20
202.9738132994094
 30
0.0
 11
97.08454962301495
 21
220.1738132994095
 31
0.0
  0
LINE
  5
5CF
330
1F
100
AcDbEntity
  8
0
100
AcDbLine
 10
90.88454962301501
 20
229.1738132994096
 30
0.0
 11
90.88454962301501
 21
193.9738132994094
 31
0.0
  0
LINE
  5
5D0
330
1F
100
AcDbEntity
  8
0
100
AcDbLine
 10
99.9845496230148
 20
192.9738132994094
 30
0.0
 11
99.9845496230148
 21
230.1738132994096
 31
0.0
  0
LINE
  5
5D1
330
1F
100
AcDbEntity
  8
0
100
AcDbLine
 10
101.1845497449328
 20
230.673813140065
 30
0.0
 11
101.1845497449328
 21
185.1738131400652
 31
0.0
  0
LINE
  5
5D2
330
1F
100
AcDbEntity
  8
0
100
AcDbLine
 10
89.78454974493194
 20
230.673813140065
 30
0.0
 11
89.78454974493194
 21
185.1738131400652
 31
0.0
  0
LINE
  5
5D3
330
1F
100
AcDbEntity
  8
0
100
AcDbLine
 10
100.2845496230148
 20
230.673813140065
 30
0.0
 11
100.2845496230148
 21
185.1738131400652
 31
0.0
  0
LINE
  5
5D4
330
1F
100
AcDbEntity
  8
0
100
AcDbLine
 10
74.78454974493195
 20
239.5738131400653
 30
0.0
 11
74.78454974493195
 21
185.1738131400652
 31
0.0
  0
LINE
  5
5D5
330
1F
100
AcDbEntity
  8
0
100
AcDbLine
 10
73.88454962301398
 20
185.9738132994094
 30
0.0
 11
73.88454962301398
 21
226.6138132994094
 31
0.0
  0
LINE
  5
5D6
330
1F
100
AcDbEntity
  8
0
100
AcDbLine
 10
65.28454962301385
 20
226.6138132994094
 30
0.0
 11
65.28454962301385
 21
185.9738132994094
 31
0.0
  0
LINE
  5
5D7
330
1F
100
AcDbEntity
  8
0
100
AcDbLine
 10
64.18454974493193
 20
271.4738131400654
 30
0.0
 11
64.18454974493193
 21
185.1738131400652
 31
0.0
  0
LINE
  5
5D8
330
1F
100
AcDbEntity
  8
0
100
AcDbLine
 10
65.28454962301474
 20
185.1738131400652
 30
0.0
 11
65.28454962301474
 21
271.4738131400654
 31
0.0
  0
LINE
  5
5D9
330
1F
100
AcDbEntity
  8
0
100
AcDbLine
 10
56.18454962301496
 20
201.6069937243226
 30
0.0
 11
56.18454962301496
 21
354.9476273778406
 31
0.0
  0
LINE
  5
5DA
330
1F
100
AcDbEntity
  8
0
100
AcDbLine
 10
57.18454962301496
 20
354.9738132994094
 30
0.0
 11
57.18454962301382
 21
202.3555937594474
 31
0.0
  0
LINE
  5
5DB
330
1F
100
AcDbEntity
  8
0
100
AcDbLine
 10
59.18454962301485
 20
352.9738132994094
 30
0.0
 11
59.18454962301392
 21
203.5595093169134
 31
0.0
  0
LINE
  5
5DC
330
1F
100
AcDbEntity
  8
0
100
AcDbLine
 10
56.18454962301496
 20
201.6069937243234
 30
0.0
 11
56.18454962301496
 21
354.4738132994094
 31
0.0
  0
LINE
  5
5DD
330
1F
100
AcDbEntity
  8
0
100
AcDbLine
 10
59.28454962301398
 20
352.7738132994095
 30
0.0
 11
59.28454962301398
 21
203.6659130877084
 31
0.0
  0
LINE
  5
5DE
330
1F
100
AcDbEntity
  8
0
100
AcDbLine
 10
109.1845496230147
 20
363.9738132994096
 30
0.0
 11
109.1845496230147
 21
171.9738132994094
 31
0.0
  0
LINE
  5
5DF
330
1F
100
AcDbEntity
  8
0
100
AcDbLine
 10
107.1845496230149
 20
182.9738132994094
 30
0.0
 11
107.1845496230149
 21
352.9738132994094
 31
0.0
  0
LINE
  5
5E0
330
1F
100
AcDbEntity
  8
0
100
AcDbLine
 10
109.1845496230147
 20
180.9738132994094
 30
0.0
 11
109.1845496230147
 21
354.9738132994094
 31
0.0
  0
LINE
  5
5E1
330
1F
100
AcDbEntity
  8
0
100
AcDbLine
 10
106.8845496230139
 20
352.7738132994095
 30
0.0
 11
106.8845496230139
 21
183.1738132994096
 31
0.0
  0
LINE
  5
5E2
330
1F
100
AcDbEntity
  8
0
100
AcDbLine
 10
37.18454962301496
 20
363.5283098402424
 30
0.0
 11
37.18454962301496
 21
172.4193167585763
 31
0.0
  0
ARC
  5
5E3
330
1F
100
AcDbEntity
  8
0
100
AcDbCircle
 10
80.18454962301484
 20
175.9738132994096
 30
0.0
 40
5.5
100
AcDbArc
 50
0.0
 51
65.38002267134597
  0
LINE
  5
5E5
330
1F
100
AcDbEntity
  8
0
100
AcDbLine
 10
57.18454962301382
 20
180.9738132994094
 30
0.0
 11
109.1845496230147
 21
180.9738132994094
 31
0.0
  0
LINE
  5
5E6
330
1F
100
AcDbEntity
  8
0
100
AcDbLine
 10
107.1845496230149
 20
182.9738132994094
 30
0.0
 11
62.18454962300995
 21
182.9738132994094
 31
0.0
  0
LINE
  5
5E7
330
1F
100
AcDbEntity
  8
0
100
AcDbLine
 10
62.28454962300975
 20
183.1738132994096
 30
0.0
 11
106.8845496230139
 21
183.1738132994096
 31
0.0
  0
LINE
  5
5E8
330
1F
100
AcDbEntity
  8
0
100
AcDbLine
 10
37.67146114886088
 20
181.4324096606283
 30
0.0
 11
55.18454962301484
 21
180.9738132994094
 31
0.0
  0
LINE
  5
5E9
330
1F
100
AcDbEntity
  8
0
100
AcDbLine
 10
55.18454962301484
 20
170.9738132994095
 30
0.0
 11
38.15837267470669
 21
171.4196594336014
 31
0.0
  0
ARC
  5
5EA
330
1F
100
AcDbEntity
  8
0
100
AcDbCircle
 10
38.18454962301484
 20
172.4193167585763
 30
0.0
 40
1.0
100
AcDbArc
 50
180.0
 51
268.5000000000036
  0
ARC
  5
5EB
330
1F
100
AcDbEntity
  8
0
100
AcDbCircle
 10
37.68454962301484
 20
181.9322383231164
 30
0.0
 40
0.5
100
AcDbArc
 50
180.0
 51
268.5000000000036
  0
LINE
  5
5EC
330
1F
100
AcDbEntity
  8
0
100
AcDbLine
 10
78.08454962301481
 20
175.9738132994096
 30
0.0
 11
78.08454962301481
 21
170.9738132994095
 31
0.0
  0
LINE
  5
5ED
330
1F
100
AcDbEntity
  8
0
100
AcDbLine
 10
82.28454962301475
 20
175.9738132994096
 30
0.0
 11
82.28454962301475
 21
170.9738132994095
 31
0.0
  0
LINE
  5
5EE
330
1F
100
AcDbEntity
  8
0
100
AcDbLine
 10
74.68454962301496
 20
175.9738132994096
 30
0.0
 11
74.68454962301496
 21
170.9738132994095
 31
0.0
  0
LINE
  5
5EF
330
1F
100
AcDbEntity
  8
0
100
AcDbLine
 10
55.18454962301484
 20
170.9738132994095
 30
0.0
 11
78.08454962301481
 21
170.9738132994095
 31
0.0
  0
LINE
  5
5F0
330
1F
100
AcDbEntity
  8
0
100
AcDbLine
 10
55.18454962301484
 20
170.9738132994095
 30
0.0
 11
77.93454962301485
 21
170.9738132994095
 31
0.0
  0
LINE
  5
5F1
330
1F
100
AcDbEntity
  8
0
100
AcDbLine
 10
74.78454974493195
 20
185.1738131400652
 30
0.0
 11
64.18454974493193
 21
185.1738131400652
 31
0.0
  0
LINE
  5
5F2
330
1F
100
AcDbEntity
  8
0
100
AcDbLine
 10
65.28454962301385
 20
185.9738132994094
 30
0.0
 11
73.88454962301398
 21
185.9738132994094
 31
0.0
  0
LINE
  5
5F3
330
1F
100
AcDbEntity
  8
0
100
AcDbLine
 10
59.18454962301075
 20
197.9738132994094
 30
0.0
 11
59.18454962300994
 21
181.0785569856864
 31
0.0
  0
LINE
  5
5F4
330
1F
100
AcDbEntity
  8
0
100
AcDbLine
 10
60.18454962301075
 20
197.9738132994094
 30
0.0
 11
60.18454962300984
 21
180.9738132994094
 31
0.0
  0
LINE
  5
5F5
330
1F
100
AcDbEntity
  8
0
100
AcDbLine
 10
62.18454962301087
 20
197.9738132994094
 30
0.0
 11
62.18454962300995
 21
182.9738132994094
 31
0.0
  0
LINE
  5
5F6
330
1F
100
AcDbEntity
  8
0
100
AcDbLine
 10
59.18454962301075
 20
197.9738132994094
 30
0.0
 11
59.18454962300994
 21
181.4738132994094
 31
0.0
  0
LINE
  5
5F7
330
1F
100
AcDbEntity
  8
0
100
AcDbLine
 10
62.28454962301089
 20
197.9738132994094
 30
0.0
 11
62.28454962300975
 21
183.1738132994096
 31
0.0
  0
LINE
  5
5F8
330
1F
100
AcDbEntity
  8
0
100
AcDbLine
 10
55.18454962301484
 20
180.9738132994094
 30
0.0
 11
59.18454962300994
 21
181.0785569856864
 31
0.0
  0
LINE
  5
5F9
330
1F
100
AcDbEntity
  8
0
100
AcDbLine
 10
55.18454962301484
 20
180.9738132994094
 30
0.0
 11
59.18454962301075
 21
181.0785569856864
 31
0.0
  0
CIRCLE
  5
5FA
330
1F
100
AcDbEntity
  8
0
100
AcDbCircle
 10
55.18454962301484
 20
185.9738132994094
 30
0.0
 40
1.6
  0
CIRCLE
  5
5FB
330
1F
100
AcDbEntity
  8
0
100
AcDbCircle
 10
55.18454962301484
 20
185.9738132994094
 30
0.0
 40
2.0
  0
LINE
  5
5FC
330
1F
100
AcDbEntity
  8
0
100
AcDbLine
 10
57.18454962301246
 20
181.0261851425486
 30
0.0
 11
57.18454962301382
 21
180.9738132994094
 31
0.0
  0
LINE
  5
5FD
330
1F
100
AcDbEntity
  8
0
100
AcDbLine
 10
60.18454962300984
 20
181.4738132994094
 30
0.0
 11
59.18454962300994
 21
181.4738132994094
 31
0.0
  0
ARC
  5
5FE
330
1F
100
AcDbEntity
  8
0
100
AcDbCircle
 10
55.48454962301479
 20
197.9738132994094
 30
0.0
 40
3.699999999995998
100
AcDbArc
 50
0.0
 51
79.09453000325759
  0
ARC
  5
5FF
330
1F
100
AcDbEntity
  8
0
100
AcDbCircle
 10
55.48454962301479
 20
197.9738132994094
 30
0.0
 40
4.699999999995998
100
AcDbArc
 50
0.0
 51
68.79523363710617
  0
ARC
  5
600
330
1F
100
AcDbEntity
  8
0
100
AcDbCircle
 10
55.48454962301479
 20
197.9738132994094
 30
0.0
 40
3.699999999995998
100
AcDbArc
 50
0.0
 51
79.09453000325759
  0
LINE
  5
601
330
1F
100
AcDbEntity
  8
0
100
AcDbLine
 10
53.53454962301487
 20
203.9738132994096
 30
0.0
 11
53.53454962301487
 21
205.3238132994095
 31
0.0
  0
LINE
  5
602
330
1F
100
AcDbEntity
  8
0
100
AcDbLine
 10
53.8345496230138
 20
203.9738132994096
 30
0.0
 11
53.8345496230138
 21
205.3238132994095
 31
0.0
  0
ARC
  5
603
330
1F
100
AcDbEntity
  8
0
100
AcDbCircle
 10
53.68454962301496
 20
205.3238132994095
 30
0.0
 40
0.15
100
AcDbArc
 50
0.0
 51
180.0
  0
ARC
  5
604
330
1F
100
AcDbEntity
  8
0
100
AcDbCircle
 10
55.03454962301475
 20
203.8238132994095
 30
0.0
 40
0.15
100
AcDbArc
 50
270.0
 51
90.0
  0
LINE
  5
605
330
1F
100
AcDbEntity
  8
0
100
AcDbLine
 10
53.8345496230138
 20
203.9738132994096
 30
0.0
 11
55.03454962301475
 21
203.9738132994096
 31
0.0
  0
LINE
  5
606
330
1F
100
AcDbEntity
  8
0
100
AcDbLine
 10
52.73454962301503
 20
203.3238132994095
 30
0.0
 11
54.63454962301398
 21
203.3238132994095
 31
0.0
  0
LINE
  5
607
330
1F
100
AcDbEntity
  8
0
100
AcDbLine
 10
52.73454962301503
 20
203.0238132994103
 30
0.0
 11
54.63454962301398
 21
203.0238132994103
 31
0.0
  0
LINE
  5
608
330
1F
100
AcDbEntity
  8
0
100
AcDbLine
 10
53.134549623015
 20
202.6738132994096
 30
0.0
 11
54.234549623014
 21
202.6738132994096
 31
0.0
  0
LINE
  5
609
330
1F
100
AcDbEntity
  8
0
100
AcDbLine
 10
53.134549623015
 20
202.3738132994094
 30
0.0
 11
54.234549623014
 21
202.3738132994094
 31
0.0
  0
ARC
  5
60A
330
1F
100
AcDbEntity
  8
0
100
AcDbCircle
 10
53.134549623015
 20
202.5238132994104
 30
0.0
 40
0.15
100
AcDbArc
 50
90.0
 51
270.0
  0
ARC
  5
60B
330
1F
100
AcDbEntity
  8
0
100
AcDbCircle
 10
54.234549623014
 20
202.5238132994104
 30
0.0
 40
0.15
100
AcDbArc
 50
270.0
 51
90.0
  0
ARC
  5
60C
330
1F
100
AcDbEntity
  8
0
100
AcDbCircle
 10
52.73454962301503
 20
203.1738132994096
 30
0.0
 40
0.15
100
AcDbArc
 50
90.0
 51
270.0
  0
ARC
  5
60D
330
1F
100
AcDbEntity
  8
0
100
AcDbCircle
 10
54.63454962301398
 20
203.1738132994096
 30
0.0
 40
0.15
100
AcDbArc
 50
270.0
 51
90.0
  0
ARC
  5
60E
330
1F
100
AcDbEntity
  8
0
100
AcDbCircle
 10
52.33454962301482
 20
203.8238132994095
 30
0.0
 40
0.15
100
AcDbArc
 50
90.0
 51
270.0
  0
CIRCLE
  5
60F
330
1F
100
AcDbEntity
  8
0
100
AcDbCircle
 10
53.68454962301496
 20
203.9738132994096
 30
0.0
 40
2.149999999999999
  0
CIRCLE
  5
610
330
1F
100
AcDbEntity
  8
0
100
AcDbCircle
 10
53.68454962301496
 20
203.9738132994096
 30
0.0
 40
1.85
  0
LINE
  5
611
330
1F
100
AcDbEntity
  8
0
100
AcDbLine
 10
52.33454962301482
 20
203.6738132994095
 30
0.0
 11
55.03454962301475
 21
203.6738132994095
 31
0.0
  0
LINE
  5
612
330
1F
100
AcDbEntity
  8
0
100
AcDbLine
 10
52.33454962301482
 20
203.9738132994096
 30
0.0
 11
53.53454962301487
 21
203.9738132994096
 31
0.0
  0
CIRCLE
  5
613
330
1F
100
AcDbEntity
  8
0
100
AcDbCircle
 10
55.18454962301484
 20
195.9738132994094
 30
0.0
 40
2.0
  0
CIRCLE
  5
614
330
1F
100
AcDbEntity
  8
0
100
AcDbCircle
 10
55.18454962301484
 20
195.9738132994094
 30
0.0
 40
1.6
  0
ARC
  5
615
330
1F
100
AcDbEntity
  8
0
100
AcDbCircle
 10
55.48454962301479
 20
197.9738132994094
 30
0.0
 40
6.699999999996
100
AcDbArc
 50
0.0
 51
56.47925960397667
  0
ARC
  5
616
330
1F
100
AcDbEntity
  8
0
100
AcDbCircle
 10
55.38454962301397
 20
197.9738132994094
 30
0.0
 40
6.899999999996
100
AcDbArc
 50
0.0
 51
55.58261128952961
  0
CIRCLE
  5
617
330
1F
100
AcDbEntity
  8
0
100
AcDbCircle
 10
69.28454962301396
 20
193.5938132994094
 30
0.0
 40
2.0
  0
ARC
  5
618
330
1F
100
AcDbEntity
  8
0
100
AcDbCircle
 10
80.18454962301484
 20
175.9738132994096
 30
0.0
 40
5.5
100
AcDbArc
 50
114.619977328654
 51
180.0
  0
CIRCLE
  5
619
330
1F
100
AcDbEntity
  8
0
100
AcDbCircle
 10
69.28454962301396
 20
188.8438132994094
 30
0.0
 40
1.0
  0
CIRCLE
  5
61A
330
1F
100
AcDbEntity
  8
0
100
AcDbCircle
 10
69.28454962301396
 20
188.8438132994094
 30
0.0
 40
1.5
  0
ARC
  5
61B
330
1F
100
AcDbEntity
  8
0
100
AcDbCircle
 10
80.18454962301484
 20
175.9738132994096
 30
0.0
 40
2.1
100
AcDbArc
 50
0.0
 51
180.0
  0
CIRCLE
  5
61C
330
1F
100
AcDbEntity
  8
0
100
AcDbCircle
 10
69.28454962301396
 20
203.7538132994104
 30
0.0
 40
2.0
  0
CIRCLE
  5
61D
330
1F
100
AcDbEntity
  8
0
100
AcDbCircle
 10
69.28454962301396
 20
203.7538132994104
 30
0.0
 40
2.0
  0
CIRCLE
  5
61E
330
1F
100
AcDbEntity
  8
0
100
AcDbCircle
 10
69.28454962301396
 20
198.6738132994096
 30
0.0
 40
2.0
  0
CIRCLE
  5
61F
330
1F
100
AcDbEntity
  8
0
100
AcDbCircle
 10
69.28454962301396
 20
198.6738132994096
 30
0.0
 40
2.0
  0
CIRCLE
  5
620
330
1F
100
AcDbEntity
  8
0
100
AcDbCircle
 10
69.28454962301396
 20
208.8338132994095
 30
0.0
 40
2.0
  0
LINE
  5
622
330
1F
100
AcDbEntity
  8
0
100
AcDbLine
 10
85.68454962301496
 20
175.9738132994096
 30
0.0
 11
85.68454962301496
 21
170.9738132994095
 31
0.0
  0
LINE
  5
628
330
1F
100
AcDbEntity
  8
0
100
AcDbLine
 10
82.28454962301475
 20
170.9738132994095
 30
0.0
 11
108.1845496230149
 21
170.9738132994095
 31
0.0
  0
ARC
  5
62A
330
1F
100
AcDbEntity
  8
0
100
AcDbCircle
 10
108.1845496230149
 20
171.9738132994094
 30
0.0
 40
1.0
100
AcDbArc
 50
270.0
 51
0.0
  0
LINE
  5
62B
330
1F
100
AcDbEntity
  8
0
100
AcDbLine
 10
100.2845496230138
 20
191.4738132994094
 30
0.0
 11
93.78454962301395
 21
191.4738132994094
 31
0.0
  0
LINE
  5
62C
330
1F
100
AcDbEntity
  8
0
100
AcDbLine
 10
91.68454962301485
 20
192.9738132994094
 30
0.0
 11
99.9845496230148
 21
192.9738132994094
 31
0.0
  0
LINE
  5
62D
330
1F
100
AcDbEntity
  8
0
100
AcDbLine
 10
90.88454962301501
 20
193.9738132994094
 30
0.0
 11
99.9845496230148
 21
193.9738132994094
 31
0.0
  0
LINE
  5
62E
330
1F
100
AcDbEntity
  8
0
100
AcDbLine
 10
93.78454962301395
 20
185.9738132994094
 30
0.0
 11
100.2845496230138
 21
185.9738132994094
 31
0.0
  0
LINE
  5
62F
330
1F
100
AcDbEntity
  8
0
100
AcDbLine
 10
101.1845497449328
 20
185.1738131400652
 30
0.0
 11
89.78454974493194
 21
185.1738131400652
 31
0.0
  0
CIRCLE
  5
631
330
1F
100
AcDbEntity
  8
0
100
AcDbCircle
 10
96.85454962301378
 20
189.9738132994094
 30
0.0
 40
0.32
  0
LINE
  5
632
330
1F
100
AcDbEntity
  8
0
100
AcDbLine
 10
94.78454962301384
 20
189.4738132994094
 30
0.0
 11
93.78454962301395
 21
189.4738132994094
 31
0.0
  0
CIRCLE
  5
633
330
1F
100
AcDbEntity
  8
0
100
AcDbCircle
 10
96.85454962301378
 20
187.4738132994096
 30
0.0
 40
0.32
  0
LINE
  5
634
330
1F
100
AcDbEntity
  8
0
100
AcDbLine
 10
93.78454962301395
 20
187.9738132994094
 30
0.0
 11
94.78454962301384
 21
187.9738132994094
 31
0.0
  0
LINE
  5
635
330
1F
100
AcDbEntity
  8
0
100
AcDbLine
 10
93.78454962301395
 20
185.9738132994094
 30
0.0
 11
94.78454962301384
 21
185.9738132994094
 31
0.0
  0
LINE
  5
636
330
1F
100
AcDbEntity
  8
0
100
AcDbLine
 10
94.78454962301384
 20
187.9738132994094
 30
0.0
 11
94.78454962301384
 21
189.4738132994094
 31
0.0
  0
LINE
  5
637
330
1F
100
AcDbEntity
  8
0
100
AcDbLine
 10
93.78454962301395
 20
189.4738132994094
 30
0.0
 11
93.78454962301395
 21
187.9738132994094
 31
0.0
  0
LINE
  5
638
330
1F
100
AcDbEntity
  8
0
100
AcDbLine
 10
94.78454962301384
 20
185.9738132994094
 30
0.0
 11
94.78454962301384
 21
191.4738132994094
 31
0.0
  0
LINE
  5
639
330
1F
100
AcDbEntity
  8
0
100
AcDbLine
 10
93.78454962301395
 20
191.4738132994094
 30
0.0
 11
93.78454962301395
 21
185.9738132994094
 31
0.0
  0
ARC
  5
63A
330
1F
100
AcDbEntity
  8
0
100
AcDbCircle
 10
91.68454962301485
 20
193.4738132994094
 30
0.0
 40
0.5
100
AcDbArc
 50
180.0
 51
270.0
  0
LINE
  5
63B
330
1F
100
AcDbEntity
  8
0
100
AcDbLine
 10
91.18454962301495
 20
193.9738132994094
 30
0.0
 11
91.18454962301495
 21
193.4738132994094
 31
0.0
  0
ARC
  5
63C
330
1F
100
AcDbEntity
  8
0
100
AcDbCircle
 10
96.634549623015
 20
204.0900964420013
 30
0.0
 40
2.0
100
AcDbArc
 50
285.0000000000006
 51
0.0
  0
LINE
  5
63D
330
1F
100
AcDbEntity
  8
0
100
AcDbLine
 10
98.63454962301501
 20
197.9738132994094
 30
0.0
 11
98.63454962301501
 21
200.3738132994094
 31
0.0
  0
ARC
  5
63E
330
1F
100
AcDbEntity
  8
0
100
AcDbCircle
 10
94.3345496230148
 20
203.4738132994094
 30
0.0
 40
2.0
100
AcDbArc
 50
180.0
 51
285.0000000000006
  0
LINE
  5
63F
330
1F
100
AcDbEntity
  8
0
100
AcDbLine
 10
92.33454962301479
 20
200.3738132994094
 30
0.0
 11
92.33454962301479
 21
197.9738132994094
 31
0.0
  0
LINE
  5
640
330
1F
100
AcDbEntity
  8
0
100
AcDbLine
 10
94.8521877132198
 20
201.5419616468313
 30
0.0
 11
97.15218771322
 21
202.1582447894219
 31
0.0
  0
LINE
  5
641
330
1F
100
AcDbEntity
  8
0
100
AcDbLine
 10
93.884549623015
 20
202.9738132994094
 30
0.0
 11
97.08454962301495
 21
202.9738132994094
 31
0.0
  0
LINE
  5
642
330
1F
100
AcDbEntity
  8
0
100
AcDbLine
 10
92.33454962301479
 20
200.3738132994094
 30
0.0
 11
98.63454962301501
 21
200.3738132994094
 31
0.0
  0
LINE
  5
643
330
1F
100
AcDbEntity
  8
0
100
AcDbLine
 10
92.33454962301479
 20
198.4738132994094
 30
0.0
 11
98.63454962301501
 21
198.4738132994094
 31
0.0
  0
LINE
  5
644
330
1F
100
AcDbEntity
  8
0
100
AcDbLine
 10
92.33454962301479
 20
197.9738132994094
 30
0.0
 11
98.63454962301501
 21
197.9738132994094
 31
0.0
  0
CIRCLE
  5
645
330
1F
100
AcDbEntity
  8
0
100
AcDbCircle
 10
95.4845496230148
 20
195.9438132994096
 30
0.0
 40
1.399999999999999
  0
LINE
  5
647
330
1F
100
AcDbEntity
  8
0
100
AcDbLine
 10
100.2845496230138
 20
185.9738132994094
 30
0.0
 11
100.2845496230138
 21
191.4738132994094
 31
0.0
  0
LINE
  5
648
330
1F
100
AcDbEntity
  8
0
100
AcDbLine
 10
99.9845496230148
 20
210.3038132994103
 30
0.0
 11
100.2845496230148
 21
210.3038132994103
 31
0.0
  0
LINE
  5
649
330
1F
100
AcDbEntity
  8
0
100
AcDbLine
 10
99.9845496230148
 20
209.0338132994104
 30
0.0
 11
100.2845496230148
 21
209.0338132994104
 31
0.0
  0
LINE
  5
64A
330
1F
100
AcDbEntity
  8
0
100
AcDbLine
 10
99.9845496230148
 20
207.7638132994104
 30
0.0
 11
100.2845496230148
 21
207.7638132994104
 31
0.0
  0
LINE
  5
64B
330
1F
100
AcDbEntity
  8
0
100
AcDbLine
 10
99.9845496230148
 20
207.7638132994104
 30
0.0
 11
100.2845496230148
 21
207.7638132994104
 31
0.0
  0
LINE
  5
64C
330
1F
100
AcDbEntity
  8
0
100
AcDbLine
 10
99.9845496230148
 20
206.4938132994103
 30
0.0
 11
100.2845496230148
 21
206.4938132994103
 31
0.0
  0
LINE
  5
64D
330
1F
100
AcDbEntity
  8
0
100
AcDbLine
 10
99.9845496230148
 20
205.2238132994105
 30
0.0
 11
100.2845496230148
 21
205.2238132994105
 31
0.0
  0
LINE
  5
64E
330
1F
100
AcDbEntity
  8
0
100
AcDbLine
 10
99.9845496230148
 20
203.9538132994105
 30
0.0
 11
100.2845496230148
 21
203.9538132994105
 31
0.0
  0
LINE
  5
64F
330
1F
100
AcDbEntity
  8
0
100
AcDbLine
 10
99.9845496230148
 20
200.3738132994094
 30
0.0
 11
100.2845496230148
 21
200.3738132994094
 31
0.0
  0
ARC
  5
650
330
1F
100
AcDbEntity
  8
0
100
AcDbCircle
 10
99.9845496230148
 20
193.2738132994094
 30
0.0
 40
0.3
100
AcDbArc
 50
270.0
 51
0.0
  0
LINE
  5
651
330
1F
100
AcDbEntity
  8
0
100
AcDbLine
 10
100.2845496230148
 20
200.3738132994094
 30
0.0
 11
100.2845496230148
 21
193.2738132994094
 31
0.0
  0
ARC
  5
652
330
1F
100
AcDbEntity
  8
0
100
AcDbCircle
 10
80.18454962301484
 20
359.9738132994096
 30
0.0
 40
5.5
100
AcDbArc
 50
294.619977328654
 51
0.0
  0
LINE
  5
653
330
1F
100
AcDbEntity
  8
0
100
AcDbLine
 10
55.18454962301484
 20
364.9738132994094
 30
0.0
 11
108.1845496230149
 21
364.9738132994094
 31
0.0
  0
LINE
  5
654
330
1F
100
AcDbEntity
  8
0
100
AcDbLine
 10
57.18454962301496
 20
354.9738132994094
 30
0.0
 11
109.1845496230147
 21
354.9738132994094
 31
0.0
  0
LINE
  5
655
330
1F
100
AcDbEntity
  8
0
100
AcDbLine
 10
107.1845496230149
 20
352.9738132994094
 30
0.0
 11
59.18454962301485
 21
352.9738132994094
 31
0.0
  0
LINE
  5
656
330
1F
100
AcDbEntity
  8
0
100
AcDbLine
 10
106.8845496230139
 20
352.7738132994095
 30
0.0
 11
59.28454962301398
 21
352.7738132994095
 31
0.0
  0
LINE
  5
657
330
1F
100
AcDbEntity
  8
0
100
AcDbLine
 10
55.18454962301484
 20
364.9738132994094
 30
0.0
 11
108.1845496230149
 21
364.9738132994094
 31
0.0
  0
CIRCLE
  5
658
330
1F
100
AcDbEntity
  8
0
100
AcDbCircle
 10
80.18454962301484
 20
359.9738132994096
 30
0.0
 40
2.1
  0
LINE
  5
659
330
1F
100
AcDbEntity
  8
0
100
AcDbLine
 10
74.68454962301496
 20
359.9738132994096
 30
0.0
 11
74.68454962301496
 21
364.9738132994094
 31
0.0
  0
LINE
  5
65A
330
1F
100
AcDbEntity
  8
0
100
AcDbLine
 10
76.12954962301398
 20
301.1338132994091
 30
0.0
 11
76.12954962301398
 21
276.9738132994094
 31
0.0
  0
LINE
  5
65B
330
1F
100
AcDbEntity
  8
0
100
AcDbLine
 10
76.5845497449319
 20
302.1738131400652
 30
0.0
 11
76.5845497449319
 21
275.9738131400654
 31
0.0
  0
LINE
  5
65C
330
1F
100
AcDbEntity
  8
0
100
AcDbLine
 10
67.78454962301395
 20
301.1338132994091
 30
0.0
 11
67.78454962301395
 21
276.9738132994094
 31
0.0
  0
LINE
  5
65D
330
1F
100
AcDbEntity
  8
0
100
AcDbLine
 10
74.76954962301397
 20
301.1338132994091
 30
0.0
 11
74.76954962301397
 21
276.9738132994094
 31
0.0
  0
LINE
  5
65E
330
1F
100
AcDbEntity
  8
0
100
AcDbLine
 10
66.78454962301384
 20
301.1338132994091
 30
0.0
 11
66.78454962301384
 21
276.9738132994094
 31
0.0
  0
LINE
  5
65F
330
1F
100
AcDbEntity
  8
0
100
AcDbLine
 10
64.18454974493193
 20
302.1738131400652
 30
0.0
 11
64.18454974493193
 21
275.9738131400654
 31
0.0
  0
LINE
  5
660
330
1F
100
AcDbEntity
  8
0
100
AcDbLine
 10
65.28454962301474
 20
275.9738131400654
 30
0.0
 11
65.28454962301474
 21
302.1738131400652
 31
0.0
  0
LINE
  5
661
330
1F
100
AcDbEntity
  8
0
100
AcDbLine
 10
72.28454962301396
 20
252.5438132994095
 30
0.0
 11
72.28454962301396
 21
247.5438132994093
 31
0.0
  0
LINE
  5
662
330
1F
100
AcDbEntity
  8
0
100
AcDbLine
 10
67.28454962301396
 20
251.7538132994094
 30
0.0
 11
67.28454962301396
 21
248.3338132994095
 31
0.0
  0
LINE
  5
663
330
1F
100
AcDbEntity
  8
0
100
AcDbLine
 10
74.78454974493195
 20
256.5738131400653
 30
0.0
 11
74.78454974493195
 21
243.173813140065
 31
0.0
  0
LINE
  5
664
330
1F
100
AcDbEntity
  8
0
100
AcDbLine
 10
73.78454962301384
 20
234.6138132994094
 30
0.0
 11
73.78454962301384
 21
265.1138132994093
 31
0.0
  0
LINE
  5
665
330
1F
100
AcDbEntity
  8
0
100
AcDbLine
 10
65.28454962301385
 20
270.4738132994096
 30
0.0
 11
65.28454962301385
 21
229.6138132994093
 31
0.0
  0
ARC
  5
666
330
1F
100
AcDbEntity
  8
0
100
AcDbCircle
 10
69.28454962301396
 20
238.6138132994094
 30
0.0
 40
2.9
100
AcDbArc
 50
133.602818972703
 51
226.3971810273058
  0
LINE
  5
667
330
1F
100
AcDbEntity
  8
0
100
AcDbLine
 10
65.28454962301385
 20
229.6138132994093
 30
0.0
 11
72.28454962301396
 21
229.6138132994093
 31
0.0
  0
LINE
  5
668
330
1F
100
AcDbEntity
  8
0
100
AcDbLine
 10
65.28454962301385
 20
229.6138132994093
 30
0.0
 11
72.28454962301396
 21
229.6138132994093
 31
0.0
  0
LINE
  5
669
330
1F
100
AcDbEntity
  8
0
100
AcDbLine
 10
73.88454962301398
 20
226.6138132994094
 30
0.0
 11
65.28454962301385
 21
226.6138132994094
 31
0.0
  0
ARC
  5
66A
330
1F
100
AcDbEntity
  8
0
100
AcDbCircle
 10
69.28454962301396
 20
246.2338132994094
 30
0.0
 40
2.9
100
AcDbArc
 50
133.602818972703
 51
226.3971810273058
  0
LINE
  5
66B
330
1F
100
AcDbEntity
  8
0
100
AcDbLine
 10
65.28454962301385
 20
234.8538132994093
 30
0.0
 11
65.28454962301385
 21
229.6138132994093
 31
0.0
  0
LINE
  5
66C
330
1F
100
AcDbEntity
  8
0
100
AcDbLine
 10
72.28454962301396
 20
229.6138132994093
 30
0.0
 11
72.28454962301396
 21
234.6138132994094
 31
0.0
  0
LINE
  5
66D
330
1F
100
AcDbEntity
  8
0
100
AcDbLine
 10
72.28454962301396
 20
229.6138132994093
 30
0.0
 11
72.28454962301396
 21
234.8538132994093
 31
0.0
  0
CIRCLE
  5
66E
330
1F
100
AcDbEntity
  8
0
100
AcDbCircle
 10
69.28454962301396
 20
223.7438132994103
 30
0.0
 40
1.0
  0
CIRCLE
  5
66F
330
1F
100
AcDbEntity
  8
0
100
AcDbCircle
 10
69.28454962301396
 20
223.7438132994103
 30
0.0
 40
1.5
  0
CIRCLE
  5
670
330
1F
100
AcDbEntity
  8
0
100
AcDbCircle
 10
69.28454962301396
 20
213.9138132994096
 30
0.0
 40
2.0
  0
CIRCLE
  5
671
330
1F
100
AcDbEntity
  8
0
100
AcDbCircle
 10
69.28454962301396
 20
213.9138132994096
 30
0.0
 40
2.0
  0
CIRCLE
  5
672
330
1F
100
AcDbEntity
  8
0
100
AcDbCircle
 10
69.28454962301396
 20
218.9938132994103
 30
0.0
 40
2.0
  0
LINE
  5
673
330
1F
100
AcDbEntity
  8
0
100
AcDbLine
 10
74.78454974493195
 20
243.173813140065
 30
0.0
 11
76.38454974493186
 21
243.173813140065
 31
0.0
  0
LINE
  5
674
330
1F
100
AcDbEntity
  8
0
100
AcDbLine
 10
73.78454962301384
 20
242.1638132994096
 30
0.0
 11
75.484549623014
 21
242.1638132994096
 31
0.0
  0
LINE
  5
675
330
1F
100
AcDbEntity
  8
0
100
AcDbLine
 10
75.484549623014
 20
240.5638132994095
 30
0.0
 11
73.78454962301384
 21
240.5638132994095
 31
0.0
  0
LINE
  5
676
330
1F
100
AcDbEntity
  8
0
100
AcDbLine
 10
74.78454974493195
 20
239.5738131400653
 30
0.0
 11
76.38454974493186
 21
239.5738131400653
 31
0.0
  0
LINE
  5
677
330
1F
100
AcDbEntity
  8
0
100
AcDbLine
 10
71.484549623014
 20
247.5438132994093
 30
0.0
 11
72.28454962301396
 21
247.5438132994093
 31
0.0
  0
LINE
  5
678
330
1F
100
AcDbEntity
  8
0
100
AcDbLine
 10
71.484549623014
 20
244.9238132994095
 30
0.0
 11
72.28454962301396
 21
244.9238132994095
 31
0.0
  0
LINE
  5
679
330
1F
100
AcDbEntity
  8
0
100
AcDbLine
 10
71.484549623014
 20
247.5438132994093
 30
0.0
 11
71.484549623014
 21
244.9238132994095
 31
0.0
  0
CIRCLE
  5
67A
330
1F
100
AcDbEntity
  8
0
100
AcDbCircle
 10
69.28454962301396
 20
246.2338132994094
 30
0.0
 40
0.75
  0
LINE
  5
67B
330
1F
100
AcDbEntity
  8
0
100
AcDbLine
 10
71.484549623014
 20
239.9238132994096
 30
0.0
 11
72.28454962301396
 21
239.9238132994096
 31
0.0
  0
LINE
  5
67C
330
1F
100
AcDbEntity
  8
0
100
AcDbLine
 10
72.28454962301396
 20
234.6138132994094
 30
0.0
 11
73.78454962301384
 21
234.6138132994094
 31
0.0
  0
LINE
  5
67D
330
1F
100
AcDbEntity
  8
0
100
AcDbLine
 10
71.484549623014
 20
237.3038132994095
 30
0.0
 11
72.28454962301396
 21
237.3038132994095
 31
0.0
  0
LINE
  5
67E
330
1F
100
AcDbEntity
  8
0
100
AcDbLine
 10
72.28454962301396
 20
237.3038132994095
 30
0.0
 11
72.28454962301396
 21
235.6138132994094
 31
0.0
  0
LINE
  5
67F
330
1F
100
AcDbEntity
  8
0
100
AcDbLine
 10
71.484549623014
 20
239.9238132994096
 30
0.0
 11
71.484549623014
 21
237.3038132994095
 31
0.0
  0
LINE
  5
680
330
1F
100
AcDbEntity
  8
0
100
AcDbLine
 10
67.28454962301396
 20
244.1338132994093
 30
0.0
 11
67.28454962301396
 21
240.7138132994095
 31
0.0
  0
LINE
  5
681
330
1F
100
AcDbEntity
  8
0
100
AcDbLine
 10
67.28454962301396
 20
236.5138132994093
 30
0.0
 11
67.28454962301396
 21
235.6138132994094
 31
0.0
  0
CIRCLE
  5
682
330
1F
100
AcDbEntity
  8
0
100
AcDbCircle
 10
69.28454962301396
 20
238.6138132994094
 30
0.0
 40
0.75
  0
CIRCLE
  5
683
330
1F
100
AcDbEntity
  8
0
100
AcDbCircle
 10
69.24816356261089
 20
232.5138132994094
 30
0.0
 40
0.9
  0
LINE
  5
684
330
1F
100
AcDbEntity
  8
0
100
AcDbLine
 10
67.28454962301396
 20
235.6138132994094
 30
0.0
 11
72.28454962301396
 21
235.6138132994094
 31
0.0
  0
CIRCLE
  5
685
330
1F
100
AcDbEntity
  8
0
100
AcDbCircle
 10
69.28454962301396
 20
238.6138132994094
 30
0.0
 40
1.5
  0
CIRCLE
  5
686
330
1F
100
AcDbEntity
  8
0
100
AcDbCircle
 10
69.24816356261089
 20
232.5138132994094
 30
0.0
 40
2.0
  0
LINE
  5
687
330
1F
100
AcDbEntity
  8
0
100
AcDbLine
 10
72.28454962301396
 20
244.9238132994095
 30
0.0
 11
72.28454962301396
 21
239.9238132994096
 31
0.0
  0
CIRCLE
  5
688
330
1F
100
AcDbEntity
  8
0
100
AcDbCircle
 10
69.28454962301396
 20
246.2338132994094
 30
0.0
 40
1.5
  0
LINE
  5
689
330
1F
100
AcDbEntity
  8
0
100
AcDbLine
 10
75.484549623014
 20
242.1638132994096
 30
0.0
 11
75.484549623014
 21
240.5638132994095
 31
0.0
  0
LINE
  5
68A
330
1F
100
AcDbEntity
  8
0
100
AcDbLine
 10
76.38454974493186
 20
243.173813140065
 30
0.0
 11
76.38454974493186
 21
239.5738131400653
 31
0.0
  0
LINE
  5
68B
330
1F
100
AcDbEntity
  8
0
100
AcDbLine
 10
66.78454962301384
 20
276.9738132994094
 30
0.0
 11
76.12954962301398
 21
276.9738132994094
 31
0.0
  0
LINE
  5
68C
330
1F
100
AcDbEntity
  8
0
100
AcDbLine
 10
64.18454974493193
 20
271.4738131400654
 30
0.0
 11
74.78454974493195
 21
271.4738131400654
 31
0.0
  0
LINE
  5
68D
330
1F
100
AcDbEntity
  8
0
100
AcDbLine
 10
65.28454962301385
 20
270.4738132994096
 30
0.0
 11
72.28454962301396
 21
270.4738132994096
 31
0.0
  0
LINE
  5
68E
330
1F
100
AcDbEntity
  8
0
100
AcDbLine
 10
65.28454962301385
 20
270.4738132994096
 30
0.0
 11
72.28454962301396
 21
270.4738132994096
 31
0.0
  0
ARC
  5
68F
330
1F
100
AcDbEntity
  8
0
100
AcDbCircle
 10
69.28454962301396
 20
253.8538132994094
 30
0.0
 40
2.9
100
AcDbArc
 50
133.602818972703
 51
226.3971810273058
  0
ARC
  5
690
330
1F
100
AcDbEntity
  8
0
100
AcDbCircle
 10
69.28454962301396
 20
261.4738132994094
 30
0.0
 40
2.9
100
AcDbArc
 50
133.602818972703
 51
226.3971810273058
  0
LINE
  5
691
330
1F
100
AcDbEntity
  8
0
100
AcDbLine
 10
64.18454974493193
 20
275.9738131400654
 30
0.0
 11
76.5845497449319
 21
275.9738131400654
 31
0.0
  0
LINE
  5
692
330
1F
100
AcDbEntity
  8
0
100
AcDbLine
 10
65.28454962301385
 20
265.2338132994094
 30
0.0
 11
65.28454962301385
 21
270.4738132994096
 31
0.0
  0
LINE
  5
693
330
1F
100
AcDbEntity
  8
0
100
AcDbLine
 10
66.78454962301384
 20
284.4738132994093
 30
0.0
 11
65.28454962301474
 21
284.4738132994093
 31
0.0
  0
LINE
  5
694
330
1F
100
AcDbEntity
  8
0
100
AcDbLine
 10
65.28454962301474
 20
283.4738132994093
 30
0.0
 11
66.78454962301384
 21
283.4738132994093
 31
0.0
  0
LINE
  5
695
330
1F
100
AcDbEntity
  8
0
100
AcDbLine
 10
66.78454962301384
 20
283.4738132994093
 30
0.0
 11
66.78454962301384
 21
284.4738132994093
 31
0.0
  0
LINE
  5
696
330
1F
100
AcDbEntity
  8
0
100
AcDbLine
 10
66.78454962301384
 20
279.9738132994094
 30
0.0
 11
65.28454962301385
 21
279.9738132994094
 31
0.0
  0
LINE
  5
697
330
1F
100
AcDbEntity
  8
0
100
AcDbLine
 10
65.28454962301385
 20
276.9738132994094
 30
0.0
 11
66.78454962301384
 21
276.9738132994094
 31
0.0
  0
LINE
  5
698
330
1F
100
AcDbEntity
  8
0
100
AcDbLine
 10
66.78454962301384
 20
276.9738132994094
 30
0.0
 11
66.78454962301384
 21
277.9738132994094
 31
0.0
  0
LINE
  5
699
330
1F
100
AcDbEntity
  8
0
100
AcDbLine
 10
66.78454962301384
 20
276.9738132994094
 30
0.0
 11
66.78454962301384
 21
279.9738132994094
 31
0.0
  0
LINE
  5
69A
330
1F
100
AcDbEntity
  8
0
100
AcDbLine
 10
65.28454962301385
 20
279.9738132994094
 30
0.0
 11
65.28454962301385
 21
276.9738132994094
 31
0.0
  0
LINE
  5
69B
330
1F
100
AcDbEntity
  8
0
100
AcDbLine
 10
72.28454962301396
 20
265.4738132994094
 30
0.0
 11
72.28454962301396
 21
270.4738132994096
 31
0.0
  0
LINE
  5
69C
330
1F
100
AcDbEntity
  8
0
100
AcDbLine
 10
72.28454962301396
 20
270.4738132994096
 30
0.0
 11
72.28454962301396
 21
265.2338132994094
 31
0.0
  0
CIRCLE
  5
69D
330
1F
100
AcDbEntity
  8
0
100
AcDbCircle
 10
69.28454962301396
 20
267.5738132994089
 30
0.0
 40
0.9
  0
CIRCLE
  5
69E
330
1F
100
AcDbEntity
  8
0
100
AcDbCircle
 10
69.28454962301396
 20
267.5738132994089
 30
0.0
 40
2.0
  0
LINE
  5
69F
330
1F
100
AcDbEntity
  8
0
100
AcDbLine
 10
74.78454974493195
 20
271.4738131400654
 30
0.0
 11
74.78454974493195
 21
260.173813140065
 31
0.0
  0
LINE
  5
6A0
330
1F
100
AcDbEntity
  8
0
100
AcDbLine
 10
74.78454974493195
 20
260.173813140065
 30
0.0
 11
76.38454974493186
 21
260.173813140065
 31
0.0
  0
LINE
  5
6A1
330
1F
100
AcDbEntity
  8
0
100
AcDbLine
 10
75.484549623014
 20
259.1638132994094
 30
0.0
 11
73.78454962301384
 21
259.1638132994094
 31
0.0
  0
LINE
  5
6A2
330
1F
100
AcDbEntity
  8
0
100
AcDbLine
 10
74.78454974493195
 20
256.5738131400653
 30
0.0
 11
76.38454974493186
 21
256.5738131400653
 31
0.0
  0
LINE
  5
6A3
330
1F
100
AcDbEntity
  8
0
100
AcDbLine
 10
75.484549623014
 20
257.5638132994094
 30
0.0
 11
73.78454962301384
 21
257.5638132994094
 31
0.0
  0
LINE
  5
6A4
330
1F
100
AcDbEntity
  8
0
100
AcDbLine
 10
72.28454962301396
 20
265.4738132994094
 30
0.0
 11
73.78454962301384
 21
265.4738132994094
 31
0.0
  0
LINE
  5
6A5
330
1F
100
AcDbEntity
  8
0
100
AcDbLine
 10
73.78454962301384
 20
265.4738132994094
 30
0.0
 11
73.78454962301384
 21
265.1138132994093
 31
0.0
  0
LINE
  5
6A6
330
1F
100
AcDbEntity
  8
0
100
AcDbLine
 10
67.28454962301396
 20
264.1138132994094
 30
0.0
 11
67.28454962301396
 21
263.5738132994095
 31
0.0
  0
LINE
  5
6A7
330
1F
100
AcDbEntity
  8
0
100
AcDbLine
 10
72.28454962301396
 20
264.1138132994094
 30
0.0
 11
67.28454962301396
 21
264.1138132994094
 31
0.0
  0
LINE
  5
6A8
330
1F
100
AcDbEntity
  8
0
100
AcDbLine
 10
71.484549623014
 20
262.7838132994094
 30
0.0
 11
72.28454962301396
 21
262.7838132994094
 31
0.0
  0
LINE
  5
6A9
330
1F
100
AcDbEntity
  8
0
100
AcDbLine
 10
71.484549623014
 20
260.1638132994096
 30
0.0
 11
72.28454962301396
 21
260.1638132994096
 31
0.0
  0
LINE
  5
6AA
330
1F
100
AcDbEntity
  8
0
100
AcDbLine
 10
71.484549623014
 20
262.7838132994094
 30
0.0
 11
71.484549623014
 21
260.1638132994096
 31
0.0
  0
LINE
  5
6AB
330
1F
100
AcDbEntity
  8
0
100
AcDbLine
 10
71.484549623014
 20
255.1638132994096
 30
0.0
 11
72.28454962301396
 21
255.1638132994096
 31
0.0
  0
LINE
  5
6AC
330
1F
100
AcDbEntity
  8
0
100
AcDbLine
 10
71.484549623014
 20
252.5438132994095
 30
0.0
 11
72.28454962301396
 21
252.5438132994095
 31
0.0
  0
LINE
  5
6AD
330
1F
100
AcDbEntity
  8
0
100
AcDbLine
 10
71.484549623014
 20
255.1638132994096
 30
0.0
 11
71.484549623014
 21
252.5438132994095
 31
0.0
  0
LINE
  5
6AE
330
1F
100
AcDbEntity
  8
0
100
AcDbLine
 10
72.28454962301396
 20
260.1638132994096
 30
0.0
 11
72.28454962301396
 21
255.1638132994096
 31
0.0
  0
CIRCLE
  5
6AF
330
1F
100
AcDbEntity
  8
0
100
AcDbCircle
 10
69.28454962301396
 20
261.4738132994094
 30
0.0
 40
0.75
  0
CIRCLE
  5
6B0
330
1F
100
AcDbEntity
  8
0
100
AcDbCircle
 10
69.28454962301396
 20
253.8538132994094
 30
0.0
 40
0.75
  0
LINE
  5
6B1
330
1F
100
AcDbEntity
  8
0
100
AcDbLine
 10
67.28454962301396
 20
259.3738132994094
 30
0.0
 11
67.28454962301396
 21
255.9538132994096
 31
0.0
  0
CIRCLE
  5
6B2
330
1F
100
AcDbEntity
  8
0
100
AcDbCircle
 10
69.28454962301396
 20
261.4738132994094
 30
0.0
 40
1.5
  0
CIRCLE
  5
6B3
330
1F
100
AcDbEntity
  8
0
100
AcDbCircle
 10
69.28454962301396
 20
253.8538132994094
 30
0.0
 40
1.5
  0
LINE
  5
6B4
330
1F
100
AcDbEntity
  8
0
100
AcDbLine
 10
72.28454962301396
 20
264.1138132994094
 30
0.0
 11
72.28454962301396
 21
262.7838132994094
 31
0.0
  0
LINE
  5
6B5
330
1F
100
AcDbEntity
  8
0
100
AcDbLine
 10
76.38454974493186
 20
260.173813140065
 30
0.0
 11
76.38454974493186
 21
256.5738131400653
 31
0.0
  0
LINE
  5
6B6
330
1F
100
AcDbEntity
  8
0
100
AcDbLine
 10
75.484549623014
 20
259.1638132994094
 30
0.0
 11
75.484549623014
 21
257.5638132994094
 31
0.0
  0
LINE
  5
6B7
330
1F
100
AcDbEntity
  8
0
100
AcDbLine
 10
71.78454962301396
 20
284.9738132994096
 30
0.0
 11
70.78454962301385
 21
284.9738132994096
 31
0.0
  0
LINE
  5
6B8
330
1F
100
AcDbEntity
  8
0
100
AcDbLine
 10
70.78454962301385
 20
282.9738132994096
 30
0.0
 11
71.78454962301396
 21
282.9738132994096
 31
0.0
  0
LINE
  5
6B9
330
1F
100
AcDbEntity
  8
0
100
AcDbLine
 10
71.78454962301396
 20
282.9738132994096
 30
0.0
 11
71.78454962301396
 21
284.9738132994096
 31
0.0
  0
LINE
  5
6BA
330
1F
100
AcDbEntity
  8
0
100
AcDbLine
 10
70.78454962301385
 20
284.9738132994096
 30
0.0
 11
70.78454962301385
 21
282.9738132994096
 31
0.0
  0
LINE
  5
6BB
330
1F
100
AcDbEntity
  8
0
100
AcDbLine
 10
67.78454962301395
 20
277.9738132994094
 30
0.0
 11
74.76954962301397
 21
277.9738132994094
 31
0.0
  0
LINE
  5
6BC
330
1F
100
AcDbEntity
  8
0
100
AcDbLine
 10
37.67146114886088
 20
354.5152169381915
 30
0.0
 11
55.18454962301484
 21
354.9738132994094
 31
0.0
  0
ARC
  5
6BD
330
1F
100
AcDbEntity
  8
0
100
AcDbCircle
 10
37.68454962301484
 20
354.0153882757035
 30
0.0
 40
0.5
100
AcDbArc
 50
91.49999999999627
 51
180.0
  0
LINE
  5
6BE
330
1F
100
AcDbEntity
  8
0
100
AcDbLine
 10
77.0845497449319
 20
331.073813140065
 30
0.0
 11
77.0845497449319
 21
322.8738131400652
 31
0.0
  0
LINE
  5
6BF
330
1F
100
AcDbEntity
  8
0
100
AcDbLine
 10
75.48454962301502
 20
323.4138132994096
 30
0.0
 11
75.48454962301502
 21
330.0538132994095
 31
0.0
  0
LINE
  5
6C0
330
1F
100
AcDbEntity
  8
0
100
AcDbLine
 10
65.28454962301474
 20
323.4138132994096
 30
0.0
 11
65.28454962301474
 21
330.0538132994095
 31
0.0
  0
LINE
  5
6C1
330
1F
100
AcDbEntity
  8
0
100
AcDbLine
 10
64.18454974493193
 20
339.0738131400651
 30
0.0
 11
64.18454974493193
 21
306.073813140065
 31
0.0
  0
LINE
  5
6C2
330
1F
100
AcDbEntity
  8
0
100
AcDbLine
 10
65.28454962301497
 20
306.073813140065
 30
0.0
 11
65.28454962301474
 21
339.0738131400651
 31
0.0
  0
LINE
  5
6C3
330
1F
100
AcDbEntity
  8
0
100
AcDbLine
 10
72.53454962301488
 20
322.4138132994096
 30
0.0
 11
65.28454962301385
 21
322.4138132994096
 31
0.0
  0
LINE
  5
6C4
330
1F
100
AcDbEntity
  8
0
100
AcDbLine
 10
75.48454962301502
 20
323.4138132994096
 30
0.0
 11
65.28454962301474
 21
323.4138132994096
 31
0.0
  0
LINE
  5
6C5
330
1F
100
AcDbEntity
  8
0
100
AcDbLine
 10
66.78454962301384
 20
301.1338132994091
 30
0.0
 11
67.78454962301395
 21
301.1338132994091
 31
0.0
  0
LINE
  5
6C6
330
1F
100
AcDbEntity
  8
0
100
AcDbLine
 10
65.28454962301385
 20
307.0138132994093
 30
0.0
 11
72.53454962301488
 21
307.0138132994093
 31
0.0
  0
LINE
  5
6C7
330
1F
100
AcDbEntity
  8
0
100
AcDbLine
 10
64.18454974493193
 20
306.073813140065
 30
0.0
 11
73.48454974493188
 21
306.073813140065
 31
0.0
  0
LINE
  5
6C8
330
1F
100
AcDbEntity
  8
0
100
AcDbLine
 10
76.12954962301398
 20
301.1338132994091
 30
0.0
 11
66.78454962301384
 21
301.1338132994091
 31
0.0
  0
LINE
  5
6C9
330
1F
100
AcDbEntity
  8
0
100
AcDbLine
 10
64.18454974493193
 20
302.1738131400652
 30
0.0
 11
76.5845497449319
 21
302.1738131400652
 31
0.0
  0
LINE
  5
6CA
330
1F
100
AcDbEntity
  8
0
100
AcDbLine
 10
66.78454962301384
 20
301.1338132994091
 30
0.0
 11
65.28454962301385
 21
301.1338132994091
 31
0.0
  0
LINE
  5
6CB
330
1F
100
AcDbEntity
  8
0
100
AcDbLine
 10
65.28454962301385
 20
298.1338132994094
 30
0.0
 11
66.78454962301384
 21
298.1338132994094
 31
0.0
  0
LINE
  5
6CC
330
1F
100
AcDbEntity
  8
0
100
AcDbLine
 10
66.78454962301384
 20
293.6338132994094
 30
0.0
 11
66.78454962301384
 21
294.6338132994091
 31
0.0
  0
LINE
  5
6CD
330
1F
100
AcDbEntity
  8
0
100
AcDbLine
 10
65.28454962301474
 20
293.6338132994094
 30
0.0
 11
66.78454962301384
 21
293.6338132994094
 31
0.0
  0
LINE
  5
6CE
330
1F
100
AcDbEntity
  8
0
100
AcDbLine
 10
66.78454962301384
 20
294.6338132994091
 30
0.0
 11
65.28454962301474
 21
294.6338132994091
 31
0.0
  0
LINE
  5
6CF
330
1F
100
AcDbEntity
  8
0
100
AcDbLine
 10
66.78454962301384
 20
288.5538132994095
 30
0.0
 11
66.78454962301384
 21
289.5538132994095
 31
0.0
  0
LINE
  5
6D0
330
1F
100
AcDbEntity
  8
0
100
AcDbLine
 10
65.28454962301474
 20
288.5538132994095
 30
0.0
 11
66.78454962301384
 21
288.5538132994095
 31
0.0
  0
LINE
  5
6D1
330
1F
100
AcDbEntity
  8
0
100
AcDbLine
 10
66.78454962301384
 20
289.5538132994095
 30
0.0
 11
65.28454962301474
 21
289.5538132994095
 31
0.0
  0
LINE
  5
6D2
330
1F
100
AcDbEntity
  8
0
100
AcDbLine
 10
66.78454962301384
 20
301.1338132994091
 30
0.0
 11
66.78454962301384
 21
300.1338132994094
 31
0.0
  0
LINE
  5
6D3
330
1F
100
AcDbEntity
  8
0
100
AcDbLine
 10
66.78454962301384
 20
298.1338132994094
 30
0.0
 11
66.78454962301384
 21
301.1338132994091
 31
0.0
  0
LINE
  5
6D4
330
1F
100
AcDbEntity
  8
0
100
AcDbLine
 10
65.28454962301385
 20
301.1338132994091
 30
0.0
 11
65.28454962301385
 21
298.1338132994094
 31
0.0
  0
LINE
  5
6D5
330
1F
100
AcDbEntity
  8
0
100
AcDbLine
 10
65.28454962301385
 20
322.4138132994096
 30
0.0
 11
65.28454962301385
 21
307.0138132994093
 31
0.0
  0
LINE
  5
6D6
330
1F
100
AcDbEntity
  8
0
100
AcDbLine
 10
75.26954962301386
 20
301.1338132994091
 30
0.0
 11
74.76954962301397
 21
301.1338132994091
 31
0.0
  0
LINE
  5
6D7
330
1F
100
AcDbEntity
  8
0
100
AcDbLine
 10
70.78454962301385
 20
293.1338132994091
 30
0.0
 11
71.78454962301396
 21
293.1338132994091
 31
0.0
  0
LINE
  5
6D8
330
1F
100
AcDbEntity
  8
0
100
AcDbLine
 10
71.78454962301396
 20
293.1338132994091
 30
0.0
 11
71.78454962301396
 21
295.1338132994091
 31
0.0
  0
LINE
  5
6D9
330
1F
100
AcDbEntity
  8
0
100
AcDbLine
 10
71.78454962301396
 20
295.1338132994091
 30
0.0
 11
70.78454962301385
 21
295.1338132994091
 31
0.0
  0
LINE
  5
6DA
330
1F
100
AcDbEntity
  8
0
100
AcDbLine
 10
70.78454962301385
 20
295.1338132994091
 30
0.0
 11
70.78454962301385
 21
293.1338132994091
 31
0.0
  0
LINE
  5
6DB
330
1F
100
AcDbEntity
  8
0
100
AcDbLine
 10
71.78454962301396
 20
290.0538132994095
 30
0.0
 11
70.78454962301385
 21
290.0538132994095
 31
0.0
  0
LINE
  5
6DC
330
1F
100
AcDbEntity
  8
0
100
AcDbLine
 10
70.78454962301385
 20
288.0538132994095
 30
0.0
 11
71.78454962301396
 21
288.0538132994095
 31
0.0
  0
LINE
  5
6DD
330
1F
100
AcDbEntity
  8
0
100
AcDbLine
 10
71.78454962301396
 20
288.0538132994095
 30
0.0
 11
71.78454962301396
 21
290.0538132994095
 31
0.0
  0
LINE
  5
6DE
330
1F
100
AcDbEntity
  8
0
100
AcDbLine
 10
70.78454962301385
 20
290.0538132994095
 30
0.0
 11
70.78454962301385
 21
288.0538132994095
 31
0.0
  0
LINE
  5
6DF
330
1F
100
AcDbEntity
  8
0
100
AcDbLine
 10
67.78454962301395
 20
300.1338132994094
 30
0.0
 11
74.76954962301397
 21
300.1338132994094
 31
0.0
  0
LINE
  5
6E0
330
1F
100
AcDbEntity
  8
0
100
AcDbLine
 10
73.48454974493188
 20
322.8738131400652
 30
0.0
 11
77.0845497449319
 21
322.8738131400652
 31
0.0
  0
CIRCLE
  5
6E1
330
1F
100
AcDbEntity
  8
0
100
AcDbCircle
 10
68.78454962301396
 20
312.9638132994096
 30
0.0
 40
1.0
  0
CIRCLE
  5
6E2
330
1F
100
AcDbEntity
  8
0
100
AcDbCircle
 10
68.78454962301396
 20
316.4638132994093
 30
0.0
 40
1.0
  0
CIRCLE
  5
6E3
330
1F
100
AcDbEntity
  8
0
100
AcDbCircle
 10
68.78454962301396
 20
309.4638132994095
 30
0.0
 40
1.0
  0
CIRCLE
  5
6E4
330
1F
100
AcDbEntity
  8
0
100
AcDbCircle
 10
68.78454962301396
 20
319.9638132994095
 30
0.0
 40
1.0
  0
LINE
  5
6E5
330
1F
100
AcDbEntity
  8
0
100
AcDbLine
 10
72.53454962301488
 20
307.0138132994093
 30
0.0
 11
72.53454962301488
 21
322.4138132994096
 31
0.0
  0
LINE
  5
6E6
330
1F
100
AcDbEntity
  8
0
100
AcDbLine
 10
73.48454974493188
 20
322.8738131400652
 30
0.0
 11
73.48454974493188
 21
306.073813140065
 31
0.0
  0
CIRCLE
  5
6E7
330
1F
100
AcDbEntity
  8
0
100
AcDbCircle
 10
67.78454974493183
 20
347.7738131400653
 30
0.0
 40
1.399999999999999
  0
CIRCLE
  5
6E8
330
1F
100
AcDbEntity
  8
0
100
AcDbCircle
 10
67.78454974493183
 20
342.9738131400653
 30
0.0
 40
1.399999999999999
  0
LINE
  5
6E9
330
1F
100
AcDbEntity
  8
0
100
AcDbLine
 10
74.0845497449319
 20
339.0738131400651
 30
0.0
 11
64.18454974493193
 21
339.0738131400651
 31
0.0
  0
LINE
  5
6EA
330
1F
100
AcDbEntity
  8
0
100
AcDbLine
 10
73.1845496230138
 20
338.5538132994095
 30
0.0
 11
65.28454962301385
 21
338.5538132994095
 31
0.0
  0
LINE
  5
6EB
330
1F
100
AcDbEntity
  8
0
100
AcDbLine
 10
73.1845496230138
 20
331.0538132994103
 30
0.0
 11
65.28454962301385
 21
331.0538132994103
 31
0.0
  0
LINE
  5
6EC
330
1F
100
AcDbEntity
  8
0
100
AcDbLine
 10
75.48454962301502
 20
330.0538132994095
 30
0.0
 11
65.28454962301474
 21
330.0538132994095
 31
0.0
  0
LINE
  5
6ED
330
1F
100
AcDbEntity
  8
0
100
AcDbLine
 10
65.28454962301474
 20
337.6438132994103
 30
0.0
 11
65.68454962301382
 21
337.6438132994103
 31
0.0
  0
LINE
  5
6EE
330
1F
100
AcDbEntity
  8
0
100
AcDbLine
 10
65.28454962301474
 20
337.0438132994103
 30
0.0
 11
65.68454962301382
 21
337.0438132994103
 31
0.0
  0
LINE
  5
6EF
330
1F
100
AcDbEntity
  8
0
100
AcDbLine
 10
65.28454962301474
 20
335.1038132994103
 30
0.0
 11
65.68454962301382
 21
335.1038132994103
 31
0.0
  0
LINE
  5
6F0
330
1F
100
AcDbEntity
  8
0
100
AcDbLine
 10
65.28454962301474
 20
334.5038132994103
 30
0.0
 11
65.68454962301382
 21
334.5038132994103
 31
0.0
  0
LINE
  5
6F1
330
1F
100
AcDbEntity
  8
0
100
AcDbLine
 10
65.28454962301474
 20
331.9638132994104
 30
0.0
 11
65.68454962301382
 21
331.9638132994104
 31
0.0
  0
LINE
  5
6F2
330
1F
100
AcDbEntity
  8
0
100
AcDbLine
 10
65.28454962301474
 20
332.5638132994102
 30
0.0
 11
65.68454962301382
 21
332.5638132994102
 31
0.0
  0
LINE
  5
6F3
330
1F
100
AcDbEntity
  8
0
100
AcDbLine
 10
65.28454962301385
 20
331.0538132994103
 30
0.0
 11
65.28454962301385
 21
331.9638132994104
 31
0.0
  0
LINE
  5
6F4
330
1F
100
AcDbEntity
  8
0
100
AcDbLine
 10
65.28454962301385
 20
337.6438132994093
 30
0.0
 11
65.28454962301385
 21
338.5538132994095
 31
0.0
  0
LINE
  5
6F5
330
1F
100
AcDbEntity
  8
0
100
AcDbLine
 10
65.68454962301382
 20
331.0538132994103
 30
0.0
 11
65.68454962301382
 21
338.5538132994095
 31
0.0
  0
LINE
  5
6F6
330
1F
100
AcDbEntity
  8
0
100
AcDbLine
 10
55.18454962301484
 20
354.9738132994094
 30
0.0
 11
56.18454962301496
 21
354.9476273778406
 31
0.0
  0
LINE
  5
6F7
330
1F
100
AcDbEntity
  8
0
100
AcDbLine
 10
56.18454962301496
 20
350.9738132994094
 30
0.0
 11
56.19763809716777
 21
350.9741560331673
 31
0.0
  0
LINE
  5
6F8
330
1F
100
AcDbEntity
  8
0
100
AcDbLine
 10
57.18454962301496
 20
354.4738132994094
 30
0.0
 11
56.18454962301496
 21
354.4738132994094
 31
0.0
  0
CIRCLE
  5
6F9
330
1F
100
AcDbEntity
  8
0
100
AcDbCircle
 10
72.88454974493186
 20
342.9738131400653
 30
0.0
 40
1.399999999999999
  0
LINE
  5
6FA
330
1F
100
AcDbEntity
  8
0
100
AcDbLine
 10
75.48454962301502
 20
324.8638132994091
 30
0.0
 11
70.70905469402294
 21
324.8638132994091
 31
0.0
  0
LINE
  5
6FB
330
1F
100
AcDbEntity
  8
0
100
AcDbLine
 10
75.48454962301502
 20
328.6038132994093
 30
0.0
 11
70.70905469402294
 21
328.6038132994093
 31
0.0
  0
LINE
  5
6FC
330
1F
100
AcDbEntity
  8
0
100
AcDbLine
 10
75.48454962301502
 20
327.4038132994093
 30
0.0
 11
72.4845496230148
 21
327.4038132994093
 31
0.0
  0
LINE
  5
6FD
330
1F
100
AcDbEntity
  8
0
100
AcDbLine
 10
75.48454962301502
 20
326.0638132994094
 30
0.0
 11
72.4845496230148
 21
326.0638132994094
 31
0.0
  0
LINE
  5
6FE
330
1F
100
AcDbEntity
  8
0
100
AcDbLine
 10
75.48454962301502
 20
324.8638132994091
 30
0.0
 11
72.4845496230148
 21
324.8638132994091
 31
0.0
  0
LINE
  5
6FF
330
1F
100
AcDbEntity
  8
0
100
AcDbLine
 10
74.0845497449319
 20
331.073813140065
 30
0.0
 11
77.0845497449319
 21
331.073813140065
 31
0.0
  0
LINE
  5
700
330
1F
100
AcDbEntity
  8
0
100
AcDbLine
 10
72.4845496230148
 20
327.4038132994093
 30
0.0
 11
72.4845496230148
 21
328.6038132994093
 31
0.0
  0
LINE
  5
701
330
1F
100
AcDbEntity
  8
0
100
AcDbLine
 10
72.4845496230148
 20
324.8638132994091
 30
0.0
 11
72.4845496230148
 21
326.0638132994094
 31
0.0
  0
LINE
  5
702
330
1F
100
AcDbEntity
  8
0
100
AcDbLine
 10
73.9845496230148
 20
326.0638132994094
 30
0.0
 11
73.9845496230148
 21
327.4038132994093
 31
0.0
  0
LINE
  5
703
330
1F
100
AcDbEntity
  8
0
100
AcDbLine
 10
74.4845496230148
 20
327.4038132994093
 30
0.0
 11
74.4845496230148
 21
328.6038132994093
 31
0.0
  0
LINE
  5
704
330
1F
100
AcDbEntity
  8
0
100
AcDbLine
 10
74.4845496230148
 20
324.8638132994091
 30
0.0
 11
74.4845496230148
 21
326.0638132994094
 31
0.0
  0
LINE
  5
705
330
1F
100
AcDbEntity
  8
0
100
AcDbLine
 10
70.70905469402294
 20
328.6038132994093
 30
0.0
 11
70.70905469402294
 21
324.8638132994091
 31
0.0
  0
CIRCLE
  5
706
330
1F
100
AcDbEntity
  8
0
100
AcDbCircle
 10
69.43454962301394
 20
334.8038132994095
 30
0.0
 40
1.290290050200999
  0
LINE
  5
707
330
1F
100
AcDbEntity
  8
0
100
AcDbLine
 10
74.0845497449319
 20
339.0738131400651
 30
0.0
 11
74.0845497449319
 21
331.073813140065
 31
0.0
  0
LINE
  5
708
330
1F
100
AcDbEntity
  8
0
100
AcDbLine
 10
73.1845496230138
 20
331.0538132994103
 30
0.0
 11
73.1845496230138
 21
338.5538132994095
 31
0.0
  0
ARC
  5
709
330
1F
100
AcDbEntity
  8
0
100
AcDbCircle
 10
80.18454962301484
 20
359.9738132994096
 30
0.0
 40
5.5
100
AcDbArc
 50
180.0
 51
245.3800226713459
  0
CIRCLE
  5
70A
330
1F
100
AcDbEntity
  8
0
100
AcDbCircle
 10
72.88454974493186
 20
347.7738131400653
 30
0.0
 40
1.399999999999999
  0
LINE
  5
70B
330
1F
100
AcDbEntity
  8
0
100
AcDbLine
 10
55.18454962301484
 20
364.9738132994094
 30
0.0
 11
38.15837267470669
 21
364.5279671652183
 31
0.0
  0
ARC
  5
70C
330
1F
100
AcDbEntity
  8
0
100
AcDbCircle
 10
38.18454962301484
 20
363.5283098402424
 30
0.0
 40
1.0
100
AcDbArc
 50
91.49999999999627
 51
180.0
  0
LINE
  5
70D
330
1F
100
AcDbEntity
  8
0
100
AcDbLine
 10
85.68454962301496
 20
359.9738132994096
 30
0.0
 11
85.68454962301496
 21
364.9738132994094
 31
0.0
  0
LINE
  5
70E
330
1F
100
AcDbEntity
  8
0
100
AcDbLine
 10
100.2845496230148
 20
247.5738132994095
 30
0.0
 11
100.2845496230148
 21
253.4738132994096
 31
0.0
  0
LINE
  5
70F
330
1F
100
AcDbEntity
  8
0
100
AcDbLine
 10
101.1845497449328
 20
267.5738131400648
 30
0.0
 11
101.1845497449328
 21
232.673813140065
 31
0.0
  0
LINE
  5
710
330
1F
100
AcDbEntity
  8
0
100
AcDbLine
 10
100.2845496230148
 20
267.5738131400648
 30
0.0
 11
100.2845496230148
 21
232.673813140065
 31
0.0
  0
LINE
  5
711
330
1F
100
AcDbEntity
  8
0
100
AcDbLine
 10
86.38454974493177
 20
263.0738131400653
 30
0.0
 11
86.38454974493177
 21
247.0738131400653
 31
0.0
  0
LINE
  5
712
330
1F
100
AcDbEntity
  8
0
100
AcDbLine
 10
87.484549623014
 20
247.5738132994095
 30
0.0
 11
87.484549623014
 21
261.5738132994095
 31
0.0
  0
LINE
  5
713
330
1F
100
AcDbEntity
  8
0
100
AcDbLine
 10
100.2845496230138
 20
247.0738132994095
 30
0.0
 11
92.38454962301387
 21
247.0738132994095
 31
0.0
  0
LINE
  5
714
330
1F
100
AcDbEntity
  8
0
100
AcDbLine
 10
100.2845496230138
 20
241.5738132994095
 30
0.0
 11
93.03454962301385
 21
241.5738132994095
 31
0.0
  0
LINE
  5
715
330
1F
100
AcDbEntity
  8
0
100
AcDbLine
 10
92.38454962301387
 20
242.0738132994094
 30
0.0
 11
100.2845496230138
 21
242.0738132994094
 31
0.0
  0
LINE
  5
716
330
1F
100
AcDbEntity
  8
0
100
AcDbLine
 10
93.03454962301385
 20
233.1738132994096
 30
0.0
 11
100.2845496230138
 21
233.1738132994096
 31
0.0
  0
LINE
  5
717
330
1F
100
AcDbEntity
  8
0
100
AcDbLine
 10
101.1845497449328
 20
232.673813140065
 30
0.0
 11
89.78454974493194
 21
232.673813140065
 31
0.0
  0
LINE
  5
718
330
1F
100
AcDbEntity
  8
0
100
AcDbLine
 10
101.1845497449328
 20
230.673813140065
 30
0.0
 11
89.78454974493194
 21
230.673813140065
 31
0.0
  0
LINE
  5
719
330
1F
100
AcDbEntity
  8
0
100
AcDbLine
 10
91.68454962301485
 20
230.1738132994096
 30
0.0
 11
99.9845496230148
 21
230.1738132994105
 31
0.0
  0
LINE
  5
71A
330
1F
100
AcDbEntity
  8
0
100
AcDbLine
 10
90.88454962301501
 20
229.1738132994096
 30
0.0
 11
99.9845496230148
 21
229.1738132994096
 31
0.0
  0
LINE
  5
71B
330
1F
100
AcDbEntity
  8
0
100
AcDbLine
 10
100.2845496230148
 20
247.5738132994095
 30
0.0
 11
87.484549623014
 21
247.5738132994095
 31
0.0
  0
ARC
  5
71C
330
1F
100
AcDbEntity
  8
0
100
AcDbCircle
 10
91.68454962301485
 20
229.6738132994096
 30
0.0
 40
0.5
100
AcDbArc
 50
90.0
 51
180.0
  0
LINE
  5
71D
330
1F
100
AcDbEntity
  8
0
100
AcDbLine
 10
91.18454962301495
 20
229.6738132994096
 30
0.0
 11
91.18454962301495
 21
229.1738132994096
 31
0.0
  0
LINE
  5
71E
330
1F
100
AcDbEntity
  8
0
100
AcDbLine
 10
98.63454962301501
 20
222.7738132994104
 30
0.0
 11
98.63454962301501
 21
225.1738132994105
 31
0.0
  0
ARC
  5
71F
330
1F
100
AcDbEntity
  8
0
100
AcDbCircle
 10
96.634549623015
 20
219.0575301568183
 30
0.0
 40
2.0
100
AcDbArc
 50
0.0
 51
74.99999999999926
  0
LINE
  5
720
330
1F
100
AcDbEntity
  8
0
100
AcDbLine
 10
92.33454962301479
 20
225.1738132994105
 30
0.0
 11
92.33454962301479
 21
222.7738132994104
 31
0.0
  0
ARC
  5
721
330
1F
100
AcDbEntity
  8
0
100
AcDbCircle
 10
94.3345496230148
 20
219.6738132994096
 30
0.0
 40
2.0
100
AcDbArc
 50
74.99999999999926
 51
180.0
  0
LINE
  5
722
330
1F
100
AcDbEntity
  8
0
100
AcDbLine
 10
94.8521877132198
 20
221.6056649519873
 30
0.0
 11
97.15218771322
 21
220.9893818093965
 31
0.0
  0
LINE
  5
723
330
1F
100
AcDbEntity
  8
0
100
AcDbLine
 10
92.33454962301479
 20
222.7738132994104
 30
0.0
 11
98.63454962301501
 21
222.7738132994104
 31
0.0
  0
LINE
  5
724
330
1F
100
AcDbEntity
  8
0
100
AcDbLine
 10
92.33454962301479
 20
224.6738132994094
 30
0.0
 11
98.63454962301501
 21
224.6738132994094
 31
0.0
  0
LINE
  5
725
330
1F
100
AcDbEntity
  8
0
100
AcDbLine
 10
92.33454962301479
 20
225.1738132994096
 30
0.0
 11
98.63454962301501
 21
225.1738132994096
 31
0.0
  0
LINE
  5
726
330
1F
100
AcDbEntity
  8
0
100
AcDbLine
 10
97.08454962301495
 20
220.1738132994095
 30
0.0
 11
93.884549623015
 21
220.1738132994105
 31
0.0
  0
CIRCLE
  5
727
330
1F
100
AcDbEntity
  8
0
100
AcDbCircle
 10
95.4845496230148
 20
227.2038132994095
 30
0.0
 40
1.399999999999999
  0
LINE
  5
728
330
1F
100
AcDbEntity
  8
0
100
AcDbLine
 10
89.78454974493194
 20
247.0738131400653
 30
0.0
 11
89.78454974493194
 21
232.673813140065
 31
0.0
  0
LINE
  5
729
330
1F
100
AcDbEntity
  8
0
100
AcDbLine
 10
89.78454974493194
 20
247.0738131400653
 30
0.0
 11
86.38454974493177
 21
247.0738131400653
 31
0.0
  0
LINE
  5
72A
330
1F
100
AcDbEntity
  8
0
100
AcDbLine
 10
95.3345496230138
 20
246.0738132994094
 30
0.0
 11
94.33454962301381
 21
246.0738132994094
 31
0.0
  0
LINE
  5
72B
330
1F
100
AcDbEntity
  8
0
100
AcDbLine
 10
99.33454962301381
 20
246.0738132994094
 30
0.0
 11
93.33454962301379
 21
246.0738132994094
 31
0.0
  0
CIRCLE
  5
72C
330
1F
100
AcDbEntity
  8
0
100
AcDbCircle
 10
96.78454962301396
 20
235.6238132994094
 30
0.0
 40
1.0
  0
CIRCLE
  5
72D
330
1F
100
AcDbEntity
  8
0
100
AcDbCircle
 10
96.78454962301396
 20
239.1238132994094
 30
0.0
 40
1.0
  0
LINE
  5
72E
330
1F
100
AcDbEntity
  8
0
100
AcDbLine
 10
94.33454962301381
 20
243.0738132994095
 30
0.0
 11
95.3345496230138
 21
243.0738132994095
 31
0.0
  0
LINE
  5
72F
330
1F
100
AcDbEntity
  8
0
100
AcDbLine
 10
93.03454962301385
 20
241.5738132994095
 30
0.0
 11
93.03454962301385
 21
233.1738132994096
 31
0.0
  0
LINE
  5
730
330
1F
100
AcDbEntity
  8
0
100
AcDbLine
 10
93.33454962301379
 20
243.0738132994095
 30
0.0
 11
99.33454962301381
 21
243.0738132994095
 31
0.0
  0
LINE
  5
731
330
1F
100
AcDbEntity
  8
0
100
AcDbLine
 10
96.134549623014
 20
243.0738132994095
 30
0.0
 11
96.134549623014
 21
246.0738132994094
 31
0.0
  0
LINE
  5
732
330
1F
100
AcDbEntity
  8
0
100
AcDbLine
 10
99.33454962301381
 20
243.0738132994095
 30
0.0
 11
99.33454962301381
 21
246.0738132994094
 31
0.0
  0
LINE
  5
733
330
1F
100
AcDbEntity
  8
0
100
AcDbLine
 10
93.33454962301379
 20
246.0738132994094
 30
0.0
 11
93.33454962301379
 21
243.0738132994095
 31
0.0
  0
LINE
  5
734
330
1F
100
AcDbEntity
  8
0
100
AcDbLine
 10
95.3345496230138
 20
243.0738132994095
 30
0.0
 11
95.3345496230138
 21
246.0738132994094
 31
0.0
  0
LINE
  5
735
330
1F
100
AcDbEntity
  8
0
100
AcDbLine
 10
94.33454962301381
 20
246.0738132994094
 30
0.0
 11
94.33454962301381
 21
243.0738132994095
 31
0.0
  0
LINE
  5
736
330
1F
100
AcDbEntity
  8
0
100
AcDbLine
 10
92.38454962301387
 20
247.0738132994095
 30
0.0
 11
92.38454962301387
 21
242.0738132994094
 31
0.0
  0
LINE
  5
737
330
1F
100
AcDbEntity
  8
0
100
AcDbLine
 10
100.2845496230148
 20
229.8738132994103
 30
0.0
 11
100.2845496230148
 21
222.7738132994104
 31
0.0
  0
LINE
  5
738
330
1F
100
AcDbEntity
  8
0
100
AcDbLine
 10
99.9845496230148
 20
222.7738132994104
 30
0.0
 11
100.2845496230148
 21
222.7738132994104
 31
0.0
  0
LINE
  5
739
330
1F
100
AcDbEntity
  8
0
100
AcDbLine
 10
99.9845496230148
 20
215.3838132994103
 30
0.0
 11
100.2845496230148
 21
215.3838132994103
 31
0.0
  0
LINE
  5
73A
330
1F
100
AcDbEntity
  8
0
100
AcDbLine
 10
99.9845496230148
 20
214.1138132994103
 30
0.0
 11
100.2845496230148
 21
214.1138132994103
 31
0.0
  0
LINE
  5
73B
330
1F
100
AcDbEntity
  8
0
100
AcDbLine
 10
99.9845496230148
 20
217.9238132994105
 30
0.0
 11
100.2845496230148
 21
217.9238132994105
 31
0.0
  0
LINE
  5
73C
330
1F
100
AcDbEntity
  8
0
100
AcDbLine
 10
99.9845496230148
 20
216.6538132994105
 30
0.0
 11
100.2845496230148
 21
216.6538132994105
 31
0.0
  0
LINE
  5
73D
330
1F
100
AcDbEntity
  8
0
100
AcDbLine
 10
99.9845496230148
 20
215.3838132994103
 30
0.0
 11
100.2845496230148
 21
215.3838132994103
 31
0.0
  0
LINE
  5
73E
330
1F
100
AcDbEntity
  8
0
100
AcDbLine
 10
99.9845496230148
 20
219.1938132994096
 30
0.0
 11
100.2845496230148
 21
219.1938132994096
 31
0.0
  0
LINE
  5
73F
330
1F
100
AcDbEntity
  8
0
100
AcDbLine
 10
99.9845496230148
 20
217.9238132994105
 30
0.0
 11
100.2845496230148
 21
217.9238132994105
 31
0.0
  0
LINE
  5
740
330
1F
100
AcDbEntity
  8
0
100
AcDbLine
 10
99.9845496230148
 20
212.8438132994103
 30
0.0
 11
100.2845496230148
 21
212.8438132994103
 31
0.0
  0
LINE
  5
741
330
1F
100
AcDbEntity
  8
0
100
AcDbLine
 10
99.9845496230148
 20
211.5738132994104
 30
0.0
 11
100.2845496230148
 21
211.5738132994104
 31
0.0
  0
ARC
  5
742
330
1F
100
AcDbEntity
  8
0
100
AcDbCircle
 10
99.9845496230148
 20
229.8738132994103
 30
0.0
 40
0.3
100
AcDbArc
 50
0.0
 51
90.0
  0
LINE
  5
743
330
1F
100
AcDbEntity
  8
0
100
AcDbLine
 10
100.2845496230138
 20
233.1738132994096
 30
0.0
 11
100.2845496230138
 21
241.5738132994095
 31
0.0
  0
LINE
  5
744
330
1F
100
AcDbEntity
  8
0
100
AcDbLine
 10
100.2845496230138
 20
242.0738132994094
 30
0.0
 11
100.2845496230138
 21
247.0738132994095
 31
0.0
  0
LINE
  5
745
330
1F
100
AcDbEntity
  8
0
100
AcDbLine
 10
101.1845497449328
 20
267.5738131400648
 30
0.0
 11
89.78454974493194
 21
267.5738131400648
 31
0.0
  0
LINE
  5
746
330
1F
100
AcDbEntity
  8
0
100
AcDbLine
 10
100.2845496230138
 20
267.0738132994094
 30
0.0
 11
92.38454962301387
 21
267.0738132994094
 31
0.0
  0
LINE
  5
747
330
1F
100
AcDbEntity
  8
0
100
AcDbLine
 10
92.38454962301387
 20
262.0738132994095
 30
0.0
 11
100.2845496230138
 21
262.0738132994095
 31
0.0
  0
LINE
  5
748
330
1F
100
AcDbEntity
  8
0
100
AcDbLine
 10
100.2845496230148
 20
261.5738132994095
 30
0.0
 11
87.484549623014
 21
261.5738132994095
 31
0.0
  0
LINE
  5
749
330
1F
100
AcDbEntity
  8
0
100
AcDbLine
 10
89.78454974493194
 20
263.0738131400653
 30
0.0
 11
89.78454974493194
 21
267.5738131400648
 31
0.0
  0
CIRCLE
  5
74A
330
1F
100
AcDbEntity
  8
0
100
AcDbCircle
 10
93.78454962301477
 20
254.5738132994094
 30
0.0
 40
5.5
  0
LINE
  5
74B
330
1F
100
AcDbEntity
  8
0
100
AcDbLine
 10
89.78454974493194
 20
263.0738131400653
 30
0.0
 11
86.38454974493177
 21
263.0738131400653
 31
0.0
  0
LINE
  5
74C
330
1F
100
AcDbEntity
  8
0
100
AcDbLine
 10
95.3345496230138
 20
266.0738132994095
 30
0.0
 11
94.33454962301381
 21
266.0738132994095
 31
0.0
  0
LINE
  5
74D
330
1F
100
AcDbEntity
  8
0
100
AcDbLine
 10
99.33454962301381
 20
266.0738132994095
 30
0.0
 11
93.33454962301379
 21
266.0738132994095
 31
0.0
  0
LINE
  5
74E
330
1F
100
AcDbEntity
  8
0
100
AcDbLine
 10
94.33454962301381
 20
263.0738132994089
 30
0.0
 11
95.3345496230138
 21
263.0738132994089
 31
0.0
  0
LINE
  5
74F
330
1F
100
AcDbEntity
  8
0
100
AcDbLine
 10
93.33454962301379
 20
263.0738132994089
 30
0.0
 11
99.33454962301381
 21
263.0738132994089
 31
0.0
  0
LINE
  5
750
330
1F
100
AcDbEntity
  8
0
100
AcDbLine
 10
99.33454962301381
 20
263.0738132994089
 30
0.0
 11
99.33454962301381
 21
266.0738132994095
 31
0.0
  0
LINE
  5
751
330
1F
100
AcDbEntity
  8
0
100
AcDbLine
 10
96.134549623014
 20
263.0738132994089
 30
0.0
 11
96.134549623014
 21
266.0738132994095
 31
0.0
  0
LINE
  5
752
330
1F
100
AcDbEntity
  8
0
100
AcDbLine
 10
95.3345496230138
 20
263.0738132994089
 30
0.0
 11
95.3345496230138
 21
266.0738132994095
 31
0.0
  0
LINE
  5
753
330
1F
100
AcDbEntity
  8
0
100
AcDbLine
 10
94.33454962301381
 20
266.0738132994095
 30
0.0
 11
94.33454962301381
 21
263.0738132994089
 31
0.0
  0
LINE
  5
754
330
1F
100
AcDbEntity
  8
0
100
AcDbLine
 10
93.33454962301379
 20
266.0738132994095
 30
0.0
 11
93.33454962301379
 21
263.0738132994089
 31
0.0
  0
LINE
  5
755
330
1F
100
AcDbEntity
  8
0
100
AcDbLine
 10
92.38454962301387
 20
267.0738132994094
 30
0.0
 11
92.38454962301387
 21
262.0738132994095
 31
0.0
  0
LINE
  5
756
330
1F
100
AcDbEntity
  8
0
100
AcDbLine
 10
100.2845496230148
 20
255.6738132994095
 30
0.0
 11
100.2845496230148
 21
261.5738132994095
 31
0.0
  0
LINE
  5
757
330
1F
100
AcDbEntity
  8
0
100
AcDbLine
 10
100.2845496230138
 20
262.0738132994095
 30
0.0
 11
100.2845496230138
 21
267.0738132994094
 31
0.0
  0
ARC
  5
758
330
1F
100
AcDbEntity
  8
0
100
AcDbCircle
 10
108.1845496230149
 20
363.9738132994096
 30
0.0
 40
1.0
100
AcDbArc
 50
0.0
 51
90.0
  0
ARC
  5
759
330
1F
100
AcDbEntity
  8
0
100
AcDbCircle
 10
108.1845496230149
 20
363.9738132994096
 30
0.0
 40
1.0
100
AcDbArc
 50
0.0
 51
90.0
  0
LINE
  5
75A
330
1F
100
AcDbEntity
  8
0
100
AcDbLine
 10
101.1845497449328
 20
267.5738131400648
 30
0.0
 11
89.78454974493287
 21
267.5738131400648
 31
0.0
  0
INSERT
  5
75B
330
1F
100
AcDbEntity
  8
0
100
AcDbBlockReference
  2
A$C2A5F753D
 10
80.18454962301438
 20
359.9738132994096
 30
0.0
  0
LINE
  5
75C
330
1F
100
AcDbEntity
  8
0
  6
CONTINUOUS
100
AcDbLine
 10
86.18454984651476
 20
123.4738132994094
 30
0.0
 11
86.18454984651476
 21
124.1999991434775
 31
0.0
  0
LINE
  5
75D
330
1F
100
AcDbEntity
  8
0
  6
CONTINUOUS
100
AcDbLine
 10
86.18454984651476
 20
124.1999991434775
 30
0.0
 11
92.33454962301479
 21
124.1999991434775
 31
0.0
  0
LINE
  5
75E
330
1F
100
AcDbEntity
  8
0
  6
CONTINUOUS
100
AcDbLine
 10
92.33454962301479
 20
123.1999989795274
 30
0.0
 11
86.4845498025646
 21
123.1999989795274
 31
0.0
  0
LINE
  5
75F
330
1F
100
AcDbEntity
  8
0
  6
CONTINUOUS
100
AcDbLine
 10
89.43454968076469
 20
121.3999992432773
 30
0.0
 11
89.43454968076469
 21
120.9738132994095
 31
0.0
  0
LINE
  5
760
330
1F
100
AcDbEntity
  8
0
  6
CONTINUOUS
100
AcDbLine
 10
92.33454962301479
 20
121.3999992432773
 30
0.0
 11
89.43454968076469
 21
121.3999992432773
 31
0.0
  0
LINE
  5
761
330
1F
100
AcDbEntity
  8
0
  6
CONTINUOUS
100
AcDbLine
 10
86.18454984651476
 20
123.1999989795274
 30
0.0
 11
86.18454984651476
 21
124.1999991434775
 31
0.0
  0
LINE
  5
762
330
1F
100
AcDbEntity
  8
0
  6
CONTINUOUS
100
AcDbLine
 10
86.18454984651476
 20
123.1999989795274
 30
0.0
 11
86.18454984651476
 21
120.9738132994095
 31
0.0
  0
LINE
  5
763
330
1F
100
AcDbEntity
  8
0
  6
CONTINUOUS
100
AcDbLine
 10
86.4845498025646
 20
120.9738132994095
 30
0.0
 11
86.4845498025646
 21
123.1999989795274
 31
0.0
  0
LINE
  5
764
330
1F
100
AcDbEntity
  8
0
  6
CONTINUOUS
100
AcDbLine
 10
89.43454968076444
 20
121.3999992432773
 30
0.0
 11
89.43454968076444
 21
120.9738132994095
 31
0.0
  0
LINE
  5
765
330
1F
100
AcDbEntity
  8
0
  6
CONTINUOUS
100
AcDbLine
 10
92.33454962301479
 20
121.3999992432773
 30
0.0
 11
89.43454968076444
 21
121.3999992432773
 31
0.0
  0
LINE
  5
766
330
1F
100
AcDbEntity
  8
0
  6
CONTINUOUS
100
AcDbLine
 10
86.4845498025646
 20
123.1999989795274
 30
0.0
 11
86.18454984651476
 21
123.1999989795274
 31
0.0
  0
INSERT
  5
767
330
1F
100
AcDbEntity
  8
0
100
AcDbBlockReference
  2
A$C2B5B324C
 10
209.1845496230148
 20
354.9738132994094
 30
0.0
  0
LINE
  5
768
330
1F
100
AcDbEntity
  8
0
100
AcDbLine
 10
330.1845496230138
 20
364.8428836915633
 30
0.0
 11
330.1845496230138
 21
171.1047429072564
 31
0.0
  0
LINE
  5
769
330
1F
100
AcDbEntity
  8
0
100
AcDbLine
 10
325.1845496230139
 20
170.9738132994095
 30
0.0
 11
325.1845496230139
 21
180.9738132994094
 31
0.0
  0
LINE
  5
76A
330
1F
100
AcDbEntity
  8
0
100
AcDbLine
 10
209.1845496230148
 20
180.9738132994094
 30
0.0
 11
209.1845496230148
 21
354.9738132994094
 31
0.0
  0
LINE
  5
76B
330
1F
100
AcDbEntity
  8
0
100
AcDbLine
 10
209.1845496230148
 20
354.9738132994094
 30
0.0
 11
325.1845496230139
 21
354.9738132994094
 31
0.0
  0
LINE
  5
76C
330
1F
100
AcDbEntity
  8
0
100
AcDbLine
 10
209.1845496230148
 20
180.9738132994094
 30
0.0
 11
325.1845496230139
 21
180.9738132994094
 31
0.0
  0
LINE
  5
76D
330
1F
100
AcDbEntity
  8
0
100
AcDbLine
 10
325.1845496230139
 20
364.9738132994094
 30
0.0
 11
330.1845496230138
 21
364.8428836915633
 31
0.0
  0
LINE
  5
76E
330
1F
100
AcDbEntity
  8
0
100
AcDbLine
 10
326.5985893877508
 20
364.9367853650343
 30
0.0
 11
326.5985893877498
 21
171.0108412337845
 31
0.0
  0
LINE
  5
76F
330
1F
100
AcDbEntity
  8
0
100
AcDbLine
 10
325.1845496230139
 20
170.9738132994095
 30
0.0
 11
330.1845496230138
 21
171.1047429072564
 31
0.0
  0
LINE
  5
770
330
1F
100
AcDbEntity
  8
0
100
AcDbLine
 10
209.1845496230148
 20
180.9738132994094
 30
0.0
 11
209.1845496230148
 21
354.9738132994094
 31
0.0
  0
LINE
  5
771
330
1F
100
AcDbEntity
  8
0
100
AcDbLine
 10
209.1845496230148
 20
354.9738132994094
 30
0.0
 11
326.5724034661828
 21
354.9738132994094
 31
0.0
  0
LINE
  5
772
330
1F
100
AcDbEntity
  8
0
100
AcDbLine
 10
226.1845496230148
 20
180.9738132994094
 30
0.0
 11
226.1845496230148
 21
354.9738132994094
 31
0.0
  0
LINE
  5
773
330
1F
100
AcDbEntity
  8
0
100
AcDbLine
 10
308.1845496230148
 20
180.9738132994094
 30
0.0
 11
308.1845496230148
 21
354.9738132994094
 31
0.0
  0
LINE
  5
774
330
1F
100
AcDbEntity
  8
0
100
AcDbLine
 10
226.1845496230148
 20
353.9738132994096
 30
0.0
 11
308.1845496230148
 21
353.9738132994096
 31
0.0
  0
LINE
  5
775
330
1F
100
AcDbEntity
  8
0
100
AcDbLine
 10
231.1845496230148
 20
351.9738132994094
 30
0.0
 11
233.1845496230148
 21
351.9738132994094
 31
0.0
  0
LINE
  5
776
330
1F
100
AcDbEntity
  8
0
100
AcDbLine
 10
231.1845496230148
 20
181.9738132994094
 30
0.0
 11
231.1845496230148
 21
235.2238132994096
 31
0.0
  0
LINE
  5
777
330
1F
100
AcDbEntity
  8
0
100
AcDbLine
 10
233.1845496230148
 20
181.9738132994094
 30
0.0
 11
233.1845496230148
 21
235.2238132994096
 31
0.0
  0
LINE
  5
778
330
1F
100
AcDbEntity
  8
0
100
AcDbLine
 10
231.1845496230148
 20
300.7238132994093
 30
0.0
 11
233.1845496230148
 21
300.7238132994093
 31
0.0
  0
LINE
  5
779
330
1F
100
AcDbEntity
  8
0
100
AcDbLine
 10
231.1845496230148
 20
235.2238132994096
 30
0.0
 11
233.1845496230148
 21
235.2238132994096
 31
0.0
  0
LINE
  5
77A
330
1F
100
AcDbEntity
  8
0
100
AcDbLine
 10
226.1845496230148
 20
181.9738132994094
 30
0.0
 11
308.1845496230148
 21
181.9738132994094
 31
0.0
  0
LINE
  5
77B
330
1F
100
AcDbEntity
  8
0
100
AcDbLine
 10
231.1845496230148
 20
183.9738132994104
 30
0.0
 11
233.1845496230148
 21
183.9738132994104
 31
0.0
  0
LINE
  5
77C
330
1F
100
AcDbEntity
  8
0
100
AcDbLine
 10
231.1845496230148
 20
300.7238132994093
 30
0.0
 11
231.1845496230148
 21
353.9738132994096
 31
0.0
  0
LINE
  5
77D
330
1F
100
AcDbEntity
  8
0
100
AcDbLine
 10
233.1845496230148
 20
300.7238132994093
 30
0.0
 11
233.1845496230148
 21
353.9738132994096
 31
0.0
  0
LINE
  5
77E
330
1F
100
AcDbEntity
  8
0
100
AcDbLine
 10
238.1845496230148
 20
351.9738132994094
 30
0.0
 11
240.1845496230149
 21
351.9738132994094
 31
0.0
  0
LINE
  5
77F
330
1F
100
AcDbEntity
  8
0
100
AcDbLine
 10
238.1845496230148
 20
181.9738132994094
 30
0.0
 11
238.1845496230148
 21
235.2238132994096
 31
0.0
  0
LINE
  5
780
330
1F
100
AcDbEntity
  8
0
100
AcDbLine
 10
240.1845496230149
 20
181.9738132994094
 30
0.0
 11
240.1845496230149
 21
235.2238132994096
 31
0.0
  0
LINE
  5
781
330
1F
100
AcDbEntity
  8
0
100
AcDbLine
 10
238.1845496230148
 20
300.7238132994093
 30
0.0
 11
240.1845496230149
 21
300.7238132994093
 31
0.0
  0
LINE
  5
782
330
1F
100
AcDbEntity
  8
0
100
AcDbLine
 10
238.1845496230148
 20
235.2238132994096
 30
0.0
 11
240.1845496230149
 21
235.2238132994096
 31
0.0
  0
LINE
  5
783
330
1F
100
AcDbEntity
  8
0
100
AcDbLine
 10
238.1845496230148
 20
183.9738132994104
 30
0.0
 11
240.1845496230149
 21
183.9738132994104
 31
0.0
  0
LINE
  5
784
330
1F
100
AcDbEntity
  8
0
100
AcDbLine
 10
238.1845496230148
 20
300.7238132994093
 30
0.0
 11
238.1845496230148
 21
353.9738132994096
 31
0.0
  0
LINE
  5
785
330
1F
100
AcDbEntity
  8
0
100
AcDbLine
 10
240.1845496230149
 20
300.7238132994093
 30
0.0
 11
240.1845496230149
 21
353.9738132994096
 31
0.0
  0
LINE
  5
786
330
1F
100
AcDbEntity
  8
0
100
AcDbLine
 10
245.1845496230149
 20
351.9738132994094
 30
0.0
 11
247.1845496230148
 21
351.9738132994094
 31
0.0
  0
LINE
  5
787
330
1F
100
AcDbEntity
  8
0
100
AcDbLine
 10
245.1845496230149
 20
181.9738132994094
 30
0.0
 11
245.1845496230149
 21
235.2238132994096
 31
0.0
  0
LINE
  5
788
330
1F
100
AcDbEntity
  8
0
100
AcDbLine
 10
247.1845496230148
 20
181.9738132994094
 30
0.0
 11
247.1845496230148
 21
235.2238132994096
 31
0.0
  0
LINE
  5
789
330
1F
100
AcDbEntity
  8
0
100
AcDbLine
 10
245.1845496230149
 20
300.7238132994093
 30
0.0
 11
247.1845496230148
 21
300.7238132994093
 31
0.0
  0
LINE
  5
78A
330
1F
100
AcDbEntity
  8
0
100
AcDbLine
 10
245.1845496230149
 20
235.2238132994096
 30
0.0
 11
247.1845496230148
 21
235.2238132994096
 31
0.0
  0
LINE
  5
78B
330
1F
100
AcDbEntity
  8
0
100
AcDbLine
 10
245.1845496230149
 20
183.9738132994104
 30
0.0
 11
247.1845496230148
 21
183.9738132994104
 31
0.0
  0
LINE
  5
78C
330
1F
100
AcDbEntity
  8
0
100
AcDbLine
 10
245.1845496230149
 20
300.7238132994093
 30
0.0
 11
245.1845496230149
 21
353.9738132994096
 31
0.0
  0
LINE
  5
78D
330
1F
100
AcDbEntity
  8
0
100
AcDbLine
 10
247.1845496230148
 20
300.7238132994093
 30
0.0
 11
247.1845496230148
 21
353.9738132994096
 31
0.0
  0
LINE
  5
78E
330
1F
100
AcDbEntity
  8
0
100
AcDbLine
 10
252.1845496230148
 20
181.9738132994094
 30
0.0
 11
252.1845496230148
 21
235.2238132994096
 31
0.0
  0
LINE
  5
78F
330
1F
100
AcDbEntity
  8
0
100
AcDbLine
 10
254.1845496230148
 20
181.9738132994094
 30
0.0
 11
254.1845496230148
 21
235.2238132994096
 31
0.0
  0
LINE
  5
790
330
1F
100
AcDbEntity
  8
0
100
AcDbLine
 10
252.1845496230148
 20
300.7238132994093
 30
0.0
 11
254.1845496230148
 21
300.7238132994093
 31
0.0
  0
LINE
  5
791
330
1F
100
AcDbEntity
  8
0
100
AcDbLine
 10
252.1845496230148
 20
235.2238132994096
 30
0.0
 11
254.1845496230148
 21
235.2238132994096
 31
0.0
  0
LINE
  5
792
330
1F
100
AcDbEntity
  8
0
100
AcDbLine
 10
252.1845496230148
 20
183.9738132994104
 30
0.0
 11
254.1845496230148
 21
183.9738132994104
 31
0.0
  0
LINE
  5
793
330
1F
100
AcDbEntity
  8
0
100
AcDbLine
 10
252.1845496230148
 20
300.7238132994093
 30
0.0
 11
252.1845496230148
 21
353.9738132994096
 31
0.0
  0
LINE
  5
794
330
1F
100
AcDbEntity
  8
0
100
AcDbLine
 10
254.1845496230148
 20
300.7238132994093
 30
0.0
 11
254.1845496230148
 21
353.9738132994096
 31
0.0
  0
LINE
  5
795
330
1F
100
AcDbEntity
  8
0
100
AcDbLine
 10
259.1845496230148
 20
351.9738132994094
 30
0.0
 11
261.1845496230149
 21
351.9738132994094
 31
0.0
  0
LINE
  5
796
330
1F
100
AcDbEntity
  8
0
100
AcDbLine
 10
259.1845496230148
 20
181.9738132994094
 30
0.0
 11
259.1845496230148
 21
235.2238132994096
 31
0.0
  0
LINE
  5
797
330
1F
100
AcDbEntity
  8
0
100
AcDbLine
 10
261.1845496230149
 20
181.9738132994094
 30
0.0
 11
261.1845496230149
 21
235.2238132994096
 31
0.0
  0
LINE
  5
798
330
1F
100
AcDbEntity
  8
0
100
AcDbLine
 10
259.1845496230148
 20
300.7238132994093
 30
0.0
 11
261.1845496230149
 21
300.7238132994093
 31
0.0
  0
LINE
  5
799
330
1F
100
AcDbEntity
  8
0
100
AcDbLine
 10
259.1845496230148
 20
235.2238132994096
 30
0.0
 11
261.1845496230149
 21
235.2238132994096
 31
0.0
  0
LINE
  5
79A
330
1F
100
AcDbEntity
  8
0
100
AcDbLine
 10
259.1845496230148
 20
183.9738132994104
 30
0.0
 11
261.1845496230149
 21
183.9738132994104
 31
0.0
  0
LINE
  5
79B
330
1F
100
AcDbEntity
  8
0
100
AcDbLine
 10
259.1845496230148
 20
300.7238132994093
 30
0.0
 11
259.1845496230148
 21
353.9738132994096
 31
0.0
  0
LINE
  5
79C
330
1F
100
AcDbEntity
  8
0
100
AcDbLine
 10
261.1845496230149
 20
300.7238132994093
 30
0.0
 11
261.1845496230149
 21
353.9738132994096
 31
0.0
  0
LINE
  5
79D
330
1F
100
AcDbEntity
  8
0
100
AcDbLine
 10
266.1845496230148
 20
351.9738132994094
 30
0.0
 11
268.1845496230148
 21
351.9738132994094
 31
0.0
  0
LINE
  5
79E
330
1F
100
AcDbEntity
  8
0
100
AcDbLine
 10
266.1845496230148
 20
181.9738132994094
 30
0.0
 11
266.1845496230148
 21
235.2238132994096
 31
0.0
  0
LINE
  5
79F
330
1F
100
AcDbEntity
  8
0
100
AcDbLine
 10
268.1845496230148
 20
181.9738132994094
 30
0.0
 11
268.1845496230148
 21
235.2238132994096
 31
0.0
  0
LINE
  5
7A0
330
1F
100
AcDbEntity
  8
0
100
AcDbLine
 10
266.1845496230148
 20
300.7238132994093
 30
0.0
 11
268.1845496230148
 21
300.7238132994093
 31
0.0
  0
LINE
  5
7A1
330
1F
100
AcDbEntity
  8
0
100
AcDbLine
 10
266.1845496230148
 20
235.2238132994096
 30
0.0
 11
268.1845496230148
 21
235.2238132994096
 31
0.0
  0
LINE
  5
7A2
330
1F
100
AcDbEntity
  8
0
100
AcDbLine
 10
266.1845496230148
 20
183.9738132994104
 30
0.0
 11
268.1845496230148
 21
183.9738132994104
 31
0.0
  0
LINE
  5
7A3
330
1F
100
AcDbEntity
  8
0
100
AcDbLine
 10
266.1845496230148
 20
300.7238132994093
 30
0.0
 11
266.1845496230148
 21
353.9738132994096
 31
0.0
  0
LINE
  5
7A4
330
1F
100
AcDbEntity
  8
0
100
AcDbLine
 10
268.1845496230148
 20
300.7238132994093
 30
0.0
 11
268.1845496230148
 21
353.9738132994096
 31
0.0
  0
LINE
  5
7A5
330
1F
100
AcDbEntity
  8
0
100
AcDbLine
 10
273.1845496230149
 20
351.9738132994094
 30
0.0
 11
275.1845496230148
 21
351.9738132994094
 31
0.0
  0
LINE
  5
7A6
330
1F
100
AcDbEntity
  8
0
100
AcDbLine
 10
273.1845496230149
 20
181.9738132994094
 30
0.0
 11
273.1845496230149
 21
235.2238132994096
 31
0.0
  0
LINE
  5
7A7
330
1F
100
AcDbEntity
  8
0
100
AcDbLine
 10
275.1845496230148
 20
181.9738132994094
 30
0.0
 11
275.1845496230148
 21
235.2238132994096
 31
0.0
  0
LINE
  5
7A8
330
1F
100
AcDbEntity
  8
0
100
AcDbLine
 10
273.1845496230149
 20
300.7238132994093
 30
0.0
 11
275.1845496230148
 21
300.7238132994093
 31
0.0
  0
LINE
  5
7A9
330
1F
100
AcDbEntity
  8
0
100
AcDbLine
 10
273.1845496230149
 20
235.2238132994096
 30
0.0
 11
275.1845496230148
 21
235.2238132994096
 31
0.0
  0
LINE
  5
7AA
330
1F
100
AcDbEntity
  8
0
100
AcDbLine
 10
273.1845496230149
 20
183.9738132994104
 30
0.0
 11
275.1845496230148
 21
183.9738132994104
 31
0.0
  0
LINE
  5
7AB
330
1F
100
AcDbEntity
  8
0
100
AcDbLine
 10
273.1845496230149
 20
300.7238132994093
 30
0.0
 11
273.1845496230149
 21
353.9738132994096
 31
0.0
  0
LINE
  5
7AC
330
1F
100
AcDbEntity
  8
0
100
AcDbLine
 10
275.1845496230148
 20
300.7238132994093
 30
0.0
 11
275.1845496230148
 21
353.9738132994096
 31
0.0
  0
LINE
  5
7AD
330
1F
100
AcDbEntity
  8
0
100
AcDbLine
 10
280.1845496230149
 20
351.9738132994094
 30
0.0
 11
282.1845496230148
 21
351.9738132994094
 31
0.0
  0
LINE
  5
7AE
330
1F
100
AcDbEntity
  8
0
100
AcDbLine
 10
280.1845496230149
 20
181.9738132994094
 30
0.0
 11
280.1845496230149
 21
235.2238132994096
 31
0.0
  0
LINE
  5
7AF
330
1F
100
AcDbEntity
  8
0
100
AcDbLine
 10
282.1845496230148
 20
181.9738132994094
 30
0.0
 11
282.1845496230148
 21
235.2238132994096
 31
0.0
  0
LINE
  5
7B0
330
1F
100
AcDbEntity
  8
0
100
AcDbLine
 10
280.1845496230149
 20
300.7238132994093
 30
0.0
 11
282.1845496230148
 21
300.7238132994093
 31
0.0
  0
LINE
  5
7B1
330
1F
100
AcDbEntity
  8
0
100
AcDbLine
 10
280.1845496230149
 20
235.2238132994096
 30
0.0
 11
282.1845496230148
 21
235.2238132994096
 31
0.0
  0
LINE
  5
7B2
330
1F
100
AcDbEntity
  8
0
100
AcDbLine
 10
280.1845496230149
 20
183.9738132994104
 30
0.0
 11
282.1845496230148
 21
183.9738132994104
 31
0.0
  0
LINE
  5
7B3
330
1F
100
AcDbEntity
  8
0
100
AcDbLine
 10
280.1845496230149
 20
300.7238132994093
 30
0.0
 11
280.1845496230149
 21
353.9738132994096
 31
0.0
  0
LINE
  5
7B4
330
1F
100
AcDbEntity
  8
0
100
AcDbLine
 10
282.1845496230148
 20
300.7238132994093
 30
0.0
 11
282.1845496230148
 21
353.9738132994096
 31
0.0
  0
LINE
  5
7B5
330
1F
100
AcDbEntity
  8
0
100
AcDbLine
 10
287.1845496230148
 20
351.9738132994094
 30
0.0
 11
289.1845496230148
 21
351.9738132994094
 31
0.0
  0
LINE
  5
7B6
330
1F
100
AcDbEntity
  8
0
100
AcDbLine
 10
287.1845496230148
 20
181.9738132994094
 30
0.0
 11
287.1845496230148
 21
235.2238132994096
 31
0.0
  0
LINE
  5
7B7
330
1F
100
AcDbEntity
  8
0
100
AcDbLine
 10
289.1845496230148
 20
181.9738132994094
 30
0.0
 11
289.1845496230148
 21
235.2238132994096
 31
0.0
  0
LINE
  5
7B8
330
1F
100
AcDbEntity
  8
0
100
AcDbLine
 10
287.1845496230148
 20
300.7238132994093
 30
0.0
 11
289.1845496230148
 21
300.7238132994093
 31
0.0
  0
LINE
  5
7B9
330
1F
100
AcDbEntity
  8
0
100
AcDbLine
 10
287.1845496230148
 20
235.2238132994096
 30
0.0
 11
289.1845496230148
 21
235.2238132994096
 31
0.0
  0
LINE
  5
7BA
330
1F
100
AcDbEntity
  8
0
100
AcDbLine
 10
287.1845496230148
 20
183.9738132994104
 30
0.0
 11
289.1845496230148
 21
183.9738132994104
 31
0.0
  0
LINE
  5
7BB
330
1F
100
AcDbEntity
  8
0
100
AcDbLine
 10
287.1845496230148
 20
300.7238132994093
 30
0.0
 11
287.1845496230148
 21
353.9738132994096
 31
0.0
  0
LINE
  5
7BC
330
1F
100
AcDbEntity
  8
0
100
AcDbLine
 10
289.1845496230148
 20
300.7238132994093
 30
0.0
 11
289.1845496230148
 21
353.9738132994096
 31
0.0
  0
LINE
  5
7BD
330
1F
100
AcDbEntity
  8
0
100
AcDbLine
 10
294.1845496230148
 20
351.9738132994094
 30
0.0
 11
296.1845496230148
 21
351.9738132994094
 31
0.0
  0
LINE
  5
7BE
330
1F
100
AcDbEntity
  8
0
100
AcDbLine
 10
294.1845496230148
 20
181.9738132994094
 30
0.0
 11
294.1845496230148
 21
235.2238132994096
 31
0.0
  0
LINE
  5
7BF
330
1F
100
AcDbEntity
  8
0
100
AcDbLine
 10
296.1845496230148
 20
181.9738132994094
 30
0.0
 11
296.1845496230148
 21
235.2238132994096
 31
0.0
  0
LINE
  5
7C0
330
1F
100
AcDbEntity
  8
0
100
AcDbLine
 10
294.1845496230148
 20
300.7238132994093
 30
0.0
 11
296.1845496230148
 21
300.7238132994093
 31
0.0
  0
LINE
  5
7C1
330
1F
100
AcDbEntity
  8
0
100
AcDbLine
 10
294.1845496230148
 20
235.2238132994096
 30
0.0
 11
296.1845496230148
 21
235.2238132994096
 31
0.0
  0
LINE
  5
7C2
330
1F
100
AcDbEntity
  8
0
100
AcDbLine
 10
294.1845496230148
 20
183.9738132994104
 30
0.0
 11
296.1845496230148
 21
183.9738132994104
 31
0.0
  0
LINE
  5
7C3
330
1F
100
AcDbEntity
  8
0
100
AcDbLine
 10
294.1845496230148
 20
300.7238132994093
 30
0.0
 11
294.1845496230148
 21
353.9738132994096
 31
0.0
  0
LINE
  5
7C4
330
1F
100
AcDbEntity
  8
0
100
AcDbLine
 10
296.1845496230148
 20
300.7238132994093
 30
0.0
 11
296.1845496230148
 21
353.9738132994096
 31
0.0
  0
LINE
  5
7C5
330
1F
100
AcDbEntity
  8
0
100
AcDbLine
 10
301.1845496230148
 20
351.9738132994094
 30
0.0
 11
303.1845496230148
 21
351.9738132994094
 31
0.0
  0
LINE
  5
7C6
330
1F
100
AcDbEntity
  8
0
100
AcDbLine
 10
301.1845496230148
 20
181.9738132994094
 30
0.0
 11
301.1845496230148
 21
235.2238132994096
 31
0.0
  0
LINE
  5
7C7
330
1F
100
AcDbEntity
  8
0
100
AcDbLine
 10
303.1845496230148
 20
181.9738132994094
 30
0.0
 11
303.1845496230148
 21
235.2238132994096
 31
0.0
  0
LINE
  5
7C8
330
1F
100
AcDbEntity
  8
0
100
AcDbLine
 10
301.1845496230148
 20
300.7238132994093
 30
0.0
 11
303.1845496230148
 21
300.7238132994093
 31
0.0
  0
LINE
  5
7C9
330
1F
100
AcDbEntity
  8
0
100
AcDbLine
 10
301.1845496230148
 20
235.2238132994096
 30
0.0
 11
303.1845496230148
 21
235.2238132994096
 31
0.0
  0
LINE
  5
7CA
330
1F
100
AcDbEntity
  8
0
100
AcDbLine
 10
301.1845496230148
 20
183.9738132994104
 30
0.0
 11
303.1845496230148
 21
183.9738132994104
 31
0.0
  0
LINE
  5
7CB
330
1F
100
AcDbEntity
  8
0
100
AcDbLine
 10
301.1845496230148
 20
300.7238132994093
 30
0.0
 11
301.1845496230148
 21
353.9738132994096
 31
0.0
  0
LINE
  5
7CC
330
1F
100
AcDbEntity
  8
0
100
AcDbLine
 10
303.1845496230148
 20
300.7238132994093
 30
0.0
 11
303.1845496230148
 21
353.9738132994096
 31
0.0
  0
LINE
  5
7CD
330
1F
100
AcDbEntity
  8
0
100
AcDbLine
 10
231.1845496230148
 20
329.4738132994093
 30
0.0
 11
233.1845496230148
 21
329.4738132994093
 31
0.0
  0
LINE
  5
7CE
330
1F
100
AcDbEntity
  8
0
100
AcDbLine
 10
231.1845496230148
 20
326.4738132994096
 30
0.0
 11
233.1845496230148
 21
326.4738132994096
 31
0.0
  0
LINE
  5
7CF
330
1F
100
AcDbEntity
  8
0
100
AcDbLine
 10
231.1845496230148
 20
209.4738132994094
 30
0.0
 11
233.1845496230148
 21
209.4738132994094
 31
0.0
  0
LINE
  5
7D0
330
1F
100
AcDbEntity
  8
0
100
AcDbLine
 10
231.1845496230148
 20
206.4738132994094
 30
0.0
 11
233.1845496230148
 21
206.4738132994094
 31
0.0
  0
LINE
  5
7D1
330
1F
100
AcDbEntity
  8
0
100
AcDbLine
 10
238.1845496230148
 20
329.4738132994093
 30
0.0
 11
240.1845496230149
 21
329.4738132994093
 31
0.0
  0
LINE
  5
7D2
330
1F
100
AcDbEntity
  8
0
100
AcDbLine
 10
238.1845496230148
 20
326.4738132994096
 30
0.0
 11
240.1845496230149
 21
326.4738132994096
 31
0.0
  0
LINE
  5
7D3
330
1F
100
AcDbEntity
  8
0
100
AcDbLine
 10
238.1845496230148
 20
209.4738132994094
 30
0.0
 11
240.1845496230149
 21
209.4738132994094
 31
0.0
  0
LINE
  5
7D4
330
1F
100
AcDbEntity
  8
0
100
AcDbLine
 10
238.1845496230148
 20
206.4738132994094
 30
0.0
 11
240.1845496230149
 21
206.4738132994094
 31
0.0
  0
LINE
  5
7D5
330
1F
100
AcDbEntity
  8
0
100
AcDbLine
 10
245.1845496230149
 20
329.4738132994093
 30
0.0
 11
247.1845496230148
 21
329.4738132994093
 31
0.0
  0
LINE
  5
7D6
330
1F
100
AcDbEntity
  8
0
100
AcDbLine
 10
245.1845496230149
 20
326.4738132994096
 30
0.0
 11
247.1845496230148
 21
326.4738132994096
 31
0.0
  0
LINE
  5
7D7
330
1F
100
AcDbEntity
  8
0
100
AcDbLine
 10
245.1845496230149
 20
209.4738132994094
 30
0.0
 11
247.1845496230148
 21
209.4738132994094
 31
0.0
  0
LINE
  5
7D8
330
1F
100
AcDbEntity
  8
0
100
AcDbLine
 10
245.1845496230149
 20
206.4738132994094
 30
0.0
 11
247.1845496230148
 21
206.4738132994094
 31
0.0
  0
LINE
  5
7D9
330
1F
100
AcDbEntity
  8
0
100
AcDbLine
 10
252.1845496230148
 20
329.4738132994093
 30
0.0
 11
254.1845496230148
 21
329.4738132994093
 31
0.0
  0
LINE
  5
7DA
330
1F
100
AcDbEntity
  8
0
100
AcDbLine
 10
252.1845496230148
 20
326.4738132994096
 30
0.0
 11
254.1845496230148
 21
326.4738132994096
 31
0.0
  0
LINE
  5
7DB
330
1F
100
AcDbEntity
  8
0
100
AcDbLine
 10
252.1845496230148
 20
209.4738132994094
 30
0.0
 11
254.1845496230148
 21
209.4738132994094
 31
0.0
  0
LINE
  5
7DC
330
1F
100
AcDbEntity
  8
0
100
AcDbLine
 10
252.1845496230148
 20
206.4738132994094
 30
0.0
 11
254.1845496230148
 21
206.4738132994094
 31
0.0
  0
LINE
  5
7DD
330
1F
100
AcDbEntity
  8
0
100
AcDbLine
 10
259.1845496230148
 20
329.4738132994093
 30
0.0
 11
261.1845496230149
 21
329.4738132994093
 31
0.0
  0
LINE
  5
7DE
330
1F
100
AcDbEntity
  8
0
100
AcDbLine
 10
259.1845496230148
 20
326.4738132994096
 30
0.0
 11
261.1845496230149
 21
326.4738132994096
 31
0.0
  0
LINE
  5
7DF
330
1F
100
AcDbEntity
  8
0
100
AcDbLine
 10
259.1845496230148
 20
209.4738132994094
 30
0.0
 11
261.1845496230149
 21
209.4738132994094
 31
0.0
  0
LINE
  5
7E0
330
1F
100
AcDbEntity
  8
0
100
AcDbLine
 10
259.1845496230148
 20
206.4738132994094
 30
0.0
 11
261.1845496230149
 21
206.4738132994094
 31
0.0
  0
LINE
  5
7E1
330
1F
100
AcDbEntity
  8
0
100
AcDbLine
 10
266.1845496230148
 20
329.4738132994093
 30
0.0
 11
268.1845496230148
 21
329.4738132994093
 31
0.0
  0
LINE
  5
7E2
330
1F
100
AcDbEntity
  8
0
100
AcDbLine
 10
266.1845496230148
 20
326.4738132994096
 30
0.0
 11
268.1845496230148
 21
326.4738132994096
 31
0.0
  0
LINE
  5
7E3
330
1F
100
AcDbEntity
  8
0
100
AcDbLine
 10
266.1845496230148
 20
209.4738132994094
 30
0.0
 11
268.1845496230148
 21
209.4738132994094
 31
0.0
  0
LINE
  5
7E4
330
1F
100
AcDbEntity
  8
0
100
AcDbLine
 10
266.1845496230148
 20
206.4738132994094
 30
0.0
 11
268.1845496230148
 21
206.4738132994094
 31
0.0
  0
LINE
  5
7E5
330
1F
100
AcDbEntity
  8
0
100
AcDbLine
 10
273.1845496230149
 20
329.4738132994093
 30
0.0
 11
275.1845496230148
 21
329.4738132994093
 31
0.0
  0
LINE
  5
7E6
330
1F
100
AcDbEntity
  8
0
100
AcDbLine
 10
273.1845496230149
 20
326.4738132994096
 30
0.0
 11
275.1845496230148
 21
326.4738132994096
 31
0.0
  0
LINE
  5
7E7
330
1F
100
AcDbEntity
  8
0
100
AcDbLine
 10
273.1845496230149
 20
209.4738132994094
 30
0.0
 11
275.1845496230148
 21
209.4738132994094
 31
0.0
  0
LINE
  5
7E8
330
1F
100
AcDbEntity
  8
0
100
AcDbLine
 10
273.1845496230149
 20
206.4738132994094
 30
0.0
 11
275.1845496230148
 21
206.4738132994094
 31
0.0
  0
LINE
  5
7E9
330
1F
100
AcDbEntity
  8
0
100
AcDbLine
 10
280.1845496230149
 20
329.4738132994093
 30
0.0
 11
282.1845496230148
 21
329.4738132994093
 31
0.0
  0
LINE
  5
7EA
330
1F
100
AcDbEntity
  8
0
100
AcDbLine
 10
280.1845496230149
 20
326.4738132994096
 30
0.0
 11
282.1845496230148
 21
326.4738132994096
 31
0.0
  0
LINE
  5
7EB
330
1F
100
AcDbEntity
  8
0
100
AcDbLine
 10
280.1845496230149
 20
209.4738132994094
 30
0.0
 11
282.1845496230148
 21
209.4738132994094
 31
0.0
  0
LINE
  5
7EC
330
1F
100
AcDbEntity
  8
0
100
AcDbLine
 10
280.1845496230149
 20
206.4738132994094
 30
0.0
 11
282.1845496230148
 21
206.4738132994094
 31
0.0
  0
LINE
  5
7ED
330
1F
100
AcDbEntity
  8
0
100
AcDbLine
 10
287.1845496230148
 20
329.4738132994093
 30
0.0
 11
289.1845496230148
 21
329.4738132994093
 31
0.0
  0
LINE
  5
7EE
330
1F
100
AcDbEntity
  8
0
100
AcDbLine
 10
287.1845496230148
 20
326.4738132994096
 30
0.0
 11
289.1845496230148
 21
326.4738132994096
 31
0.0
  0
LINE
  5
7EF
330
1F
100
AcDbEntity
  8
0
100
AcDbLine
 10
287.1845496230148
 20
209.4738132994094
 30
0.0
 11
289.1845496230148
 21
209.4738132994094
 31
0.0
  0
LINE
  5
7F0
330
1F
100
AcDbEntity
  8
0
100
AcDbLine
 10
287.1845496230148
 20
206.4738132994094
 30
0.0
 11
289.1845496230148
 21
206.4738132994094
 31
0.0
  0
LINE
  5
7F1
330
1F
100
AcDbEntity
  8
0
100
AcDbLine
 10
294.1845496230148
 20
329.4738132994093
 30
0.0
 11
296.1845496230148
 21
329.4738132994093
 31
0.0
  0
LINE
  5
7F2
330
1F
100
AcDbEntity
  8
0
100
AcDbLine
 10
294.1845496230148
 20
326.4738132994096
 30
0.0
 11
296.1845496230148
 21
326.4738132994096
 31
0.0
  0
LINE
  5
7F3
330
1F
100
AcDbEntity
  8
0
100
AcDbLine
 10
294.1845496230148
 20
209.4738132994094
 30
0.0
 11
296.1845496230148
 21
209.4738132994094
 31
0.0
  0
LINE
  5
7F4
330
1F
100
AcDbEntity
  8
0
100
AcDbLine
 10
294.1845496230148
 20
206.4738132994094
 30
0.0
 11
296.1845496230148
 21
206.4738132994094
 31
0.0
  0
LINE
  5
7F5
330
1F
100
AcDbEntity
  8
0
100
AcDbLine
 10
301.1845496230148
 20
329.4738132994093
 30
0.0
 11
303.1845496230148
 21
329.4738132994093
 31
0.0
  0
LINE
  5
7F6
330
1F
100
AcDbEntity
  8
0
100
AcDbLine
 10
301.1845496230148
 20
326.4738132994096
 30
0.0
 11
303.1845496230148
 21
326.4738132994096
 31
0.0
  0
LINE
  5
7F7
330
1F
100
AcDbEntity
  8
0
100
AcDbLine
 10
301.1845496230148
 20
209.4738132994094
 30
0.0
 11
303.1845496230148
 21
209.4738132994094
 31
0.0
  0
LINE
  5
7F8
330
1F
100
AcDbEntity
  8
0
100
AcDbLine
 10
301.1845496230148
 20
206.4738132994094
 30
0.0
 11
303.1845496230148
 21
206.4738132994094
 31
0.0
  0
LINE
  5
7F9
330
1F
100
AcDbEntity
  8
0
100
AcDbLine
 10
281.1845496230148
 20
181.9738132994094
 30
0.0
 11
281.1845496230139
 21
181.4738132994094
 31
0.0
  0
LINE
  5
7FA
330
1F
100
AcDbEntity
  8
0
100
AcDbLine
 10
226.1845496230148
 20
181.4738132994094
 30
0.0
 11
281.1845496230148
 21
181.4738132994094
 31
0.0
  0
LINE
  5
7FB
330
1F
100
AcDbEntity
  8
0
100
AcDbLine
 10
326.5724034661818
 20
180.9738132994094
 30
0.0
 11
326.5724034661828
 21
354.9738132994094
 31
0.0
  0
LINE
  5
7FC
330
1F
100
AcDbEntity
  8
0
100
AcDbLine
 10
205.7845496230151
 20
221.6738140330994
 30
0.0
 11
205.7845496230151
 21
201.4738140331003
 31
0.0
  0
LINE
  5
7FD
330
1F
100
AcDbEntity
  8
0
100
AcDbLine
 10
206.6845496230149
 20
197.9738140330994
 30
0.0
 11
206.1845496230148
 21
198.4738140331003
 31
0.0
  0
LINE
  5
7FE
330
1F
100
AcDbEntity
  8
0
100
AcDbLine
 10
206.1845496230148
 20
199.3738140331003
 30
0.0
 11
206.1845496230148
 21
198.4738140331003
 31
0.0
  0
LINE
  5
7FF
330
1F
100
AcDbEntity
  8
0
100
AcDbLine
 10
207.4845496230151
 20
197.9738140330994
 30
0.0
 11
206.6845496230149
 21
197.9738140330994
 31
0.0
  0
ARC
  5
800
330
1F
100
AcDbEntity
  8
0
100
AcDbCircle
 10
207.184549623015
 20
199.3738140331003
 30
0.0
 40
1.0
100
AcDbArc
 50
90.0
 51
180.0
  0
LINE
  5
801
330
1F
100
AcDbEntity
  8
0
100
AcDbLine
 10
209.1845496230148
 20
200.3738140331003
 30
0.0
 11
207.184549623015
 21
200.3738140331003
 31
0.0
  0
LINE
  5
802
330
1F
100
AcDbEntity
  8
0
100
AcDbLine
 10
209.1845496230148
 20
199.1738140330994
 30
0.0
 11
207.4845496230151
 21
199.1738140330994
 31
0.0
  0
LINE
  5
803
330
1F
100
AcDbEntity
  8
0
100
AcDbLine
 10
209.1845496230148
 20
201.4738140331003
 30
0.0
 11
205.7845496230151
 21
201.4738140331003
 31
0.0
  0
LINE
  5
804
330
1F
100
AcDbEntity
  8
0
100
AcDbLine
 10
207.4845496230151
 20
197.9738140330994
 30
0.0
 11
207.4845496230151
 21
199.1738140330994
 31
0.0
  0
LINE
  5
805
330
1F
100
AcDbEntity
  8
0
100
AcDbLine
 10
206.6845496230153
 20
225.1738140331003
 30
0.0
 11
206.1845496230152
 21
224.6738140330994
 31
0.0
  0
LINE
  5
806
330
1F
100
AcDbEntity
  8
0
100
AcDbLine
 10
206.1845496230152
 20
224.6738140330994
 30
0.0
 11
206.1845496230152
 21
223.7738140331003
 31
0.0
  0
LINE
  5
807
330
1F
100
AcDbEntity
  8
0
100
AcDbLine
 10
207.4845496230151
 20
225.1738140331003
 30
0.0
 11
206.6845496230153
 21
225.1738140331003
 31
0.0
  0
ARC
  5
808
330
1F
100
AcDbEntity
  8
0
100
AcDbCircle
 10
207.184549623015
 20
223.7738140331003
 30
0.0
 40
1.0
100
AcDbArc
 50
180.0
 51
270.0
  0
LINE
  5
809
330
1F
100
AcDbEntity
  8
0
100
AcDbLine
 10
209.1845496230148
 20
222.7738140331001
 30
0.0
 11
207.184549623015
 21
222.7738140331001
 31
0.0
  0
LINE
  5
80A
330
1F
100
AcDbEntity
  8
0
100
AcDbLine
 10
205.7845496230151
 20
221.6738140330994
 30
0.0
 11
209.1845496230148
 21
221.6738140330994
 31
0.0
  0
LINE
  5
80B
330
1F
100
AcDbEntity
  8
0
100
AcDbLine
 10
209.1845496230148
 20
223.9738140330994
 30
0.0
 11
207.4845496230149
 21
223.9738140330994
 31
0.0
  0
LINE
  5
80C
330
1F
100
AcDbEntity
  8
0
100
AcDbLine
 10
207.4845496230151
 20
223.9738140330994
 30
0.0
 11
207.4845496230151
 21
225.1738140331003
 31
0.0
  0
LINE
  5
80D
330
1F
100
AcDbEntity
  8
0
100
AcDbLine
 10
209.1845496230148
 20
185.9738140331003
 30
0.0
 11
206.6845496230146
 21
185.9738140331003
 31
0.0
  0
LINE
  5
80E
330
1F
100
AcDbEntity
  8
0
100
AcDbLine
 10
206.6845496230146
 20
185.9738140331003
 30
0.0
 11
206.6845496230146
 21
191.4738140330994
 31
0.0
  0
LINE
  5
80F
330
1F
100
AcDbEntity
  8
0
100
AcDbLine
 10
206.6845496230146
 20
191.4738140330994
 30
0.0
 11
209.1845496230148
 21
191.4738140330994
 31
0.0
  0
LINE
  5
810
330
1F
100
AcDbEntity
  8
0
100
AcDbLine
 10
209.1845496230148
 20
226.6138132994103
 30
0.0
 11
208.1845496230148
 21
226.6138132994103
 31
0.0
  0
LINE
  5
811
330
1F
100
AcDbEntity
  8
0
100
AcDbLine
 10
208.1845496230148
 20
226.6138132994103
 30
0.0
 11
208.1845496230148
 21
223.9738140330994
 31
0.0
  0
LINE
  5
812
330
1F
100
AcDbEntity
  8
0
100
AcDbLine
 10
203.8845496230149
 20
235.8138132994094
 30
0.0
 11
203.8845496230149
 21
264.2738132994103
 31
0.0
  0
LINE
  5
813
330
1F
100
AcDbEntity
  8
0
100
AcDbLine
 10
203.8845496230149
 20
239.9238132994105
 30
0.0
 11
208.1845496230148
 21
239.9238132994105
 31
0.0
  0
LINE
  5
814
330
1F
100
AcDbEntity
  8
0
100
AcDbLine
 10
208.1845496230148
 20
235.8138132994094
 30
0.0
 11
203.8845496230149
 21
235.8138132994094
 31
0.0
  0
LINE
  5
815
330
1F
100
AcDbEntity
  8
0
100
AcDbLine
 10
203.8845496230149
 20
260.1638132994096
 30
0.0
 11
209.1845496230148
 21
260.1638132994096
 31
0.0
  0
LINE
  5
816
330
1F
100
AcDbEntity
  8
0
100
AcDbLine
 10
203.8845496230149
 20
255.1638132994096
 30
0.0
 11
209.1845496230148
 21
255.1638132994096
 31
0.0
  0
LINE
  5
817
330
1F
100
AcDbEntity
  8
0
100
AcDbLine
 10
203.8845496230149
 20
247.5438132994104
 30
0.0
 11
209.1845496230148
 21
247.5438132994104
 31
0.0
  0
LINE
  5
818
330
1F
100
AcDbEntity
  8
0
100
AcDbLine
 10
203.8845496230149
 20
252.5438132994104
 30
0.0
 11
209.1845496230148
 21
252.5438132994104
 31
0.0
  0
LINE
  5
819
330
1F
100
AcDbEntity
  8
0
100
AcDbLine
 10
203.8845496230149
 20
244.9238132994095
 30
0.0
 11
208.3845496230149
 21
244.9238132994095
 31
0.0
  0
LINE
  5
81A
330
1F
100
AcDbEntity
  8
0
100
AcDbLine
 10
208.3845496230149
 20
264.2738132994103
 30
0.0
 11
203.8845496230149
 21
264.2738132994103
 31
0.0
  0
LINE
  5
81B
330
1F
100
AcDbEntity
  8
0
100
AcDbLine
 10
252.1845496230148
 20
351.9738132994094
 30
0.0
 11
254.1845496230148
 21
351.9738132994094
 31
0.0
  0
LINE
  5
81C
330
1F
100
AcDbEntity
  8
0
100
AcDbLine
 10
325.1845496230139
 20
354.9738132994094
 30
0.0
 11
325.1845496230139
 21
364.9738132994094
 31
0.0
  0
LINE
  5
81D
330
1F
100
AcDbEntity
  8
0
100
AcDbLine
 10
209.1845496230148
 20
180.9738132994094
 30
0.0
 11
326.5724034661828
 21
180.9738132994094
 31
0.0
  0
LINE
  5
825
330
1F
100
AcDbEntity
  8
0
100
AcDbLine
 10
208.1845496230148
 20
222.7738140331001
 30
0.0
 11
208.1845496230148
 21
221.6738140330994
 31
0.0
  0
LINE
  5
826
330
1F
100
AcDbEntity
  8
0
100
AcDbLine
 10
208.1845496230148
 20
201.4738140331003
 30
0.0
 11
208.1845496230148
 21
200.3738140331003
 31
0.0
  0
LINE
  5
827
330
1F
100
AcDbEntity
  8
0
100
AcDbLine
 10
208.1845496230148
 20
199.1738140330994
 30
0.0
 11
208.1845496230148
 21
191.4738140330994
 31
0.0
  0
LINE
  5
828
330
1F
100
AcDbEntity
  8
0
100
AcDbLine
 10
209.1845496230148
 20
322.4138132994096
 30
0.0
 11
208.1801876821638
 21
322.4138132994096
 31
0.0
  0
LINE
  5
829
330
1F
100
AcDbEntity
  8
0
100
AcDbLine
 10
209.1845496230148
 20
233.1738140331003
 30
0.0
 11
208.1845496230148
 21
233.1738140331003
 31
0.0
  0
LINE
  5
82A
330
1F
100
AcDbEntity
  8
0
100
AcDbLine
 10
208.1845496230148
 20
233.1738140331003
 30
0.0
 11
208.1845496230148
 21
241.5738140331002
 31
0.0
  0
LINE
  5
82B
330
1F
100
AcDbEntity
  8
0
100
AcDbLine
 10
208.1845496230148
 20
241.5738140331002
 30
0.0
 11
209.1845496230148
 21
241.5738140331002
 31
0.0
  0
LINE
  5
82C
330
1F
100
AcDbEntity
  8
0
100
AcDbLine
 10
209.1845496230148
 20
243.0738140331002
 30
0.0
 11
208.3845496230149
 21
243.0738140331002
 31
0.0
  0
LINE
  5
82D
330
1F
100
AcDbEntity
  8
0
100
AcDbLine
 10
208.3845496230149
 20
243.0738140331002
 30
0.0
 11
208.3845496230149
 21
246.0738140331002
 31
0.0
  0
LINE
  5
82E
330
1F
100
AcDbEntity
  8
0
100
AcDbLine
 10
208.3845496230149
 20
246.0738140331002
 30
0.0
 11
209.1845496230148
 21
246.0738140331002
 31
0.0
  0
LINE
  5
82F
330
1F
100
AcDbEntity
  8
0
100
AcDbLine
 10
209.1845496230148
 20
263.0738140330993
 30
0.0
 11
208.3845496230149
 21
263.0738140330993
 31
0.0
  0
LINE
  5
830
330
1F
100
AcDbEntity
  8
0
100
AcDbLine
 10
208.3845496230149
 20
263.0738140330993
 30
0.0
 11
208.3845496230149
 21
266.0738140330999
 31
0.0
  0
LINE
  5
831
330
1F
100
AcDbEntity
  8
0
100
AcDbLine
 10
208.3845496230149
 20
266.0738140330999
 30
0.0
 11
209.1845496230148
 21
266.0738140330999
 31
0.0
  0
LINE
  5
832
330
1F
100
AcDbEntity
  8
0
  6
CONTINUOUS
100
AcDbLine
 10
208.1801876821638
 20
322.4138132994096
 30
0.0
 11
208.1801876821638
 21
308.5288135366003
 31
0.0
  0
LINE
  5
931
330
1F
100
AcDbEntity
  8
0
100
AcDbLine
 10
55.18454962301497
 20
4.999999220979246
 30
0.0
 11
109.1845496230149
 21
3.58595945624222
 31
0.0
  0
LINE
  5
932
330
1F
100
AcDbEntity
  8
0
100
AcDbLine
 10
109.1845496230149
 20
3.58595945624222
 30
0.0
 11
56.18454962301496
 21
4.973813299410261
 31
0.0
  0
LINE
  5
934
330
1F
100
AcDbEntity
  8
0
100
AcDbLine
 10
67.18454962301496
 20
21.97381329941025
 30
0.0
 11
109.1845496230149
 21
21.97381329941025
 31
0.0
  0
LINE
  5
935
330
1F
100
AcDbEntity
  8
0
100
AcDbLine
 10
108.1845496230149
 20
42.97381329941027
 30
0.0
 11
67.18454962301496
 21
42.97381329941027
 31
0.0
  0
LINE
  5
936
330
1F
100
AcDbEntity
  8
0
100
AcDbLine
 10
108.1845496230149
 20
40.97381329941025
 30
0.0
 11
67.18454962301496
 21
40.97381329941025
 31
0.0
  0
LINE
  5
937
330
1F
100
AcDbEntity
  8
0
100
AcDbLine
 10
108.1845496230149
 20
35.97381329941024
 30
0.0
 11
67.18454962301496
 21
35.97381329941024
 31
0.0
  0
LINE
  5
938
330
1F
100
AcDbEntity
  8
0
100
AcDbLine
 10
108.1845496230149
 20
33.97381329941026
 30
0.0
 11
67.18454962301496
 21
33.97381329941026
 31
0.0
  0
LINE
  5
939
330
1F
100
AcDbEntity
  8
0
100
AcDbLine
 10
108.1845496230149
 20
28.97381329941026
 30
0.0
 11
67.18454962301496
 21
28.97381329941026
 31
0.0
  0
LINE
  5
93A
330
1F
100
AcDbEntity
  8
0
100
AcDbLine
 10
108.1845496230149
 20
26.97381329941026
 30
0.0
 11
67.18454962301496
 21
26.97381329941026
 31
0.0
  0
LINE
  5
93B
330
1F
100
AcDbEntity
  8
0
100
AcDbLine
 10
57.18454962301496
 20
120.9738132994102
 30
0.0
 11
109.1845496230149
 21
120.9738132994102
 31
0.0
  0
LINE
  5
93D
330
1F
100
AcDbEntity
  8
0
100
AcDbLine
 10
37.18454962301496
 20
-0.0000007790207377
 30
0.0
 11
109.1845496230149
 21
-0.000000779020752
 31
0.0
  0
LINE
  5
93E
330
1F
100
AcDbEntity
  8
0
100
AcDbLine
 10
37.18454962301496
 20
78.99999922097926
 30
0.0
 11
37.18454962301496
 21
53.99999922097926
 31
0.0
  0
LINE
  5
940
330
1F
100
AcDbEntity
  8
0
100
AcDbLine
 10
56.18454962301496
 20
70.99999922097925
 30
0.0
 11
56.18454962301496
 21
32.99999922097923
 31
0.0
  0
LINE
  5
941
330
1F
100
AcDbEntity
  8
0
100
AcDbLine
 10
57.18454962301496
 20
32.97381329941123
 30
0.0
 11
57.18454962301496
 21
70.97381329941026
 31
0.0
  0
LINE
  5
942
330
1F
100
AcDbEntity
  8
0
100
AcDbLine
 10
67.18454962301496
 20
103.97381329941
 30
0.0
 11
67.18454962301496
 21
21.97381329941025
 31
0.0
  0
ARC
  5
943
330
1F
100
AcDbEntity
  8
0
100
AcDbCircle
 10
38.18454962301496
 20
56.0515399939312
 30
0.0
 40
1.0
100
AcDbArc
 50
93.03047684586102
 51
180.0
  0
LINE
  5
944
330
1F
100
AcDbEntity
  8
0
100
AcDbLine
 10
55.18454962301497
 20
4.999999220979246
 30
0.0
 11
37.18454962301496
 21
4.528652632733282
 31
0.0
  0
LINE
  5
945
330
1F
100
AcDbEntity
  8
0
100
AcDbLine
 10
37.18454962301496
 20
21.17551693762128
 30
0.0
 11
37.18454962301496
 21
-0.0000007790207377
 31
0.0
  0
LINE
  5
946
330
1F
100
AcDbEntity
  8
0
100
AcDbLine
 10
37.33099623242162
 20
53.64644583038597
 30
0.0
 11
41.18454962301496
 21
51.99999922097926
 31
0.0
  0
LINE
  5
947
330
1F
100
AcDbEntity
  8
0
100
AcDbLine
 10
37.65838164489388
 20
21.6748317049993
 30
0.0
 11
48.76305355737997
 21
22.25680289959927
 31
0.0
  0
LINE
  5
948
330
1F
100
AcDbEntity
  8
0
100
AcDbLine
 10
38.13168248187492
 20
29.0501415488003
 30
0.0
 11
48.76385033472604
 21
29.61302102336322
 31
0.0
  0
LINE
  5
949
330
1F
100
AcDbEntity
  8
0
100
AcDbLine
 10
38.13168248187492
 20
26.9498568931573
 30
0.0
 11
48.76385033472604
 21
26.38697741859423
 31
0.0
  0
LINE
  5
94A
330
1F
100
AcDbEntity
  8
0
100
AcDbLine
 10
38.13168248187492
 20
54.94985689315729
 30
0.0
 11
48.76385033472604
 21
54.38697741859424
 31
0.0
  0
LINE
  5
94B
330
1F
100
AcDbEntity
  8
0
100
AcDbLine
 10
38.13168248187492
 20
50.05014154880027
 30
0.0
 11
48.76385033472604
 21
50.61302102336322
 31
0.0
  0
LINE
  5
94C
330
1F
100
AcDbEntity
  8
0
100
AcDbLine
 10
38.13168248187492
 20
47.94985689315729
 30
0.0
 11
48.76385033472604
 21
47.38697741859424
 31
0.0
  0
LINE
  5
94D
330
1F
100
AcDbEntity
  8
0
100
AcDbLine
 10
38.13168248187492
 20
43.05014154880027
 30
0.0
 11
48.76385033472604
 21
43.6130210233632
 31
0.0
  0
LINE
  5
94E
330
1F
100
AcDbEntity
  8
0
100
AcDbLine
 10
38.13168248187492
 20
40.9498568931573
 30
0.0
 11
48.76385033472604
 21
40.38697741859425
 31
0.0
  0
LINE
  5
94F
330
1F
100
AcDbEntity
  8
0
100
AcDbLine
 10
38.13168248187492
 20
36.05014154880028
 30
0.0
 11
48.76385033472604
 21
36.61302102336321
 31
0.0
  0
LINE
  5
950
330
1F
100
AcDbEntity
  8
0
100
AcDbLine
 10
38.13168248187492
 20
33.9498568931573
 30
0.0
 11
48.76385033472604
 21
33.38697741859425
 31
0.0
  0
POINT
  5
951
330
1F
100
AcDbEntity
  8
0
100
AcDbPoint
 10
37.18454962301496
 20
21.64999922097923
 30
0.0
  0
ARC
  5
952
330
1F
100
AcDbEntity
  8
0
100
AcDbCircle
 10
37.68454962301496
 20
21.17551693762128
 30
0.0
 40
0.5
100
AcDbArc
 50
92.9999999999991
 51
180.0
  0
LINE
  5
953
330
1F
100
AcDbEntity
  8
0
100
AcDbLine
 10
37.18454962301496
 20
28.05153999393121
 30
0.0
 11
37.18454962301496
 21
27.94845844802627
 31
0.0
  0
ARC
  5
954
330
1F
100
AcDbEntity
  8
0
100
AcDbCircle
 10
38.18454962301496
 20
28.05153999393121
 30
0.0
 40
1.0
100
AcDbArc
 50
93.03047684586102
 51
180.0
  0
ARC
  5
955
330
1F
100
AcDbEntity
  8
0
100
AcDbCircle
 10
38.18454962301496
 20
27.94845844802627
 30
0.0
 40
1.0
100
AcDbArc
 50
180.0
 51
266.9695231541389
  0
LINE
  5
956
330
1F
100
AcDbEntity
  8
0
100
AcDbLine
 10
37.18454962301496
 20
35.05153999393121
 30
0.0
 11
37.18454962301496
 21
34.94845844802624
 31
0.0
  0
ARC
  5
957
330
1F
100
AcDbEntity
  8
0
100
AcDbCircle
 10
38.18454962301496
 20
35.05153999393121
 30
0.0
 40
1.0
100
AcDbArc
 50
93.03047684586102
 51
180.0
  0
ARC
  5
958
330
1F
100
AcDbEntity
  8
0
100
AcDbCircle
 10
38.18454962301496
 20
34.94845844802625
 30
0.0
 40
1.0
100
AcDbArc
 50
180.0
 51
266.9695231541389
  0
ARC
  5
959
330
1F
100
AcDbEntity
  8
0
100
AcDbCircle
 10
37.68454962301496
 20
53.99999922097926
 30
0.0
 40
0.5
100
AcDbArc
 50
180.0
 51
224.9999999999904
  0
LINE
  5
95A
330
1F
100
AcDbEntity
  8
0
100
AcDbLine
 10
37.18454962301496
 20
42.05153999393121
 30
0.0
 11
37.18454962301496
 21
41.94845844802624
 31
0.0
  0
ARC
  5
95B
330
1F
100
AcDbEntity
  8
0
100
AcDbCircle
 10
38.18454962301496
 20
42.05153999393121
 30
0.0
 40
1.0
100
AcDbArc
 50
93.03047684586102
 51
180.0
  0
ARC
  5
95C
330
1F
100
AcDbEntity
  8
0
100
AcDbCircle
 10
38.18454962301496
 20
41.94845844802624
 30
0.0
 40
1.0
100
AcDbArc
 50
180.0
 51
266.9695231541389
  0
LINE
  5
95D
330
1F
100
AcDbEntity
  8
0
100
AcDbLine
 10
37.18454962301496
 20
56.0515399939312
 30
0.0
 11
37.18454962301496
 21
55.94845844802627
 31
0.0
  0
ARC
  5
95E
330
1F
100
AcDbEntity
  8
0
100
AcDbCircle
 10
38.18454962301496
 20
55.94845844802627
 30
0.0
 40
1.0
100
AcDbArc
 50
180.0
 51
266.9695231541389
  0
LINE
  5
95F
330
1F
100
AcDbEntity
  8
0
100
AcDbLine
 10
37.18454962301496
 20
49.05153999393121
 30
0.0
 11
37.18454962301496
 21
48.94845844802627
 31
0.0
  0
ARC
  5
960
330
1F
100
AcDbEntity
  8
0
100
AcDbCircle
 10
38.18454962301496
 20
49.05153999393121
 30
0.0
 40
1.0
100
AcDbArc
 50
93.03047684586102
 51
180.0
  0
ARC
  5
961
330
1F
100
AcDbEntity
  8
0
100
AcDbCircle
 10
38.18454962301496
 20
48.94845844802627
 30
0.0
 40
1.0
100
AcDbArc
 50
180.0
 51
266.9695231541389
  0
ARC
  5
962
330
1F
100
AcDbEntity
  8
0
100
AcDbCircle
 10
48.68454962301496
 20
38.11092335566732
 30
0.0
 40
1.5
100
AcDbArc
 50
273.030476845861
 51
0.0
  0
LINE
  5
963
330
1F
100
AcDbEntity
  8
0
100
AcDbLine
 10
50.18454962301497
 20
31.88907508629029
 30
0.0
 11
50.18454962301497
 21
31.11092335566729
 31
0.0
  0
ARC
  5
964
330
1F
100
AcDbEntity
  8
0
100
AcDbCircle
 10
48.68454962301496
 20
31.11092335566729
 30
0.0
 40
1.5
100
AcDbArc
 50
273.030476845861
 51
0.0
  0
LINE
  5
965
330
1F
100
AcDbEntity
  8
0
100
AcDbLine
 10
50.18454962301497
 20
24.88907508629028
 30
0.0
 11
50.18454962301497
 21
23.75474720173121
 31
0.0
  0
ARC
  5
966
330
1F
100
AcDbEntity
  8
0
100
AcDbCircle
 10
48.68454962301496
 20
24.8890750862903
 30
0.0
 40
1.5
100
AcDbArc
 50
0.0
 51
86.96952315413893
  0
ARC
  5
967
330
1F
100
AcDbEntity
  8
0
100
AcDbCircle
 10
48.68454962301496
 20
23.75474720173122
 30
0.0
 40
1.5
100
AcDbArc
 50
273.0000000000056
 51
0.0
  0
ARC
  5
968
330
1F
100
AcDbEntity
  8
0
100
AcDbCircle
 10
48.68454962301496
 20
31.8890750862903
 30
0.0
 40
1.5
100
AcDbArc
 50
0.0
 51
86.96952315413893
  0
LINE
  5
969
330
1F
100
AcDbEntity
  8
0
  6
CONTINUOUS
100
AcDbLine
 10
43.18454962301497
 20
46.49999922097925
 30
0.0
 11
50.05450279800106
 21
46.49999922097925
 31
0.0
  0
LINE
  5
96A
330
1F
100
AcDbEntity
  8
0
  6
CONTINUOUS
100
AcDbLine
 10
41.18454962301484
 20
54.78823451509685
 30
0.0
 11
41.18454962301496
 21
53.99999922097926
 31
0.0
  0
LINE
  5
96B
330
1F
100
AcDbEntity
  8
0
  6
CONTINUOUS
100
AcDbLine
 10
43.18454962301497
 20
54.6823521621556
 30
0.0
 11
43.18454962301497
 21
50.31764627980193
 31
0.0
  0
LINE
  5
96C
330
1F
100
AcDbEntity
  8
0
100
AcDbLine
 10
39.18454962301495
 20
54.89411686803808
 30
0.0
 11
39.18454962301495
 21
54.85450748518339
 31
0.0
  0
LINE
  5
96D
330
1F
100
AcDbEntity
  8
0
100
AcDbLine
 10
41.18454962301496
 20
47.78823451509685
 30
0.0
 11
41.18454962301496
 21
46.99999922097926
 31
0.0
  0
LINE
  5
96E
330
1F
100
AcDbEntity
  8
0
100
AcDbLine
 10
43.18454962301497
 20
50.31764627980193
 30
0.0
 11
43.18454962301497
 21
53.99999922097926
 31
0.0
  0
LINE
  5
96F
330
1F
100
AcDbEntity
  8
0
  6
CONTINUOUS
100
AcDbLine
 10
43.18454962301497
 20
47.6823521621556
 30
0.0
 11
43.18454962301497
 21
46.49999922097925
 31
0.0
  0
LINE
  5
970
330
1F
100
AcDbEntity
  8
0
100
AcDbLine
 10
39.18454962301495
 20
52.85450748518332
 30
0.0
 11
39.18454962301495
 21
51.99999922097926
 31
0.0
  0
LINE
  5
971
330
1F
100
AcDbEntity
  8
0
100
AcDbLine
 10
39.18454962301495
 20
54.85450748518339
 30
0.0
 11
41.18454962301496
 21
53.99999922097926
 31
0.0
  0
LINE
  5
972
330
1F
100
AcDbEntity
  8
0
100
AcDbLine
 10
39.18454962301495
 20
54.85450748518332
 30
0.0
 11
39.18454962301495
 21
54.89411686803808
 31
0.0
  0
ARC
  5
973
330
1F
100
AcDbEntity
  8
0
100
AcDbCircle
 10
39.68454962301496
 20
51.99999922097926
 30
0.0
 40
0.5
100
AcDbArc
 50
180.0
 51
270.0
  0
ARC
  5
974
330
1F
100
AcDbEntity
  8
0
100
AcDbCircle
 10
40.68454962301496
 20
51.99999922097926
 30
0.0
 40
0.5
100
AcDbArc
 50
270.0
 51
0.0
  0
LINE
  5
975
330
1F
100
AcDbEntity
  8
0
100
AcDbLine
 10
39.68454962301496
 20
51.49999922097926
 30
0.0
 11
40.68454962301496
 21
51.49999922097926
 31
0.0
  0
ARC
  5
976
330
1F
100
AcDbEntity
  8
0
100
AcDbCircle
 10
41.68454962301495
 20
46.99999922097926
 30
0.0
 40
0.5
100
AcDbArc
 50
180.0
 51
270.0
  0
ARC
  5
977
330
1F
100
AcDbEntity
  8
0
100
AcDbCircle
 10
42.68454962301517
 20
46.99999922097926
 30
0.0
 40
0.5
100
AcDbArc
 50
270.0
 51
0.0
  0
ARC
  5
978
330
1F
100
AcDbEntity
  8
0
100
AcDbCircle
 10
42.68454962301496
 20
53.99999922097926
 30
0.0
 40
0.5
100
AcDbArc
 50
0.0
 51
90.0
  0
ARC
  5
979
330
1F
100
AcDbEntity
  8
0
100
AcDbCircle
 10
41.68454962301495
 20
53.99999922097926
 30
0.0
 40
0.5
100
AcDbArc
 50
90.0
 51
180.0
  0
LINE
  5
97A
330
1F
100
AcDbEntity
  8
0
100
AcDbLine
 10
41.18454962301496
 20
51.99999922097937
 30
0.0
 11
41.18454962301496
 21
50.21176392686071
 31
0.0
  0
LINE
  5
97B
330
1F
100
AcDbEntity
  8
0
100
AcDbLine
 10
42.68454962301496
 20
54.49999922097926
 30
0.0
 11
41.68454962301495
 21
54.49999922097926
 31
0.0
  0
LINE
  5
97C
330
1F
100
AcDbEntity
  8
0
100
AcDbLine
 10
43.18454962301518
 20
46.99999922097926
 30
0.0
 11
43.18454962301518
 21
47.68235216215559
 31
0.0
  0
LINE
  5
97D
330
1F
100
AcDbEntity
  8
0
100
AcDbLine
 10
41.68454962301495
 20
46.49999922097925
 30
0.0
 11
42.68454962301517
 21
46.49999922097925
 31
0.0
  0
LINE
  5
97E
330
1F
100
AcDbEntity
  8
0
100
AcDbLine
 10
50.18454962301497
 20
38.88907508629029
 30
0.0
 11
50.18454962301497
 21
38.11092335566728
 31
0.0
  0
LINE
  5
97F
330
1F
100
AcDbEntity
  8
0
100
AcDbLine
 10
49.18454962301495
 20
43.6967097932943
 30
0.0
 11
49.18454962301495
 21
46.49999922097925
 31
0.0
  0
LINE
  5
980
330
1F
100
AcDbEntity
  8
0
100
AcDbLine
 10
50.18454962301497
 20
45.88907508629029
 30
0.0
 11
50.18454962301497
 21
45.11092335566728
 31
0.0
  0
ARC
  5
981
330
1F
100
AcDbEntity
  8
0
100
AcDbCircle
 10
48.68454962301496
 20
45.88907508629029
 30
0.0
 40
1.5
100
AcDbArc
 50
0.0
 51
86.96952315413893
  0
ARC
  5
982
330
1F
100
AcDbEntity
  8
0
100
AcDbCircle
 10
48.68454962301496
 20
45.11092335566728
 30
0.0
 40
1.5
100
AcDbArc
 50
273.030476845861
 51
0.0
  0
ARC
  5
983
330
1F
100
AcDbEntity
  8
0
100
AcDbCircle
 10
48.68454962301496
 20
38.88907508629029
 30
0.0
 40
1.5
100
AcDbArc
 50
0.0
 51
86.96952315413893
  0
LINE
  5
984
330
1F
100
AcDbEntity
  8
0
100
AcDbLine
 10
50.18454962301497
 20
52.88907508629029
 30
0.0
 11
50.18454962301497
 21
52.11092335566728
 31
0.0
  0
ARC
  5
985
330
1F
100
AcDbEntity
  8
0
100
AcDbCircle
 10
48.68454962301496
 20
52.88907508629029
 30
0.0
 40
1.5
100
AcDbArc
 50
0.0
 51
86.96952315413893
  0
ARC
  5
986
330
1F
100
AcDbEntity
  8
0
100
AcDbCircle
 10
48.68454962301496
 20
52.11092335566728
 30
0.0
 40
1.5
100
AcDbArc
 50
273.030476845861
 51
0.0
  0
LINE
  5
987
330
1F
100
AcDbEntity
  8
0
100
AcDbLine
 10
56.18454962301496
 20
20.99999922097923
 30
0.0
 11
56.18454962301496
 21
4.973813299409242
 31
0.0
  0
LINE
  5
988
330
1F
100
AcDbEntity
  8
0
100
AcDbLine
 10
57.18454962301496
 20
4.921441456272246
 30
0.0
 11
57.18454962301496
 21
20.97381329941026
 31
0.0
  0
LINE
  5
989
330
1F
100
AcDbEntity
  8
0
100
AcDbLine
 10
82.47583747049191
 20
4.259165776314258
 30
0.0
 11
82.47583747049191
 21
21.97381329941025
 31
0.0
  0
LINE
  5
98A
330
1F
100
AcDbEntity
  8
0
100
AcDbLine
 10
77.89326177553687
 20
4.379164744047211
 30
0.0
 11
77.89326177553687
 21
21.97381329941128
 31
0.0
  0
LINE
  5
98B
330
1F
100
AcDbEntity
  8
0
100
AcDbLine
 10
78.08454962301391
 20
3.799999220978231
 30
0.0
 11
78.08454962301391
 21
-0.000000779020752
 31
0.0
  0
LINE
  5
98C
330
1F
100
AcDbEntity
  8
0
100
AcDbLine
 10
82.28454962301489
 20
3.799999220978231
 30
0.0
 11
82.28454962301489
 21
-0.000000779020752
 31
0.0
  0
LINE
  5
98D
330
1F
100
AcDbEntity
  8
0
100
AcDbLine
 10
74.68454962301496
 20
3.799999220978231
 30
0.0
 11
85.68454962301492
 21
3.799999220978231
 31
0.0
  0
LINE
  5
98E
330
1F
100
AcDbEntity
  8
0
100
AcDbLine
 10
74.68454962301496
 20
4.489373750379283
 30
0.0
 11
74.68454962301496
 21
3.799999220978231
 31
0.0
  0
LINE
  5
98F
330
1F
100
AcDbEntity
  8
0
100
AcDbLine
 10
85.68454962301492
 20
4.201328613119243
 30
0.0
 11
85.68454962301492
 21
3.799999220978231
 31
0.0
  0
LINE
  5
993
330
1F
100
AcDbEntity
  8
0
100
AcDbLine
 10
60.68454962301497
 20
22.99999922097923
 30
0.0
 11
59.18454962301392
 21
22.99999922097923
 31
0.0
  0
LINE
  5
994
330
1F
100
AcDbEntity
  8
0
100
AcDbLine
 10
60.88454962301383
 20
22.47381329941026
 30
0.0
 11
59.18454962301392
 21
22.47381329941026
 31
0.0
  0
LINE
  5
995
330
1F
100
AcDbEntity
  8
0
100
AcDbLine
 10
56.18454962301496
 20
20.99999922097923
 30
0.0
 11
54.88454962301499
 21
20.99999922097923
 31
0.0
  0
LINE
  5
996
330
1F
100
AcDbEntity
  8
0
100
AcDbLine
 10
57.18454962301496
 20
20.97381329941026
 30
0.0
 11
56.18454962301496
 21
20.97381329941026
 31
0.0
  0
LINE
  5
997
330
1F
100
AcDbEntity
  8
0
100
AcDbLine
 10
60.68454962301497
 20
30.99999922097923
 30
0.0
 11
59.18454962301392
 21
30.99999922097923
 31
0.0
  0
LINE
  5
998
330
1F
100
AcDbEntity
  8
0
100
AcDbLine
 10
56.18454962301496
 20
32.99999922097923
 30
0.0
 11
54.88454962301499
 21
32.99999922097923
 31
0.0
  0
LINE
  5
999
330
1F
100
AcDbEntity
  8
0
100
AcDbLine
 10
60.88454962301383
 20
31.47381329941026
 30
0.0
 11
59.18454962301392
 21
31.47381329941026
 31
0.0
  0
LINE
  5
99A
330
1F
100
AcDbEntity
  8
0
100
AcDbLine
 10
57.18454962301496
 20
32.97381329941123
 30
0.0
 11
56.18454962301496
 21
32.97381329941123
 31
0.0
  0
LINE
  5
99B
330
1F
100
AcDbEntity
  8
0
100
AcDbLine
 10
59.28454962301486
 20
30.99999922097923
 30
0.0
 11
59.28454962301486
 21
22.99999922097923
 31
0.0
  0
LINE
  5
99C
330
1F
100
AcDbEntity
  8
0
100
AcDbLine
 10
59.88454962301499
 20
30.99999922097923
 30
0.0
 11
59.88454962301499
 21
22.99999922097923
 31
0.0
  0
LINE
  5
99D
330
1F
100
AcDbEntity
  8
0
100
AcDbLine
 10
60.68454962301497
 20
30.99999922097923
 30
0.0
 11
60.68454962301497
 21
22.99999922097923
 31
0.0
  0
LINE
  5
99E
330
1F
100
AcDbEntity
  8
0
100
AcDbLine
 10
54.88454962301499
 20
32.99999922097923
 30
0.0
 11
54.88454962301499
 21
21.09999922097823
 31
0.0
  0
LINE
  5
99F
330
1F
100
AcDbEntity
  8
0
100
AcDbLine
 10
55.68454962301497
 20
32.99999922097923
 30
0.0
 11
55.68454962301497
 21
20.99999922097923
 31
0.0
  0
LINE
  5
9A0
330
1F
100
AcDbEntity
  8
0
100
AcDbLine
 10
56.18454962301496
 20
32.99999922097923
 30
0.0
 11
56.18454962301496
 21
20.99999922097821
 31
0.0
  0
LINE
  5
9A1
330
1F
100
AcDbEntity
  8
0
100
AcDbLine
 10
59.18454962301392
 20
31.47381329941026
 30
0.0
 11
59.18454962301392
 21
22.47381329941026
 31
0.0
  0
LINE
  5
9A2
330
1F
100
AcDbEntity
  8
0
100
AcDbLine
 10
60.88454962301383
 20
31.47381329941026
 30
0.0
 11
60.88454962301383
 21
22.47381329941026
 31
0.0
  0
LINE
  5
9A5
330
1F
100
AcDbEntity
  8
0
100
AcDbLine
 10
37.18454962301496
 20
120.528652632733
 30
0.0
 11
55.1845496230179
 21
120.9999992209779
 31
0.0
  0
LINE
  5
9A6
330
1F
100
AcDbEntity
  8
0
100
AcDbLine
 10
47.98454962301593
 20
96.42823451509627
 30
0.0
 11
47.98454962301593
 21
92.57176392686131
 31
0.0
  0
LINE
  5
9A7
330
1F
100
AcDbEntity
  8
0
100
AcDbLine
 10
50.18454962301497
 20
94.88907508629027
 30
0.0
 11
50.18454962301497
 21
94.11092335566728
 31
0.0
  0
LINE
  5
9A8
330
1F
100
AcDbEntity
  8
0
100
AcDbLine
 10
37.33099623242162
 20
79.35355261157254
 30
0.0
 11
41.18454962301496
 21
80.99999922097927
 31
0.0
  0
LINE
  5
9A9
330
1F
100
AcDbEntity
  8
0
100
AcDbLine
 10
38.13168248187492
 20
64.0501415488003
 30
0.0
 11
48.76385033472604
 21
64.61302102336322
 31
0.0
  0
LINE
  5
9AA
330
1F
100
AcDbEntity
  8
0
100
AcDbLine
 10
38.13168248187492
 20
61.94985689315728
 30
0.0
 11
48.76385033472604
 21
61.38697741859425
 31
0.0
  0
LINE
  5
9AB
330
1F
100
AcDbEntity
  8
0
100
AcDbLine
 10
38.13168248187492
 20
57.05014154880029
 30
0.0
 11
48.76385033472604
 21
57.61302102336323
 31
0.0
  0
LINE
  5
9AC
330
1F
100
AcDbEntity
  8
0
100
AcDbLine
 10
38.13168248187492
 20
92.05014154880029
 30
0.0
 11
48.76385033472604
 21
92.61302102336321
 31
0.0
  0
LINE
  5
9AD
330
1F
100
AcDbEntity
  8
0
100
AcDbLine
 10
38.13168248187492
 20
89.94985689315727
 30
0.0
 11
48.76385033472604
 21
89.38697741859426
 31
0.0
  0
LINE
  5
9AE
330
1F
100
AcDbEntity
  8
0
100
AcDbLine
 10
38.13168248187492
 20
85.05014154880029
 30
0.0
 11
48.76385033472604
 21
85.6130210233632
 31
0.0
  0
LINE
  5
9AF
330
1F
100
AcDbEntity
  8
0
100
AcDbLine
 10
38.13168248187492
 20
82.94985689315728
 30
0.0
 11
48.76385033472604
 21
82.38697741859423
 31
0.0
  0
LINE
  5
9B0
330
1F
100
AcDbEntity
  8
0
100
AcDbLine
 10
38.13168248187492
 20
78.0501415488003
 30
0.0
 11
48.76385033472604
 21
78.6130210233632
 31
0.0
  0
LINE
  5
9B1
330
1F
100
AcDbEntity
  8
0
100
AcDbLine
 10
38.13168248187492
 20
75.94985689315731
 30
0.0
 11
48.76385033472604
 21
75.38697741859427
 31
0.0
  0
LINE
  5
9B2
330
1F
100
AcDbEntity
  8
0
100
AcDbLine
 10
38.13168248187492
 20
71.0501415488003
 30
0.0
 11
48.76385033472604
 21
71.6130210233632
 31
0.0
  0
LINE
  5
9B3
330
1F
100
AcDbEntity
  8
0
100
AcDbLine
 10
38.13168248187492
 20
68.94985689315729
 30
0.0
 11
48.76385033472604
 21
68.38697741859426
 31
0.0
  0
LINE
  5
9B4
330
1F
100
AcDbEntity
  8
0
100
AcDbLine
 10
37.18454962301496
 20
63.0515399939312
 30
0.0
 11
37.18454962301496
 21
62.94845844802622
 31
0.0
  0
ARC
  5
9B5
330
1F
100
AcDbEntity
  8
0
100
AcDbCircle
 10
38.18454962301496
 20
63.0515399939312
 30
0.0
 40
1.0
100
AcDbArc
 50
93.03047684586102
 51
180.0
  0
ARC
  5
9B6
330
1F
100
AcDbEntity
  8
0
100
AcDbCircle
 10
38.18454962301496
 20
62.94845844802622
 30
0.0
 40
1.0
100
AcDbArc
 50
180.0
 51
266.9695231541389
  0
LINE
  5
9B7
330
1F
100
AcDbEntity
  8
0
100
AcDbLine
 10
37.18454962301496
 20
70.05153999393121
 30
0.0
 11
37.18454962301496
 21
69.94845844802624
 31
0.0
  0
ARC
  5
9B8
330
1F
100
AcDbEntity
  8
0
100
AcDbCircle
 10
38.18454962301496
 20
70.05153999393121
 30
0.0
 40
1.0
100
AcDbArc
 50
93.03047684586102
 51
180.0
  0
ARC
  5
9B9
330
1F
100
AcDbEntity
  8
0
100
AcDbCircle
 10
38.18454962301496
 20
69.94845844802624
 30
0.0
 40
1.0
100
AcDbArc
 50
180.0
 51
266.9695231541389
  0
ARC
  5
9BA
330
1F
100
AcDbEntity
  8
0
100
AcDbCircle
 10
37.68454962301496
 20
78.99999922097926
 30
0.0
 40
0.5
100
AcDbArc
 50
134.9999999999726
 51
180.0
  0
LINE
  5
9BB
330
1F
100
AcDbEntity
  8
0
100
AcDbLine
 10
37.18454962301496
 20
77.05153999393122
 30
0.0
 11
37.18454962301496
 21
76.94845844802627
 31
0.0
  0
ARC
  5
9BC
330
1F
100
AcDbEntity
  8
0
100
AcDbCircle
 10
38.18454962301496
 20
77.05153999393122
 30
0.0
 40
1.0
100
AcDbArc
 50
93.03047684586102
 51
180.0
  0
ARC
  5
9BD
330
1F
100
AcDbEntity
  8
0
100
AcDbCircle
 10
38.18454962301496
 20
76.94845844802627
 30
0.0
 40
1.0
100
AcDbArc
 50
180.0
 51
266.9695231541389
  0
LINE
  5
9BE
330
1F
100
AcDbEntity
  8
0
100
AcDbLine
 10
37.18454962301496
 20
84.05153999393125
 30
0.0
 11
37.18454962301496
 21
83.94845844802627
 31
0.0
  0
ARC
  5
9BF
330
1F
100
AcDbEntity
  8
0
100
AcDbCircle
 10
38.18454962301496
 20
84.05153999393125
 30
0.0
 40
1.0
100
AcDbArc
 50
93.03047684586102
 51
180.0
  0
ARC
  5
9C0
330
1F
100
AcDbEntity
  8
0
100
AcDbCircle
 10
38.18454962301496
 20
83.94845844802627
 30
0.0
 40
1.0
100
AcDbArc
 50
180.0
 51
266.9695231541389
  0
LINE
  5
9C1
330
1F
100
AcDbEntity
  8
0
100
AcDbLine
 10
37.18454962301496
 20
91.0515399939312
 30
0.0
 11
37.18454962301496
 21
90.94845844802625
 31
0.0
  0
ARC
  5
9C2
330
1F
100
AcDbEntity
  8
0
100
AcDbCircle
 10
38.18454962301496
 20
91.0515399939312
 30
0.0
 40
1.0
100
AcDbArc
 50
93.03047684586102
 51
180.0
  0
ARC
  5
9C3
330
1F
100
AcDbEntity
  8
0
100
AcDbCircle
 10
38.18454962301496
 20
90.94845844802625
 30
0.0
 40
1.0
100
AcDbArc
 50
180.0
 51
266.9695231541389
  0
LINE
  5
9C4
330
1F
100
AcDbEntity
  8
0
  6
CONTINUOUS
100
AcDbLine
 10
41.18454962301496
 20
75.78823451509684
 30
0.0
 11
41.18454962301496
 21
71.2117639268607
 31
0.0
  0
LINE
  5
9C5
330
1F
100
AcDbEntity
  8
0
  6
CONTINUOUS
100
AcDbLine
 10
43.18454962301497
 20
75.68235216215561
 30
0.0
 11
43.18454962301497
 21
71.31764627980192
 31
0.0
  0
LINE
  5
9C6
330
1F
100
AcDbEntity
  8
0
100
AcDbLine
 10
39.18454962301495
 20
71.10588157391949
 30
0.0
 11
39.18454962301495
 21
75.89411686803808
 31
0.0
  0
LINE
  5
9C7
330
1F
100
AcDbEntity
  8
0
100
AcDbLine
 10
39.1845496230153
 20
75.89411686803804
 30
0.0
 11
39.18454962301519
 21
71.10588157391951
 31
0.0
  0
ARC
  5
9C8
330
1F
100
AcDbEntity
  8
0
100
AcDbCircle
 10
48.68454962301496
 20
73.88907508629029
 30
0.0
 40
1.5
100
AcDbArc
 50
0.0
 51
86.96952315413893
  0
LINE
  5
9C9
330
1F
100
AcDbEntity
  8
0
  6
CONTINUOUS
100
AcDbLine
 10
41.18454962301496
 20
61.78823451509686
 30
0.0
 11
41.18454962301496
 21
57.21176392686071
 31
0.0
  0
LINE
  5
9CA
330
1F
100
AcDbEntity
  8
0
  6
CONTINUOUS
100
AcDbLine
 10
41.18454962301496
 20
68.78823451509686
 30
0.0
 11
41.18454962301496
 21
64.21176392686071
 31
0.0
  0
LINE
  5
9CB
330
1F
100
AcDbEntity
  8
0
  6
CONTINUOUS
100
AcDbLine
 10
43.18454962301497
 20
68.68235216215561
 30
0.0
 11
43.18454962301497
 21
64.31764627980193
 31
0.0
  0
LINE
  5
9CC
330
1F
100
AcDbEntity
  8
0
100
AcDbLine
 10
39.18454962301495
 20
61.89411686803808
 30
0.0
 11
39.18454962301495
 21
57.10588157391949
 31
0.0
  0
LINE
  5
9CD
330
1F
100
AcDbEntity
  8
0
100
AcDbLine
 10
39.18454962301495
 20
64.10588157391948
 30
0.0
 11
39.18454962301495
 21
68.89411686803808
 31
0.0
  0
LINE
  5
9CE
330
1F
100
AcDbEntity
  8
0
  6
CONTINUOUS
100
AcDbLine
 10
43.18454962301497
 20
61.68235216215561
 30
0.0
 11
43.18454962301497
 21
57.31764627980194
 31
0.0
  0
LINE
  5
9CF
330
1F
100
AcDbEntity
  8
0
100
AcDbLine
 10
39.18454962301495
 20
57.10588157391949
 30
0.0
 11
39.18454962301495
 21
61.89411686803808
 31
0.0
  0
LINE
  5
9D0
330
1F
100
AcDbEntity
  8
0
100
AcDbLine
 10
39.18454962301519
 20
68.89411686803808
 30
0.0
 11
39.18454962301495
 21
64.10588157391948
 31
0.0
  0
LINE
  5
9D1
330
1F
100
AcDbEntity
  8
0
100
AcDbLine
 10
50.18454962301497
 20
59.88907508629028
 30
0.0
 11
50.18454962301497
 21
59.11092335566729
 31
0.0
  0
ARC
  5
9D2
330
1F
100
AcDbEntity
  8
0
100
AcDbCircle
 10
48.68454962301496
 20
59.88907508629028
 30
0.0
 40
1.5
100
AcDbArc
 50
0.0
 51
86.96952315413893
  0
ARC
  5
9D3
330
1F
100
AcDbEntity
  8
0
100
AcDbCircle
 10
48.68454962301496
 20
59.11092335566729
 30
0.0
 40
1.5
100
AcDbArc
 50
273.030476845861
 51
0.0
  0
LINE
  5
9D4
330
1F
100
AcDbEntity
  8
0
100
AcDbLine
 10
50.18454962301497
 20
66.88907508629028
 30
0.0
 11
50.18454962301497
 21
66.1109233556673
 31
0.0
  0
ARC
  5
9D5
330
1F
100
AcDbEntity
  8
0
100
AcDbCircle
 10
48.68454962301496
 20
66.88907508629028
 30
0.0
 40
1.5
100
AcDbArc
 50
0.0
 51
86.96952315413893
  0
LINE
  5
9D6
330
1F
100
AcDbEntity
  8
0
100
AcDbLine
 10
50.18454962301497
 20
73.88907508629029
 30
0.0
 11
50.18454962301497
 21
73.1109233556673
 31
0.0
  0
ARC
  5
9D7
330
1F
100
AcDbEntity
  8
0
100
AcDbCircle
 10
48.68454962301496
 20
73.1109233556673
 30
0.0
 40
1.5
100
AcDbArc
 50
273.030476845861
 51
0.0
  0
ARC
  5
9D8
330
1F
100
AcDbEntity
  8
0
100
AcDbCircle
 10
48.68454962301496
 20
66.1109233556673
 30
0.0
 40
1.5
100
AcDbArc
 50
273.030476845861
 51
0.0
  0
LWPOLYLINE
  5
9D9
330
1F
100
AcDbEntity
  8
0
100
AcDbPolyline
 90
        3
 70
     0
 43
0.0
 10
50.0545027980015
 20
86.49999922097929
 10
43.18454962301497
 20
86.49999922097929
 10
43.18454962301497
 20
85.31764627980193
  0
LINE
  5
9DA
330
1F
100
AcDbEntity
  8
0
  6
CONTINUOUS
100
AcDbLine
 10
41.18454962301496
 20
78.99999922097926
 30
0.0
 11
41.18454962301496
 21
78.21176392686068
 31
0.0
  0
LINE
  5
9DB
330
1F
100
AcDbEntity
  8
0
  6
CONTINUOUS
100
AcDbLine
 10
43.18454962301497
 20
82.68235216215561
 30
0.0
 11
43.18454962301497
 21
78.31764627980192
 31
0.0
  0
LINE
  5
9DC
330
1F
100
AcDbEntity
  8
0
100
AcDbLine
 10
39.18454962301495
 20
78.10588157391949
 30
0.0
 11
39.18454962301495
 21
78.14549095677519
 31
0.0
  0
LINE
  5
9DD
330
1F
100
AcDbEntity
  8
0
100
AcDbLine
 10
41.18454962301496
 20
82.78823451509685
 30
0.0
 11
41.18454962301496
 21
80.99999922097927
 31
0.0
  0
LINE
  5
9DE
330
1F
100
AcDbEntity
  8
0
100
AcDbLine
 10
43.18454962301497
 20
85.31764627980193
 30
0.0
 11
43.18454962301497
 21
85.99999922097927
 31
0.0
  0
LINE
  5
9DF
330
1F
100
AcDbEntity
  8
0
100
AcDbLine
 10
39.1845496230154
 20
78.1454909567754
 30
0.0
 11
39.1845496230153
 21
78.10588157391952
 31
0.0
  0
LINE
  5
9E0
330
1F
100
AcDbEntity
  8
0
100
AcDbLine
 10
39.1845496230154
 20
78.1454909567754
 30
0.0
 11
41.18454962301496
 21
78.99999922097926
 31
0.0
  0
ARC
  5
9E1
330
1F
100
AcDbEntity
  8
0
100
AcDbCircle
 10
40.68454962301518
 20
80.99999922097927
 30
0.0
 40
0.5
100
AcDbArc
 50
0.0
 51
90.0
  0
ARC
  5
9E2
330
1F
100
AcDbEntity
  8
0
100
AcDbCircle
 10
39.68454962301517
 20
80.99999922097927
 30
0.0
 40
0.5
100
AcDbArc
 50
90.0
 51
180.0
  0
LINE
  5
9E3
330
1F
100
AcDbEntity
  8
0
100
AcDbLine
 10
39.18454962301519
 20
80.99999922097927
 30
0.0
 11
39.1845496230154
 21
80.14549095677542
 31
0.0
  0
LINE
  5
9E4
330
1F
100
AcDbEntity
  8
0
100
AcDbLine
 10
40.68454962301518
 20
81.49999922097926
 30
0.0
 11
39.68454962301517
 21
81.49999922097926
 31
0.0
  0
ARC
  5
9E5
330
1F
100
AcDbEntity
  8
0
100
AcDbCircle
 10
41.68454962301495
 20
78.99999922097926
 30
0.0
 40
0.5
100
AcDbArc
 50
180.0
 51
270.0
  0
ARC
  5
9E6
330
1F
100
AcDbEntity
  8
0
100
AcDbCircle
 10
42.68454962301517
 20
78.99999922097926
 30
0.0
 40
0.5
100
AcDbArc
 50
270.0
 51
0.0
  0
ARC
  5
9E7
330
1F
100
AcDbEntity
  8
0
100
AcDbCircle
 10
42.68454962301496
 20
85.99999922097927
 30
0.0
 40
0.5
100
AcDbArc
 50
0.0
 51
90.0
  0
ARC
  5
9E8
330
1F
100
AcDbEntity
  8
0
100
AcDbCircle
 10
41.68454962301495
 20
85.99999922097927
 30
0.0
 40
0.5
100
AcDbArc
 50
90.0
 51
180.0
  0
LINE
  5
9E9
330
1F
100
AcDbEntity
  8
0
100
AcDbLine
 10
41.18454962301496
 20
85.99999922097927
 30
0.0
 11
41.18454962301496
 21
85.2117639268607
 31
0.0
  0
LINE
  5
9EA
330
1F
100
AcDbEntity
  8
0
100
AcDbLine
 10
42.68454962301496
 20
86.49999922097929
 30
0.0
 11
41.68454962301495
 21
86.49999922097929
 31
0.0
  0
LINE
  5
9EB
330
1F
100
AcDbEntity
  8
0
100
AcDbLine
 10
43.18454962301518
 20
78.99999922097926
 30
0.0
 11
43.18454962301497
 21
82.68235216215558
 31
0.0
  0
LINE
  5
9EC
330
1F
100
AcDbEntity
  8
0
100
AcDbLine
 10
41.68454962301495
 20
78.49999922097926
 30
0.0
 11
42.68454962301517
 21
78.49999922097926
 31
0.0
  0
LINE
  5
9ED
330
1F
100
AcDbEntity
  8
0
  6
CONTINUOUS
100
AcDbLine
 10
43.18454962301497
 20
86.49999922097929
 30
0.0
 11
43.18454962301497
 21
85.31764627980193
 31
0.0
  0
LINE
  5
9EE
330
1F
100
AcDbEntity
  8
0
100
AcDbLine
 10
50.18454962301497
 20
80.88907508629025
 30
0.0
 11
50.18454962301497
 21
80.11092335566731
 31
0.0
  0
ARC
  5
9EF
330
1F
100
AcDbEntity
  8
0
100
AcDbCircle
 10
48.68454962301496
 20
80.11092335566731
 30
0.0
 40
1.5
100
AcDbArc
 50
273.030476845861
 51
0.0
  0
LINE
  5
9F0
330
1F
100
AcDbEntity
  8
0
100
AcDbLine
 10
49.18454962301495
 20
86.49999922097929
 30
0.0
 11
49.18454962301495
 21
89.3032886486633
 31
0.0
  0
LINE
  5
9F1
330
1F
100
AcDbEntity
  8
0
100
AcDbLine
 10
47.98454962301593
 20
89.04896169530028
 30
0.0
 11
49.18454962301495
 21
89.01753858941733
 31
0.0
  0
LINE
  5
9F2
330
1F
100
AcDbEntity
  8
0
100
AcDbLine
 10
50.18454962301497
 20
87.88907508629028
 30
0.0
 11
50.18454962301497
 21
87.1109233556673
 31
0.0
  0
ARC
  5
9F3
330
1F
100
AcDbEntity
  8
0
100
AcDbCircle
 10
48.68454962301496
 20
87.1109233556673
 30
0.0
 40
1.5
100
AcDbArc
 50
273.030476845861
 51
0.0
  0
ARC
  5
9F4
330
1F
100
AcDbEntity
  8
0
100
AcDbCircle
 10
48.68454962301496
 20
94.11092335566728
 30
0.0
 40
1.5
100
AcDbArc
 50
273.030476845861
 51
0.0
  0
LINE
  5
9F5
330
1F
100
AcDbEntity
  8
0
100
AcDbLine
 10
47.98454962301593
 20
89.42823451509623
 30
0.0
 11
47.98454962301593
 21
89.04896169530028
 31
0.0
  0
ARC
  5
9F6
330
1F
100
AcDbEntity
  8
0
100
AcDbCircle
 10
48.68454962301496
 20
87.88907508629028
 30
0.0
 40
1.5
100
AcDbArc
 50
0.0
 51
86.96952315413893
  0
ARC
  5
9F7
330
1F
100
AcDbEntity
  8
0
100
AcDbCircle
 10
48.68454962301496
 20
80.88907508629025
 30
0.0
 40
1.5
100
AcDbArc
 50
0.0
 51
86.96952315413893
  0
LINE
  5
9F8
330
1F
100
AcDbEntity
  8
0
100
AcDbLine
 10
38.13168248187492
 20
96.94985689315732
 30
0.0
 11
48.76385033472604
 21
96.38697741859424
 31
0.0
  0
LINE
  5
9F9
330
1F
100
AcDbEntity
  8
0
100
AcDbLine
 10
37.65838164489388
 20
104.3251667369589
 30
0.0
 11
48.76305355737997
 21
103.743195542359
 31
0.0
  0
LINE
  5
9FA
330
1F
100
AcDbEntity
  8
0
100
AcDbLine
 10
38.13168248187492
 20
99.05014154880028
 30
0.0
 11
48.76385033472604
 21
99.61302102336324
 31
0.0
  0
LINE
  5
9FB
330
1F
100
AcDbEntity
  8
0
100
AcDbLine
 10
37.18454962301496
 20
104.8244815043358
 30
0.0
 11
37.18454962301496
 21
120.528652632733
 31
0.0
  0
LINE
  5
9FC
330
1F
100
AcDbEntity
  8
0
100
AcDbLine
 10
37.18454962301496
 20
98.0515399939312
 30
0.0
 11
37.18454962301496
 21
97.94845844802626
 31
0.0
  0
POINT
  5
9FD
330
1F
100
AcDbEntity
  8
0
100
AcDbPoint
 10
37.18454962301496
 20
104.3499992209778
 30
0.0
  0
ARC
  5
9FE
330
1F
100
AcDbEntity
  8
0
100
AcDbCircle
 10
37.68454962301496
 20
104.8244815043358
 30
0.0
 40
0.5
100
AcDbArc
 50
180.0
 51
266.9999999999943
  0
ARC
  5
9FF
330
1F
100
AcDbEntity
  8
0
100
AcDbCircle
 10
38.18454962301496
 20
98.0515399939312
 30
0.0
 40
1.0
100
AcDbArc
 50
93.03047684586102
 51
180.0
  0
ARC
  5
A00
330
1F
100
AcDbEntity
  8
0
100
AcDbCircle
 10
38.18454962301496
 20
97.94845844802626
 30
0.0
 40
1.0
100
AcDbArc
 50
180.0
 51
266.9695231541389
  0
ARC
  5
A01
330
1F
100
AcDbEntity
  8
0
100
AcDbCircle
 10
48.68454962301496
 20
94.88907508629027
 30
0.0
 40
1.5
100
AcDbArc
 50
0.0
 51
86.96952315413893
  0
LINE
  5
A02
330
1F
100
AcDbEntity
  8
0
100
AcDbLine
 10
47.98454962301593
 20
103.783995204722
 30
0.0
 11
47.98454962301593
 21
99.56600323723522
 31
0.0
  0
LINE
  5
A03
330
1F
100
AcDbEntity
  8
0
100
AcDbLine
 10
50.18454962301497
 20
102.2452512402268
 30
0.0
 11
50.18454962301497
 21
101.110923355667
 31
0.0
  0
ARC
  5
A04
330
1F
100
AcDbEntity
  8
0
100
AcDbCircle
 10
48.68454962301496
 20
102.2452512402268
 30
0.0
 40
1.5
100
AcDbArc
 50
0.0
 51
87.00000000000093
  0
ARC
  5
A05
330
1F
100
AcDbEntity
  8
0
100
AcDbCircle
 10
48.68454962301496
 20
101.110923355667
 30
0.0
 40
1.5
100
AcDbArc
 50
273.030476845861
 51
0.0
  0
LINE
  5
A07
330
1F
100
AcDbEntity
  8
0
100
AcDbLine
 10
56.18454962301496
 20
110.4710182788531
 30
0.0
 11
56.18454962301496
 21
82.99999922097926
 31
0.0
  0
LINE
  5
A08
330
1F
100
AcDbEntity
  8
0
100
AcDbLine
 10
57.18454962301496
 20
82.97381329941122
 30
0.0
 11
57.18454962301496
 21
109.605732726108
 31
0.0
  0
LINE
  5
A15
330
1F
100
AcDbEntity
  8
0
100
AcDbLine
 10
59.28454962301486
 20
80.99999922097925
 30
0.0
 11
59.28454962301486
 21
72.99999922097923
 31
0.0
  0
LINE
  5
A16
330
1F
100
AcDbEntity
  8
0
100
AcDbLine
 10
59.88454962301499
 20
80.99999922097925
 30
0.0
 11
59.88454962301499
 21
72.99999922097923
 31
0.0
  0
LINE
  5
A17
330
1F
100
AcDbEntity
  8
0
100
AcDbLine
 10
60.68454962301497
 20
80.99999922097925
 30
0.0
 11
60.68454962301497
 21
72.99999922097923
 31
0.0
  0
LINE
  5
A18
330
1F
100
AcDbEntity
  8
0
100
AcDbLine
 10
59.18454962301392
 20
81.47381329941026
 30
0.0
 11
59.18454962301392
 21
72.47381329941027
 31
0.0
  0
LINE
  5
A19
330
1F
100
AcDbEntity
  8
0
100
AcDbLine
 10
60.88454962301383
 20
81.47381329941026
 30
0.0
 11
60.88454962301383
 21
72.47381329941027
 31
0.0
  0
LINE
  5
A1A
330
1F
100
AcDbEntity
  8
0
100
AcDbLine
 10
54.88454962301499
 20
82.99999922097926
 30
0.0
 11
54.88454962301499
 21
71.09999922097824
 31
0.0
  0
LINE
  5
A1B
330
1F
100
AcDbEntity
  8
0
100
AcDbLine
 10
55.68454962301497
 20
82.99999922097926
 30
0.0
 11
55.68454962301497
 21
70.99999922097925
 31
0.0
  0
LINE
  5
A1C
330
1F
100
AcDbEntity
  8
0
100
AcDbLine
 10
56.18454962301496
 20
70.99999922097822
 30
0.0
 11
56.18454962301496
 21
82.99999922097926
 31
0.0
  0
LINE
  5
A1D
330
1F
100
AcDbEntity
  8
0
100
AcDbLine
 10
56.18454962301496
 20
70.99999922097925
 30
0.0
 11
54.88454962301499
 21
70.99999922097925
 31
0.0
  0
LINE
  5
A1E
330
1F
100
AcDbEntity
  8
0
100
AcDbLine
 10
57.18454962301496
 20
70.97381329941026
 30
0.0
 11
56.18454962301496
 21
70.97381329941026
 31
0.0
  0
LINE
  5
A1F
330
1F
100
AcDbEntity
  8
0
100
AcDbLine
 10
60.68454962301497
 20
72.99999922097923
 30
0.0
 11
59.18454962301392
 21
72.99999922097923
 31
0.0
  0
LINE
  5
A20
330
1F
100
AcDbEntity
  8
0
100
AcDbLine
 10
60.88454962301383
 20
72.47381329941027
 30
0.0
 11
59.18454962301392
 21
72.47381329941027
 31
0.0
  0
LINE
  5
A21
330
1F
100
AcDbEntity
  8
0
100
AcDbLine
 10
60.68454962301497
 20
80.99999922097925
 30
0.0
 11
59.18454962301392
 21
80.99999922097925
 31
0.0
  0
LINE
  5
A22
330
1F
100
AcDbEntity
  8
0
100
AcDbLine
 10
56.18454962301496
 20
82.99999922097926
 30
0.0
 11
54.88454962301499
 21
82.99999922097926
 31
0.0
  0
LINE
  5
A23
330
1F
100
AcDbEntity
  8
0
100
AcDbLine
 10
60.88454962301383
 20
81.47381329941026
 30
0.0
 11
59.18454962301392
 21
81.47381329941026
 31
0.0
  0
LINE
  5
A24
330
1F
100
AcDbEntity
  8
0
100
AcDbLine
 10
57.18454962301496
 20
82.97381329941122
 30
0.0
 11
56.18454962301496
 21
82.97381329941122
 31
0.0
  0
LINE
  5
A2D
330
1F
100
AcDbEntity
  8
0
100
AcDbLine
 10
65.28454962301487
 20
121.9738132994102
 30
0.0
 11
73.88454962301408
 21
121.9738132994102
 31
0.0
  0
LINE
  5
A2E
330
1F
100
AcDbEntity
  8
0
100
AcDbLine
 10
66.38454962301397
 20
126.2738132994102
 30
0.0
 11
72.28454962301396
 21
126.2738132994102
 31
0.0
  0
LINE
  5
A2F
330
1F
100
AcDbEntity
  8
0
100
AcDbLine
 10
66.78454962301396
 20
127.57381329941
 30
0.0
 11
76.12954962301398
 21
127.57381329941
 31
0.0
  0
LINE
  5
A30
330
1F
100
AcDbEntity
  8
0
100
AcDbLine
 10
59.18454962301495
 20
110.999999220979
 30
0.0
 11
59.18454962301495
 21
120.8952555347019
 31
0.0
  0
LINE
  5
A31
330
1F
100
AcDbEntity
  8
0
100
AcDbLine
 10
60.18454962301497
 20
120.9738132994102
 30
0.0
 11
60.18454962301497
 21
110.1347136682329
 31
0.0
  0
LINE
  5
A32
330
1F
100
AcDbEntity
  8
0
100
AcDbLine
 10
59.18454962301495
 20
120.47381329941
 30
0.0
 11
59.18454962301495
 21
110.9738132994109
 31
0.0
  0
LINE
  5
A33
330
1F
100
AcDbEntity
  8
0
100
AcDbLine
 10
59.18454962301495
 20
110.999999220979
 30
0.0
 11
56.18454962301496
 21
110.4710182788531
 31
0.0
  0
LINE
  5
A34
330
1F
100
AcDbEntity
  8
0
100
AcDbLine
 10
60.18454962301497
 20
110.1347136682329
 30
0.0
 11
57.18454962301496
 21
109.605732726108
 31
0.0
  0
LINE
  5
A35
330
1F
100
AcDbEntity
  8
0
100
AcDbLine
 10
56.18454962301496
 20
110.444832357285
 30
0.0
 11
59.18454962301495
 21
110.9738132994109
 31
0.0
  0
LINE
  5
A36
330
1F
100
AcDbEntity
  8
0
100
AcDbLine
 10
55.18454962301497
 20
120.999999220979
 30
0.0
 11
59.18454962301495
 21
120.8952555347019
 31
0.0
  0
LINE
  5
A37
330
1F
100
AcDbEntity
  8
0
100
AcDbLine
 10
59.18454962301495
 20
120.47381329941
 30
0.0
 11
60.18454962301497
 21
120.47381329941
 31
0.0
  0
LINE
  5
A38
330
1F
100
AcDbEntity
  8
0
100
AcDbLine
 10
57.18454962301496
 20
120.9738132994102
 30
0.0
 11
57.18454962301496
 21
120.9476273778409
 31
0.0
  0
LINE
  5
A39
330
1F
100
AcDbEntity
  8
0
100
AcDbLine
 10
57.18454962301496
 20
120.9738132994102
 30
0.0
 11
57.18454962301496
 21
120.9476273778405
 31
0.0
  0
LINE
  5
A3A
330
1F
100
AcDbEntity
  8
0
100
AcDbLine
 10
65.28454962301487
 20
120.9738132994102
 30
0.0
 11
65.28454962301487
 21
121.9738132994102
 31
0.0
  0
LINE
  5
A3B
330
1F
100
AcDbEntity
  8
0
100
AcDbLine
 10
66.38454962301397
 20
121.9738132994102
 30
0.0
 11
66.38454962301397
 21
126.2738132994102
 31
0.0
  0
LINE
  5
A3C
330
1F
100
AcDbEntity
  8
0
100
AcDbLine
 10
66.78454962301396
 20
126.27381329941
 30
0.0
 11
66.78454962301396
 21
127.57381329941
 31
0.0
  0
LINE
  5
A3D
330
1F
100
AcDbEntity
  8
0
100
AcDbLine
 10
76.38454962301501
 20
107.4738132994102
 30
0.0
 11
76.38454962301501
 21
115.47381329941
 31
0.0
  0
LINE
  5
A3E
330
1F
100
AcDbEntity
  8
0
100
AcDbLine
 10
79.384549623015
 20
105.4738132994099
 30
0.0
 11
79.384549623015
 21
117.47381329941
 31
0.0
  0
LINE
  5
A3F
330
1F
100
AcDbEntity
  8
0
100
AcDbLine
 10
79.384549623015
 20
105.4738132994099
 30
0.0
 11
71.18454962301496
 21
105.4738132994099
 31
0.0
  0
LINE
  5
A40
330
1F
100
AcDbEntity
  8
0
100
AcDbLine
 10
74.384549623015
 20
109.4738132994102
 30
0.0
 11
74.384549623015
 21
107.4738132994102
 31
0.0
  0
LINE
  5
A41
330
1F
100
AcDbEntity
  8
0
100
AcDbLine
 10
74.384549623015
 20
107.4738132994102
 30
0.0
 11
76.38454962301501
 21
107.4738132994102
 31
0.0
  0
LINE
  5
A42
330
1F
100
AcDbEntity
  8
0
100
AcDbLine
 10
71.18454962301496
 20
109.4738132994102
 30
0.0
 11
71.18454962301496
 21
105.4738132994099
 31
0.0
  0
LINE
  5
A43
330
1F
100
AcDbEntity
  8
0
100
AcDbLine
 10
71.18454962301496
 20
109.4738132994102
 30
0.0
 11
74.384549623015
 21
109.4738132994102
 31
0.0
  0
LINE
  5
A45
330
1F
100
AcDbEntity
  8
0
100
AcDbLine
 10
71.18454962301496
 20
117.47381329941
 30
0.0
 11
79.384549623015
 21
117.47381329941
 31
0.0
  0
LINE
  5
A46
330
1F
100
AcDbEntity
  8
0
100
AcDbLine
 10
73.88454962301408
 20
121.9738132994102
 30
0.0
 11
73.88454962301408
 21
120.9738132994102
 31
0.0
  0
LINE
  5
A47
330
1F
100
AcDbEntity
  8
0
100
AcDbLine
 10
72.28454962301396
 20
126.2738132994102
 30
0.0
 11
72.28454962301396
 21
121.9738132994102
 31
0.0
  0
LINE
  5
A48
330
1F
100
AcDbEntity
  8
0
100
AcDbLine
 10
76.12954962301398
 20
127.57381329941
 30
0.0
 11
76.12954962301398
 21
120.9738132994102
 31
0.0
  0
LINE
  5
A49
330
1F
100
AcDbEntity
  8
0
100
AcDbLine
 10
74.384549623015
 20
113.4738132994102
 30
0.0
 11
74.384549623015
 21
115.47381329941
 31
0.0
  0
LINE
  5
A4A
330
1F
100
AcDbEntity
  8
0
100
AcDbLine
 10
74.384549623015
 20
115.47381329941
 30
0.0
 11
76.38454962301501
 21
115.47381329941
 31
0.0
  0
LINE
  5
A4B
330
1F
100
AcDbEntity
  8
0
100
AcDbLine
 10
71.18454962301496
 20
113.4738132994102
 30
0.0
 11
71.18454962301496
 21
117.47381329941
 31
0.0
  0
LINE
  5
A4C
330
1F
100
AcDbEntity
  8
0
100
AcDbLine
 10
71.18454962301496
 20
113.4738132994102
 30
0.0
 11
74.384549623015
 21
113.4738132994102
 31
0.0
  0
LINE
  5
A50
330
1F
100
AcDbEntity
  8
0
100
AcDbLine
 10
108.1845496230149
 20
21.97381329941025
 30
0.0
 11
108.1845496230149
 21
103.97381329941
 31
0.0
  0
LINE
  5
A51
330
1F
100
AcDbEntity
  8
0
100
AcDbLine
 10
109.1845496230149
 20
3.58595945624222
 30
0.0
 11
109.1845496230149
 21
120.9738132994102
 31
0.0
  0
LINE
  5
A52
330
1F
100
AcDbEntity
  8
0
100
AcDbLine
 10
109.1845496230149
 20
-0.000000779020752
 30
0.0
 11
109.1845496230149
 21
3.58595945624222
 31
0.0
  0
LINE
  5
A5A
330
1F
100
AcDbEntity
  8
0
100
AcDbLine
 10
106.1845496230149
 20
33.97381329941026
 30
0.0
 11
106.1845496230149
 21
35.97381329941024
 31
0.0
  0
LINE
  5
A5B
330
1F
100
AcDbEntity
  8
0
100
AcDbLine
 10
107.1845496230149
 20
33.97381329941026
 30
0.0
 11
107.1845496230149
 21
35.97381329941024
 31
0.0
  0
LINE
  5
A5C
330
1F
100
AcDbEntity
  8
0
100
AcDbLine
 10
106.1845496230149
 20
26.97381329941026
 30
0.0
 11
106.1845496230149
 21
28.97381329941026
 31
0.0
  0
LINE
  5
A5D
330
1F
100
AcDbEntity
  8
0
100
AcDbLine
 10
107.1845496230149
 20
26.97381329941026
 30
0.0
 11
107.1845496230149
 21
28.97381329941026
 31
0.0
  0
LINE
  5
A5F
330
1F
100
AcDbEntity
  8
0
100
AcDbLine
 10
106.1845496230149
 20
40.97381329941025
 30
0.0
 11
106.1845496230149
 21
42.97381329941027
 31
0.0
  0
LINE
  5
A60
330
1F
100
AcDbEntity
  8
0
100
AcDbLine
 10
107.1845496230149
 20
40.97381329941025
 30
0.0
 11
107.1845496230149
 21
42.97381329941027
 31
0.0
  0
LINE
  5
A83
330
1F
100
AcDbEntity
  8
0
100
AcDbLine
 10
92.33454962301506
 20
124.3738132994102
 30
0.0
 11
98.63454962301501
 21
124.3738132994102
 31
0.0
  0
LINE
  5
A84
330
1F
100
AcDbEntity
  8
0
100
AcDbLine
 10
92.33454962301506
 20
120.9738132994102
 30
0.0
 11
92.33454962301506
 21
124.3738132994102
 31
0.0
  0
LINE
  5
A85
330
1F
100
AcDbEntity
  8
0
100
AcDbLine
 10
98.63454962301501
 20
124.3738132994102
 30
0.0
 11
98.63454962301501
 21
120.9738132994102
 31
0.0
  0
LINE
  5
A8B
330
1F
100
AcDbEntity
  8
0
100
AcDbLine
 10
57.18454962301496
 20
120.9738132994102
 30
0.0
 11
109.1845496230149
 21
120.9738132994102
 31
0.0
  0
LINE
  5
A8C
330
1F
100
AcDbEntity
  8
0
100
AcDbLine
 10
92.33454962301506
 20
120.9738132994102
 30
0.0
 11
92.33454962301506
 21
124.3738132994102
 31
0.0
  0
LINE
  5
A8D
330
1F
100
AcDbEntity
  8
0
100
AcDbLine
 10
92.33454962301506
 20
124.3738132994102
 30
0.0
 11
98.63454962301501
 21
124.3738132994102
 31
0.0
  0
LINE
  5
A8E
330
1F
100
AcDbEntity
  8
0
100
AcDbLine
 10
98.63454962301501
 20
124.3738132994102
 30
0.0
 11
98.63454962301501
 21
120.9738132994102
 31
0.0
  0
LINE
  5
AE1
330
1F
100
AcDbEntity
  8
2_カバ_
  6
DASHDOT
100
AcDbLine
 10
89.34602261496108
 20
81.97381329941132
 30
0.0
 11
78.78487664193009
 21
81.97381329941132
 31
0.0
  0
CIRCLE
  5
AE2
330
1F
100
AcDbEntity
  8
2_カバ_
  6
CONTINUOUS
100
AcDbCircle
 10
86.68454962301506
 20
81.97381329941132
 30
0.0
 40
1.25
  0
LINE
  5
AE3
330
1F
100
AcDbEntity
  8
2_カバ_
  6
CONTINUOUS
100
AcDbLine
 10
67.18454962301509
 20
103.9738132994102
 30
0.0
 11
109.1845496230149
 21
103.9738132994102
 31
0.0
  0
LINE
  5
AE4
330
1F
100
AcDbEntity
  8
2_カバ_
  6
CONTINUOUS
100
AcDbLine
 10
108.184549623015
 20
98.97381329941032
 30
0.0
 11
67.18454962301509
 21
98.97381329941032
 31
0.0
  0
LINE
  5
AE5
330
1F
100
AcDbEntity
  8
2_カバ_
  6
CONTINUOUS
100
AcDbLine
 10
108.184549623015
 20
96.97381329941034
 30
0.0
 11
67.18454962301509
 21
96.97381329941034
 31
0.0
  0
LINE
  5
AE6
330
1F
100
AcDbEntity
  8
2_カバ_
  6
CONTINUOUS
100
AcDbLine
 10
108.184549623015
 20
70.97381329941033
 30
0.0
 11
67.18454962301507
 21
70.97381329941033
 31
0.0
  0
LINE
  5
AE7
330
1F
100
AcDbEntity
  8
2_カバ_
  6
CONTINUOUS
100
AcDbLine
 10
108.184549623015
 20
68.97381329941037
 30
0.0
 11
67.18454962301507
 21
68.97381329941037
 31
0.0
  0
LINE
  5
AE8
330
1F
100
AcDbEntity
  8
2_カバ_
  6
CONTINUOUS
100
AcDbLine
 10
108.184549623015
 20
63.97381329941034
 30
0.0
 11
67.18454962301507
 21
63.97381329941132
 31
0.0
  0
LINE
  5
AE9
330
1F
100
AcDbEntity
  8
2_カバ_
  6
CONTINUOUS
100
AcDbLine
 10
108.184549623015
 20
61.97381329941034
 30
0.0
 11
67.18454962301507
 21
61.97381329941034
 31
0.0
  0
LINE
  5
AEA
330
1F
100
AcDbEntity
  8
2_カバ_
  6
CONTINUOUS
100
AcDbLine
 10
108.184549623015
 20
56.97381329941034
 30
0.0
 11
67.18454962301507
 21
56.97381329941034
 31
0.0
  0
LINE
  5
AEB
330
1F
100
AcDbEntity
  8
2_カバ_
  6
CONTINUOUS
100
AcDbLine
 10
108.184549623015
 20
54.97381329941035
 30
0.0
 11
67.18454962301507
 21
54.97381329941035
 31
0.0
  0
LINE
  5
AEC
330
1F
100
AcDbEntity
  8
2_カバ_
  6
CONTINUOUS
100
AcDbLine
 10
105.684549623015
 20
48.97381329941035
 30
0.0
 11
84.68454962301505
 21
48.97381329941035
 31
0.0
  0
LINE
  5
AED
330
1F
100
AcDbEntity
  8
2_カバ_
  6
CONTINUOUS
100
AcDbLine
 10
84.68454962301505
 20
63.97381329941034
 30
0.0
 11
84.68454962301505
 21
68.97381329941037
 31
0.0
  0
LINE
  5
AEE
330
1F
100
AcDbEntity
  8
2_カバ_
  6
CONTINUOUS
100
AcDbLine
 10
84.18454962301506
 20
49.97381329941035
 30
0.0
 11
67.18454962301507
 21
49.97381329941035
 31
0.0
  0
LINE
  5
AEF
330
1F
100
AcDbEntity
  8
2_カバ_
  6
CONTINUOUS
100
AcDbLine
 10
84.18454962301506
 20
47.97381329941035
 30
0.0
 11
67.18454962301507
 21
47.97381329941035
 31
0.0
  0
LINE
  5
AF0
330
1F
100
AcDbEntity
  8
2_カバ_
  6
CONTINUOUS
100
AcDbLine
 10
84.68454962301505
 20
48.97381329941035
 30
0.0
 11
84.68454962301505
 21
54.97381329941035
 31
0.0
  0
LINE
  5
AF1
330
1F
100
AcDbEntity
  8
2_カバ_
  6
CONTINUOUS
100
AcDbLine
 10
84.18454962301506
 20
47.97381329941035
 30
0.0
 11
84.18454962301506
 21
49.97381329941035
 31
0.0
  0
LINE
  5
AF2
330
1F
100
AcDbEntity
  8
2_カバ_
  6
CONTINUOUS
100
AcDbLine
 10
84.68454962301505
 20
56.97381329941034
 30
0.0
 11
84.68454962301505
 21
61.97381329941034
 31
0.0
  0
LINE
  5
AF3
330
1F
100
AcDbEntity
  8
2_カバ_
  6
CONTINUOUS
100
AcDbLine
 10
84.18454962301506
 20
91.97381329941034
 30
0.0
 11
67.18454962301509
 21
91.97381329941034
 31
0.0
  0
LINE
  5
AF4
330
1F
100
AcDbEntity
  8
2_カバ_
  6
CONTINUOUS
100
AcDbLine
 10
84.18454962301506
 20
89.97381329941033
 30
0.0
 11
67.18454962301509
 21
89.97381329941033
 31
0.0
  0
LINE
  5
AF5
330
1F
100
AcDbEntity
  8
2_カバ_
  6
CONTINUOUS
100
AcDbLine
 10
84.18454962301506
 20
84.97381329941033
 30
0.0
 11
67.18454962301509
 21
84.97381329941033
 31
0.0
  0
LINE
  5
AF6
330
1F
100
AcDbEntity
  8
2_カバ_
  6
CONTINUOUS
100
AcDbLine
 10
84.18454962301506
 20
82.97381329941034
 30
0.0
 11
67.18454962301509
 21
82.97381329941034
 31
0.0
  0
LINE
  5
AF7
330
1F
100
AcDbEntity
  8
2_カバ_
  6
CONTINUOUS
100
AcDbLine
 10
84.18454962301506
 20
77.97381329941034
 30
0.0
 11
67.18454962301509
 21
77.97381329941034
 31
0.0
  0
LINE
  5
AF8
330
1F
100
AcDbEntity
  8
2_カバ_
  6
CONTINUOUS
100
AcDbLine
 10
84.18454962301506
 20
75.97381329941033
 30
0.0
 11
67.18454962301509
 21
75.97381329941033
 31
0.0
  0
LINE
  5
AF9
330
1F
100
AcDbEntity
  8
2_カバ_
  6
CONTINUOUS
100
AcDbLine
 10
84.18454962301506
 20
82.97381329941034
 30
0.0
 11
84.18454962301506
 21
84.97381329941033
 31
0.0
  0
LINE
  5
AFA
330
1F
100
AcDbEntity
  8
2_カバ_
  6
CONTINUOUS
100
AcDbLine
 10
84.68454962301505
 20
70.97381329941033
 30
0.0
 11
84.68454962301505
 21
96.97381329941034
 31
0.0
  0
LINE
  5
AFB
330
1F
100
AcDbEntity
  8
2_カバ_
  6
DASHDOT
100
AcDbLine
 10
86.68454962301506
 20
85.10321387579933
 30
0.0
 11
86.68454962301506
 21
79.01837254207932
 31
0.0
  0
LINE
  5
AFC
330
1F
100
AcDbEntity
  8
2_カバ_
  6
CONTINUOUS
100
AcDbLine
 10
84.18454962301506
 20
75.97381329941033
 30
0.0
 11
84.18454962301506
 21
77.97381329941034
 31
0.0
  0
LINE
  5
AFD
330
1F
100
AcDbEntity
  8
2_カバ_
  6
CONTINUOUS
100
AcDbLine
 10
84.18454962301506
 20
89.97381329941033
 30
0.0
 11
84.18454962301506
 21
91.97381329941034
 31
0.0
  0
LINE
  5
AFE
330
1F
100
AcDbEntity
  8
2_カバ_
  6
CONTINUOUS
100
AcDbLine
 10
84.68454962301505
 20
98.97381329941032
 30
0.0
 11
84.68454962301505
 21
103.9738132994102
 31
0.0
  0
LINE
  5
AFF
330
1F
100
AcDbEntity
  8
2_カバ_
  6
CONTINUOUS
100
AcDbLine
 10
105.684549623015
 20
68.97381329941037
 30
0.0
 11
105.684549623015
 21
63.97381329941034
 31
0.0
  0
LINE
  5
B00
330
1F
100
AcDbEntity
  8
2_カバ_
  6
CONTINUOUS
100
AcDbLine
 10
100.1845496230149
 20
53.47381329941035
 30
0.0
 11
90.18454962301506
 21
53.47381329941035
 31
0.0
  0
LINE
  5
B01
330
1F
100
AcDbEntity
  8
2_カバ_
  6
CONTINUOUS
100
AcDbLine
 10
90.18454962301506
 20
49.97381329941035
 30
0.0
 11
100.1845496230149
 21
49.97381329941035
 31
0.0
  0
ARC
  5
B02
330
1F
100
AcDbEntity
  8
2_カバ_
  6
CONTINUOUS
100
AcDbCircle
 10
90.18454962301506
 20
52.97381329941131
 30
0.0
 40
0.5
100
AcDbArc
 50
90.0
 51
180.0
  0
ARC
  5
B03
330
1F
100
AcDbEntity
  8
2_カバ_
  6
CONTINUOUS
100
AcDbCircle
 10
90.18454962301506
 20
50.47381329941035
 30
0.0
 40
0.5
100
AcDbArc
 50
180.0
 51
270.0
  0
LINE
  5
B04
330
1F
100
AcDbEntity
  8
2_カバ_
  6
CONTINUOUS
100
AcDbLine
 10
89.68454962301505
 20
52.97381329941131
 30
0.0
 11
89.68454962301505
 21
50.47381329941035
 31
0.0
  0
ARC
  5
B05
330
1F
100
AcDbEntity
  8
2_カバ_
  6
CONTINUOUS
100
AcDbCircle
 10
100.1845496230149
 20
52.97381329941035
 30
0.0
 40
0.5
100
AcDbArc
 50
0.0
 51
90.0
  0
ARC
  5
B06
330
1F
100
AcDbEntity
  8
2_カバ_
  6
CONTINUOUS
100
AcDbCircle
 10
100.1845496230149
 20
50.47381329941035
 30
0.0
 40
0.5
100
AcDbArc
 50
270.0
 51
0.0
  0
LINE
  5
B07
330
1F
100
AcDbEntity
  8
2_カバ_
  6
CONTINUOUS
100
AcDbLine
 10
100.684549623015
 20
50.47381329941035
 30
0.0
 11
100.684549623015
 21
52.97381329941035
 31
0.0
  0
LINE
  5
B08
330
1F
100
AcDbEntity
  8
2_カバ_
  6
CONTINUOUS
100
AcDbLine
 10
105.684549623015
 20
54.97381329941035
 30
0.0
 11
105.684549623015
 21
48.97381329941035
 31
0.0
  0
LINE
  5
B09
330
1F
100
AcDbEntity
  8
2_カバ_
  6
CONTINUOUS
100
AcDbLine
 10
108.184549623015
 20
49.97381329941035
 30
0.0
 11
106.184549623015
 21
49.97381329941035
 31
0.0
  0
LINE
  5
B0A
330
1F
100
AcDbEntity
  8
2_カバ_
  6
CONTINUOUS
100
AcDbLine
 10
108.184549623015
 20
47.97381329941035
 30
0.0
 11
106.184549623015
 21
47.97381329941035
 31
0.0
  0
LINE
  5
B0B
330
1F
100
AcDbEntity
  8
2_カバ_
  6
CONTINUOUS
100
AcDbLine
 10
107.184549623015
 20
47.97381329941035
 30
0.0
 11
107.184549623015
 21
49.97381329941035
 31
0.0
  0
LINE
  5
B0C
330
1F
100
AcDbEntity
  8
2_カバ_
  6
CONTINUOUS
100
AcDbLine
 10
106.184549623015
 20
47.97381329941035
 30
0.0
 11
106.184549623015
 21
49.97381329941035
 31
0.0
  0
LINE
  5
B0D
330
1F
100
AcDbEntity
  8
2_カバ_
  6
CONTINUOUS
100
AcDbLine
 10
105.684549623015
 20
61.97381329941034
 30
0.0
 11
105.684549623015
 21
56.97381329941132
 31
0.0
  0
LINE
  5
B0E
330
1F
100
AcDbEntity
  8
2_カバ_
  6
CONTINUOUS
100
AcDbLine
 10
107.184549623015
 20
54.97381329941035
 30
0.0
 11
107.184549623015
 21
56.97381329941034
 31
0.0
  0
LINE
  5
B0F
330
1F
100
AcDbEntity
  8
2_カバ_
  6
CONTINUOUS
100
AcDbLine
 10
106.184549623015
 20
54.97381329941035
 30
0.0
 11
106.184549623015
 21
56.97381329941034
 31
0.0
  0
LINE
  5
B10
330
1F
100
AcDbEntity
  8
2_カバ_
  6
CONTINUOUS
100
AcDbLine
 10
107.184549623015
 20
61.97381329941034
 30
0.0
 11
107.184549623015
 21
63.97381329941034
 31
0.0
  0
LINE
  5
B11
330
1F
100
AcDbEntity
  8
2_カバ_
  6
CONTINUOUS
100
AcDbLine
 10
106.184549623015
 20
61.97381329941034
 30
0.0
 11
106.184549623015
 21
63.97381329941034
 31
0.0
  0
LINE
  5
B12
330
1F
100
AcDbEntity
  8
2_カバ_
  6
CONTINUOUS
100
AcDbLine
 10
107.184549623015
 20
96.97381329941034
 30
0.0
 11
107.184549623015
 21
98.97381329941032
 31
0.0
  0
LINE
  5
B13
330
1F
100
AcDbEntity
  8
2_カバ_
  6
CONTINUOUS
100
AcDbLine
 10
106.184549623015
 20
96.97381329941034
 30
0.0
 11
106.184549623015
 21
98.97381329941032
 31
0.0
  0
LINE
  5
B14
330
1F
100
AcDbEntity
  8
2_カバ_
  6
CONTINUOUS
100
AcDbLine
 10
104.1845496230149
 20
92.47381329941031
 30
0.0
 11
101.684549623015
 21
92.47381329941127
 31
0.0
  0
LINE
  5
B15
330
1F
100
AcDbEntity
  8
2_カバ_
  6
CONTINUOUS
100
AcDbLine
 10
104.1845496230149
 20
86.47381329941032
 30
0.0
 11
101.684549623015
 21
86.47381329941032
 31
0.0
  0
LINE
  5
B16
330
1F
100
AcDbEntity
  8
2_カバ_
  6
DASHDOT
100
AcDbLine
 10
100.1056597409639
 20
89.47381329941034
 30
0.0
 11
106.8541677470191
 21
89.47381329941034
 31
0.0
  0
LINE
  5
B17
330
1F
100
AcDbEntity
  8
2_カバ_
  6
CONTINUOUS
100
AcDbLine
 10
101.1845496230149
 20
91.97381329941132
 30
0.0
 11
101.1845496230149
 21
86.97381329941034
 31
0.0
  0
ARC
  5
B18
330
1F
100
AcDbEntity
  8
2_カバ_
  6
CONTINUOUS
100
AcDbCircle
 10
101.684549623015
 20
86.97381329941034
 30
0.0
 40
0.5
100
AcDbArc
 50
180.0
 51
270.0
  0
ARC
  5
B19
330
1F
100
AcDbEntity
  8
2_カバ_
  6
CONTINUOUS
100
AcDbCircle
 10
101.684549623015
 20
91.97381329941132
 30
0.0
 40
0.5
100
AcDbArc
 50
89.99999999999673
 51
180.0
  0
LINE
  5
B1A
330
1F
100
AcDbEntity
  8
2_カバ_
  6
CONTINUOUS
100
AcDbLine
 10
107.184549623015
 20
82.97381329941034
 30
0.0
 11
107.184549623015
 21
84.97381329941033
 31
0.0
  0
LINE
  5
B1B
330
1F
100
AcDbEntity
  8
2_カバ_
  6
CONTINUOUS
100
AcDbLine
 10
106.184549623015
 20
82.97381329941034
 30
0.0
 11
106.184549623015
 21
84.97381329941033
 31
0.0
  0
LINE
  5
B1C
330
1F
100
AcDbEntity
  8
2_カバ_
  6
CONTINUOUS
100
AcDbLine
 10
105.684549623015
 20
96.97381329941034
 30
0.0
 11
105.684549623015
 21
70.97381329941132
 31
0.0
  0
LINE
  5
B1D
330
1F
100
AcDbEntity
  8
2_カバ_
  6
CONTINUOUS
100
AcDbLine
 10
107.184549623015
 20
75.97381329941033
 30
0.0
 11
107.184549623015
 21
77.97381329941131
 31
0.0
  0
LINE
  5
B1E
330
1F
100
AcDbEntity
  8
2_カバ_
  6
CONTINUOUS
100
AcDbLine
 10
106.184549623015
 20
75.97381329941033
 30
0.0
 11
106.184549623015
 21
77.97381329941131
 31
0.0
  0
LINE
  5
B1F
330
1F
100
AcDbEntity
  8
2_カバ_
  6
CONTINUOUS
100
AcDbLine
 10
108.184549623015
 20
75.97381329941033
 30
0.0
 11
106.184549623015
 21
75.97381329941033
 31
0.0
  0
LINE
  5
B20
330
1F
100
AcDbEntity
  8
2_カバ_
  6
CONTINUOUS
100
AcDbLine
 10
107.184549623015
 20
68.97381329941037
 30
0.0
 11
107.184549623015
 21
70.97381329941033
 31
0.0
  0
LINE
  5
B21
330
1F
100
AcDbEntity
  8
2_カバ_
  6
CONTINUOUS
100
AcDbLine
 10
106.184549623015
 20
68.97381329941037
 30
0.0
 11
106.184549623015
 21
70.97381329941033
 31
0.0
  0
LINE
  5
B22
330
1F
100
AcDbEntity
  8
2_カバ_
  6
CONTINUOUS
100
AcDbLine
 10
108.184549623015
 20
82.97381329941034
 30
0.0
 11
106.184549623015
 21
82.97381329941034
 31
0.0
  0
LINE
  5
B23
330
1F
100
AcDbEntity
  8
2_カバ_
  6
CONTINUOUS
100
AcDbLine
 10
108.184549623015
 20
77.97381329941034
 30
0.0
 11
106.184549623015
 21
77.97381329941034
 31
0.0
  0
LINE
  5
B24
330
1F
100
AcDbEntity
  8
2_カバ_
  6
CONTINUOUS
100
AcDbLine
 10
107.184549623015
 20
89.97381329941033
 30
0.0
 11
107.184549623015
 21
91.97381329941034
 31
0.0
  0
LINE
  5
B25
330
1F
100
AcDbEntity
  8
2_カバ_
  6
CONTINUOUS
100
AcDbLine
 10
104.684549623015
 20
86.97381329941034
 30
0.0
 11
104.684549623015
 21
91.97381329941034
 31
0.0
  0
LINE
  5
B26
330
1F
100
AcDbEntity
  8
2_カバ_
  6
CONTINUOUS
100
AcDbLine
 10
106.184549623015
 20
89.97381329941033
 30
0.0
 11
106.184549623015
 21
91.97381329941034
 31
0.0
  0
LINE
  5
B27
330
1F
100
AcDbEntity
  8
2_カバ_
  6
CONTINUOUS
100
AcDbLine
 10
108.184549623015
 20
84.97381329941033
 30
0.0
 11
106.184549623015
 21
84.97381329941033
 31
0.0
  0
LINE
  5
B28
330
1F
100
AcDbEntity
  8
2_カバ_
  6
CONTINUOUS
100
AcDbLine
 10
108.184549623015
 20
89.97381329941033
 30
0.0
 11
106.184549623015
 21
89.97381329941033
 31
0.0
  0
ARC
  5
B29
330
1F
100
AcDbEntity
  8
2_カバ_
  6
CONTINUOUS
100
AcDbCircle
 10
104.1845496230149
 20
86.97381329941034
 30
0.0
 40
0.5
100
AcDbArc
 50
270.0
 51
0.0
  0
LINE
  5
B2A
330
1F
100
AcDbEntity
  8
2_カバ_
  6
CONTINUOUS
100
AcDbLine
 10
108.184549623015
 20
91.97381329941034
 30
0.0
 11
106.184549623015
 21
91.97381329941034
 31
0.0
  0
ARC
  5
B2B
330
1F
100
AcDbEntity
  8
2_カバ_
  6
CONTINUOUS
100
AcDbCircle
 10
104.1845496230149
 20
91.97381329941034
 30
0.0
 40
0.5
100
AcDbArc
 50
0.0
 51
90.0
  0
LINE
  5
B2C
330
1F
100
AcDbEntity
  8
2_カバ_
  6
CONTINUOUS
100
AcDbLine
 10
105.684549623015
 20
103.9738132994102
 30
0.0
 11
105.684549623015
 21
98.97381329941032
 31
0.0
  0
MTEXT
  5
BD6
330
1F
100
AcDbEntity
  8
0
100
AcDbMText
 10
35.91541124453442
 20
404.9769631532774
 30
0.0
 40
10.0
 41
0.0
 71
     1
 72
     5
  1
SCON-CA-400I~750I-CN-*-1/2\PSCON-CA-100SI~750SI-CN-*-1/2
1001
ACAD
1000
MTEXTBEGIN
1070
    73
1070
     1
1070
    44
1040
1.0
1070
    74
1070
     0
1000
MTEXTEND
  0
ENDSEC
  0
SECTION
  2
OBJECTS
  0
DICTIONARY
  5
C
330
0
100
AcDbDictionary
  3
ACAD_GROUP
350
D
  3
ACAD_LAYOUT
350
1A
  3
ACAD_MLINESTYLE
350
17
  3
ACAD_PLOTSETTINGS
350
19
  3
ACAD_PLOTSTYLENAME
350
E
  3
ACDBHEADERROUNDTRIPXREC
350
BD8
  3
ACDBVARIABLEDICTIONARY
350
8FC
  0
DICTIONARY
  5
338
330
2
100
AcDbDictionary
280
     1
  3
ACAD_LAYERSTATES
360
339
  0
DICTIONARY
  5
922
330
1F
100
AcDbDictionary
280
     1
  3
ACAD_LAYOUTSELFREF
360
BF9
  0
DICTIONARY
  5
920
330
1B
100
AcDbDictionary
280
     1
  3
ACAD_LAYOUTSELFREF
360
BF8
  0
DICTIONARY
  5
D
102
{ACAD_REACTORS
330
C
102
}
330
C
100
AcDbDictionary
  0
DICTIONARY
  5
1A
102
{ACAD_REACTORS
330
C
102
}
330
C
100
AcDbDictionary
  0
DICTIONARY
  5
17
102
{ACAD_REACTORS
330
C
102
}
330
C
100
AcDbDictionary
  3
STANDARD
350
18
  0
DICTIONARY
  5
19
102
{ACAD_REACTORS
330
C
102
}
330
C
100
AcDbDictionary
  0
ACDBDICTIONARYWDFLT
  5
E
102
{ACAD_REACTORS
330
C
102
}
330
C
100
AcDbDictionary
281
     1
  3
Normal
350
F
100
AcDbDictionaryWithDefault
340
F
  0
DICTIONARY
  5
BD8
102
{ACAD_REACTORS
330
C
102
}
330
C
100
AcDbDictionary
  3
CEPSNTYPE
350
BE2
  3
FINGERPRINTGUID
350
BE3
  3
HYPERLINKBASE
350
BDB
  3
INSUNITS
350
BE1
  3
LAYOUTDICT
350
BDD
  3
LWETCUNION
350
BE0
  3
PLOTSETDICT
350
BDE
  3
PLOTSTYLNAMDICT
350
BDF
  3
PSVPSCALE
350
BE5
  3
PUCSBASE
350
BE8
  3
PUCSORGBACK
350
BEE
  3
PUCSORGBOTTOM
350
BEA
  3
PUCSORGFRONT
350
BED
  3
PUCSORGLEFT
350
BEB
  3
PUCSORGRIGHT
350
BEC
  3
PUCSORGTOP
350
BE9
  3
PUCSORTHOREF
350
BE6
  3
PUCSORTHOVIEW
350
BE7
  3
STYLESHEET
350
BDC
  3
TSTACKALIGN
350
BD9
  3
TSTACKSIZE
350
BDA
  3
UCSBASE
350
BF1
  3
UCSORGBACK
350
BF7
  3
UCSORGBOTTOM
350
BF3
  3
UCSORGFRONT
350
BF6
  3
UCSORGLEFT
350
BF4
  3
UCSORGRIGHT
350
BF5
  3
UCSORGTOP
350
BF2
  3
UCSORTHOREF
350
BEF
  3
UCSORTHOVIEW
350
BF0
  3
VERSIONGUID
350
BE4
  0
DICTIONARY
  5
8FC
102
{ACAD_REACTORS
330
C
102
}
330
C
100
AcDbDictionary
  3
DIMASSOC
350
8FE
  3
HIDETEXT
350
8FD
  0
DICTIONARY
  5
339
102
{ACAD_REACTORS
330
338
102
}
330
338
100
AcDbDictionary
  0
XRECORD
  5
BF9
102
{ACAD_REACTORS
330
922
102
}
330
922
100
AcDbXrecord
340
1F
  0
XRECORD
  5
BF8
102
{ACAD_REACTORS
330
920
102
}
330
920
100
AcDbXrecord
340
1B
  0
MLINESTYLE
  5
18
102
{ACAD_REACTORS
330
17
102
}
330
17
100
AcDbMlineStyle
  2
STANDARD
 70
     0
  3

 62
   256
 51
90.0
 52
90.0
 71
     2
 49
0.5
 62
   256
  6
BYLAYER
 49
-0.5
 62
   256
  6
BYLAYER
  0
ACDBPLACEHOLDER
  5
F
102
{ACAD_REACTORS
330
E
102
}
330
E
100
AcDbPlaceHolder
280
     0
  0
XRECORD
  5
BE2
102
{ACAD_REACTORS
330
BD8
102
}
330
BD8
100
AcDbXrecord
 90
        0
  0
XRECORD
  5
BE3
102
{ACAD_REACTORS
330
BD8
102
}
330
BD8
100
AcDbXrecord
  1
{0076E6DC-AC5E-4C4B-8C51-50B9AF6A1716}
  0
XRECORD
  5
BDB
102
{ACAD_REACTORS
330
BD8
102
}
330
BD8
100
AcDbXrecord
  1

  0
XRECORD
  5
BE1
102
{ACAD_REACTORS
330
BD8
102
}
330
BD8
100
AcDbXrecord
 90
        4
  0
XRECORD
  5
BDD
102
{ACAD_REACTORS
330
BD8
102
}
330
BD8
100
AcDbXrecord
340
1A
  0
XRECORD
  5
BE0
102
{ACAD_REACTORS
330
BD8
102
}
330
BD8
100
AcDbXrecord
 90
    10781
  0
XRECORD
  5
BDE
102
{ACAD_REACTORS
330
BD8
102
}
330
BD8
100
AcDbXrecord
340
19
  0
XRECORD
  5
BDF
102
{ACAD_REACTORS
330
BD8
102
}
330
BD8
100
AcDbXrecord
340
E
  0
XRECORD
  5
BE5
102
{ACAD_REACTORS
330
BD8
102
}
330
BD8
100
AcDbXrecord
 40
0.0
  0
XRECORD
  5
BE8
102
{ACAD_REACTORS
330
BD8
102
}
330
BD8
100
AcDbXrecord
340
0
  0
XRECORD
  5
BEE
102
{ACAD_REACTORS
330
BD8
102
}
330
BD8
100
AcDbXrecord
 10
0.0
 20
0.0
 30
0.0
  0
XRECORD
  5
BEA
102
{ACAD_REACTORS
330
BD8
102
}
330
BD8
100
AcDbXrecord
 10
0.0
 20
0.0
 30
0.0
  0
XRECORD
  5
BED
102
{ACAD_REACTORS
330
BD8
102
}
330
BD8
100
AcDbXrecord
 10
0.0
 20
0.0
 30
0.0
  0
XRECORD
  5
BEB
102
{ACAD_REACTORS
330
BD8
102
}
330
BD8
100
AcDbXrecord
 10
0.0
 20
0.0
 30
0.0
  0
XRECORD
  5
BEC
102
{ACAD_REACTORS
330
BD8
102
}
330
BD8
100
AcDbXrecord
 10
0.0
 20
0.0
 30
0.0
  0
XRECORD
  5
BE9
102
{ACAD_REACTORS
330
BD8
102
}
330
BD8
100
AcDbXrecord
 10
0.0
 20
0.0
 30
0.0
  0
XRECORD
  5
BE6
102
{ACAD_REACTORS
330
BD8
102
}
330
BD8
100
AcDbXrecord
340
0
  0
XRECORD
  5
BE7
102
{ACAD_REACTORS
330
BD8
102
}
330
BD8
100
AcDbXrecord
 70
     0
  0
XRECORD
  5
BDC
102
{ACAD_REACTORS
330
BD8
102
}
330
BD8
100
AcDbXrecord
  1

  0
XRECORD
  5
BD9
102
{ACAD_REACTORS
330
BD8
102
}
330
BD8
100
AcDbXrecord
 90
        1
  0
XRECORD
  5
BDA
102
{ACAD_REACTORS
330
BD8
102
}
330
BD8
100
AcDbXrecord
 90
       70
  0
XRECORD
  5
BF1
102
{ACAD_REACTORS
330
BD8
102
}
330
BD8
100
AcDbXrecord
340
0
  0
XRECORD
  5
BF7
102
{ACAD_REACTORS
330
BD8
102
}
330
BD8
100
AcDbXrecord
 10
0.0
 20
0.0
 30
0.0
  0
XRECORD
  5
BF3
102
{ACAD_REACTORS
330
BD8
102
}
330
BD8
100
AcDbXrecord
 10
0.0
 20
0.0
 30
0.0
  0
XRECORD
  5
BF6
102
{ACAD_REACTORS
330
BD8
102
}
330
BD8
100
AcDbXrecord
 10
0.0
 20
0.0
 30
0.0
  0
XRECORD
  5
BF4
102
{ACAD_REACTORS
330
BD8
102
}
330
BD8
100
AcDbXrecord
 10
0.0
 20
0.0
 30
0.0
  0
XRECORD
  5
BF5
102
{ACAD_REACTORS
330
BD8
102
}
330
BD8
100
AcDbXrecord
 10
0.0
 20
0.0
 30
0.0
  0
XRECORD
  5
BF2
102
{ACAD_REACTORS
330
BD8
102
}
330
BD8
100
AcDbXrecord
 10
0.0
 20
0.0
 30
0.0
  0
XRECORD
  5
BEF
102
{ACAD_REACTORS
330
BD8
102
}
330
BD8
100
AcDbXrecord
340
0
  0
XRECORD
  5
BF0
102
{ACAD_REACTORS
330
BD8
102
}
330
BD8
100
AcDbXrecord
 70
     0
  0
XRECORD
  5
BE4
102
{ACAD_REACTORS
330
BD8
102
}
330
BD8
100
AcDbXrecord
  1
{231D66CE-2B98-4EA3-ADA7-319020162AC5}
  0
DICTIONARYVAR
  5
8FE
102
{ACAD_REACTORS
330
8FC
102
}
330
8FC
100
DictionaryVariables
280
     0
  1
2
  0
DICTIONARYVAR
  5
8FD
102
{ACAD_REACTORS
330
8FC
102
}
330
8FC
100
DictionaryVariables
280
     0
  1
1
  0
ENDSEC
  0
EOF
