  0
SECTION
  2
HEADER
  9
$ACADVER
  1
AC1014
  9
$ACADMAINTVER
 70
     9
  9
$DWGCODEPAGE
  3
ANSI_932
  9
$INSBASE
 10
0.0
 20
0.0
 30
0.0
  9
$EXTMIN
 10
-5.651358422982772
 20
0.0000001354043206
 30
0.0
  9
$EXTMAX
 10
432.9351561832872
 20
404.4751849956795
 30
0.0
  9
$LIMMIN
 10
0.0
 20
0.0
  9
$LIMMAX
 10
420.0
 20
297.0
  9
$ORTHOMODE
 70
     0
  9
$REGENMODE
 70
     1
  9
$FILLMODE
 70
     1
  9
$QTEXTMODE
 70
     0
  9
$MIRRTEXT
 70
     1
  9
$DRAGMODE
 70
     2
  9
$LTSCALE
 40
1.0
  9
$OSMODE
 70
    55
  9
$ATTMODE
 70
     1
  9
$TEXTSIZE
 40
2.5
  9
$TRACEWID
 40
1.0
  9
$TEXTSTYLE
  7
STANDARD
  9
$CLAYER
  8
0
  9
$CELTYPE
  6
BYLAYER
  9
$CECOLOR
 62
   256
  9
$CELTSCALE
 40
1.0
  9
$DELOBJ
 70
     1
  9
$DISPSILH
 70
     0
  9
$DIMSCALE
 40
1.0
  9
$DIMASZ
 40
2.5
  9
$DIMEXO
 40
0.625
  9
$DIMDLI
 40
3.75
  9
$DIMRND
 40
0.0
  9
$DIMDLE
 40
0.0
  9
$DIMEXE
 40
1.25
  9
$DIMTP
 40
0.0
  9
$DIMTM
 40
0.0
  9
$DIMTXT
 40
2.5
  9
$DIMCEN
 40
2.5
  9
$DIMTSZ
 40
0.0
  9
$DIMTOL
 70
     0
  9
$DIMLIM
 70
     0
  9
$DIMTIH
 70
     0
  9
$DIMTOH
 70
     0
  9
$DIMSE1
 70
     0
  9
$DIMSE2
 70
     0
  9
$DIMTAD
 70
     1
  9
$DIMZIN
 70
     8
  9
$DIMBLK
  1

  9
$DIMASO
 70
     1
  9
$DIMSHO
 70
     1
  9
$DIMPOST
  1

  9
$DIMAPOST
  1

  9
$DIMALT
 70
     0
  9
$DIMALTD
 70
     3
  9
$DIMALTF
 40
0.03937007874016
  9
$DIMLFAC
 40
1.0
  9
$DIMTOFL
 70
     1
  9
$DIMTVP
 40
0.0
  9
$DIMTIX
 70
     0
  9
$DIMSOXD
 70
     0
  9
$DIMSAH
 70
     0
  9
$DIMBLK1
  1

  9
$DIMBLK2
  1

  9
$DIMSTYLE
  2
ISO-25
  9
$DIMCLRD
 70
     0
  9
$DIMCLRE
 70
     0
  9
$DIMCLRT
 70
     0
  9
$DIMTFAC
 40
1.0
  9
$DIMGAP
 40
0.625
  9
$DIMJUST
 70
     0
  9
$DIMSD1
 70
     0
  9
$DIMSD2
 70
     0
  9
$DIMTOLJ
 70
     0
  9
$DIMTZIN
 70
     8
  9
$DIMALTZ
 70
     0
  9
$DIMALTTZ
 70
     0
  9
$DIMFIT
 70
     3
  9
$DIMUPT
 70
     0
  9
$DIMUNIT
 70
     2
  9
$DIMDEC
 70
     2
  9
$DIMTDEC
 70
     2
  9
$DIMALTU
 70
     2
  9
$DIMALTTD
 70
     3
  9
$DIMTXSTY
  7
STANDARD
  9
$DIMAUNIT
 70
     0
  9
$LUNITS
 70
     2
  9
$LUPREC
 70
     4
  9
$SKETCHINC
 40
1.0
  9
$FILLETRAD
 40
10.0
  9
$AUNITS
 70
     0
  9
$AUPREC
 70
     0
  9
$MENU
  1
.
  9
$ELEVATION
 40
0.0
  9
$PELEVATION
 40
0.0
  9
$THICKNESS
 40
0.0
  9
$LIMCHECK
 70
     0
  9
$BLIPMODE
 70
     0
  9
$CHAMFERA
 40
10.0
  9
$CHAMFERB
 40
10.0
  9
$CHAMFERC
 40
20.0
  9
$CHAMFERD
 40
0.0
  9
$SKPOLY
 70
     0
  9
$TDCREATE
 40
2455874.794318321
  9
$TDUPDATE
 40
2456013.757335347
  9
$TDINDWG
 40
0.0059160069
  9
$TDUSRTIMER
 40
0.0059152894
  9
$USRTIMER
 70
     1
  9
$ANGBASE
 50
0.0
  9
$ANGDIR
 70
     0
  9
$PDMODE
 70
     0
  9
$PDSIZE
 40
0.0
  9
$PLINEWID
 40
0.0
  9
$COORDS
 70
     1
  9
$SPLFRAME
 70
     0
  9
$SPLINETYPE
 70
     6
  9
$SPLINESEGS
 70
     8
  9
$ATTDIA
 70
     0
  9
$ATTREQ
 70
     1
  9
$HANDLING
 70
 22529
  9
$HANDSEED
  5
B95
  9
$SURFTAB1
 70
     6
  9
$SURFTAB2
 70
     6
  9
$SURFTYPE
 70
     6
  9
$SURFU
 70
     6
  9
$SURFV
 70
     6
  9
$UCSNAME
  2

  9
$UCSORG
 10
0.0
 20
0.0
 30
0.0
  9
$UCSXDIR
 10
1.0
 20
0.0
 30
0.0
  9
$UCSYDIR
 10
0.0
 20
1.0
 30
0.0
  9
$PUCSNAME
  2

  9
$PUCSORG
 10
0.0
 20
0.0
 30
0.0
  9
$PUCSXDIR
 10
1.0
 20
0.0
 30
0.0
  9
$PUCSYDIR
 10
0.0
 20
1.0
 30
0.0
  9
$USERI1
 70
     0
  9
$USERI2
 70
     0
  9
$USERI3
 70
     0
  9
$USERI4
 70
     0
  9
$USERI5
 70
     0
  9
$USERR1
 40
0.0
  9
$USERR2
 40
0.0
  9
$USERR3
 40
0.0
  9
$USERR4
 40
0.0
  9
$USERR5
 40
0.0
  9
$WORLDVIEW
 70
     1
  9
$SHADEDGE
 70
     3
  9
$SHADEDIF
 70
    70
  9
$TILEMODE
 70
     1
  9
$MAXACTVP
 70
    64
  9
$PINSBASE
 10
0.0
 20
0.0
 30
0.0
  9
$PLIMCHECK
 70
     0
  9
$PEXTMIN
 10
1.000000000000000E+20
 20
1.000000000000000E+20
 30
1.000000000000000E+20
  9
$PEXTMAX
 10
-1.000000000000000E+20
 20
-1.000000000000000E+20
 30
-1.000000000000000E+20
  9
$PLIMMIN
 10
0.0
 20
0.0
  9
$PLIMMAX
 10
420.0
 20
297.0
  9
$UNITMODE
 70
     0
  9
$VISRETAIN
 70
     1
  9
$PLINEGEN
 70
     0
  9
$PSLTSCALE
 70
     1
  9
$TREEDEPTH
 70
  3020
  9
$PICKSTYLE
 70
     1
  9
$CMLSTYLE
  2
STANDARD
  9
$CMLJUST
 70
     0
  9
$CMLSCALE
 40
20.0
  9
$PROXYGRAPHICS
 70
     1
  9
$MEASUREMENT
 70
     1
  0
ENDSEC
  0
SECTION
  2
CLASSES
  0
CLASS
  1
ACDBDICTIONARYWDFLT
  2
AcDbDictionaryWithDefault
  3
AutoCAD 2000
 90
        0
280
     0
281
     0
  0
CLASS
  1
ACDBPLACEHOLDER
  2
AcDbPlaceHolder
  3
AutoCAD 2000
 90
        0
280
     0
281
     0
  0
CLASS
  1
LAYOUT
  2
AcDbLayout
  3
AutoCAD 2000
 90
        0
280
     0
281
     0
  0
CLASS
  1
DICTIONARYVAR
  2
AcDbDictionaryVar
  3
AutoCAD 2000
 90
        0
280
     0
281
     0
  0
CLASS
  1
LONG_TRANSACTION
  2
AcDbLongTransaction
  3
AutoCAD 2000
 90
        0
280
     0
281
     0
  0
CLASS
  1
LWPOLYLINE
  2
AcDbPolyline
  3
AutoCAD 2000
 90
        0
280
     0
281
     1
  0
CLASS
  1
HATCH
  2
AcDbHatch
  3
AutoCAD 2000
 90
        0
280
     0
281
     1
  0
CLASS
  1
XRECORD
  2
AcDbXrecord
  3
AutoCAD 2000
 90
        0
280
     0
281
     0
  0
CLASS
  1
LONG_TRANSACTION
  2
AcDbLongTransaction
  3
AutoCAD 2000
 90
        0
280
     0
281
     0
  0
CLASS
  1
LWPOLYLINE
  2
AcDbPolyline
  3
AutoCAD 2000
 90
        0
280
     0
281
     1
  0
CLASS
  1
HATCH
  2
AcDbHatch
  3
AutoCAD 2000
 90
        0
280
     0
281
     1
  0
CLASS
  1
XRECORD
  2
AcDbXrecord
  3
AutoCAD 2000
 90
        0
280
     0
281
     0
  0
CLASS
  1
LONG_TRANSACTION
  2
AcDbLongTransaction
  3
AutoCAD 2000
 90
        0
280
     0
281
     0
  0
CLASS
  1
LWPOLYLINE
  2
AcDbPolyline
  3
AutoCAD 2000
 90
        0
280
     0
281
     1
  0
CLASS
  1
HATCH
  2
AcDbHatch
  3
AutoCAD 2000
 90
        0
280
     0
281
     1
  0
CLASS
  1
XRECORD
  2
AcDbXrecord
  3
AutoCAD 2000
 90
        0
280
     0
281
     0
  0
CLASS
  1
LONG_TRANSACTION
  2
AcDbLongTransaction
  3
AutoCAD 2000
 90
        0
280
     0
281
     0
  0
CLASS
  1
LWPOLYLINE
  2
AcDbPolyline
  3
AutoCAD 2000
 90
        0
280
     0
281
     1
  0
CLASS
  1
HATCH
  2
AcDbHatch
  3
AutoCAD 2000
 90
        0
280
     0
281
     1
  0
CLASS
  1
XRECORD
  2
AcDbXrecord
  3
AutoCAD 2000
 90
        0
280
     0
281
     0
  0
CLASS
  1
LONG_TRANSACTION
  2
AcDbLongTransaction
  3
AutoCAD 2000
 90
        0
280
     0
281
     0
  0
CLASS
  1
LWPOLYLINE
  2
AcDbPolyline
  3
AutoCAD 2000
 90
        0
280
     0
281
     1
  0
CLASS
  1
HATCH
  2
AcDbHatch
  3
AutoCAD 2000
 90
        0
280
     0
281
     1
  0
CLASS
  1
XRECORD
  2
AcDbXrecord
  3
AutoCAD 2000
 90
        0
280
     0
281
     0
  0
ENDSEC
  0
SECTION
  2
TABLES
  0
TABLE
  2
VPORT
  5
8
330
0
100
AcDbSymbolTable
 70
     2
  0
VPORT
  5
B72
330
8
100
AcDbSymbolTableRecord
100
AcDbViewportTableRecord
  2
*ACTIVE
 70
     0
 10
0.0
 20
0.0
 11
1.0
 21
1.0
 12
143.6860665745173
 22
202.2365348727168
 13
0.0
 23
0.0
 14
10.0
 24
10.0
 15
10.0
 25
10.0
 16
0.0
 26
0.0
 36
1.0
 17
0.0
 27
0.0
 37
0.0
 40
407.4365200451373
 41
1.46415552855407
 42
50.0
 43
0.0
 44
0.0
 50
0.0
 51
0.0
 71
     0
 72
   100
 73
     1
 74
     3
 75
     0
 76
     0
 77
     0
 78
     0
  0
ENDTAB
  0
TABLE
  2
LTYPE
  5
5
330
0
100
AcDbSymbolTable
 70
     3
  0
LTYPE
  5
14
330
5
100
AcDbSymbolTableRecord
100
AcDbLinetypeTableRecord
  2
BYBLOCK
 70
     0
  3

 72
    65
 73
     0
 40
0.0
  0
LTYPE
  5
15
330
5
100
AcDbSymbolTableRecord
100
AcDbLinetypeTableRecord
  2
BYLAYER
 70
     0
  3

 72
    65
 73
     0
 40
0.0
  0
LTYPE
  5
16
330
5
100
AcDbSymbolTableRecord
100
AcDbLinetypeTableRecord
  2
CONTINUOUS
 70
     0
  3
Solid line
 72
    65
 73
     0
 40
0.0
  0
LTYPE
  5
47D
330
5
100
AcDbSymbolTableRecord
100
AcDbLinetypeTableRecord
  2
CENTER
 70
     0
  3
__ . __ . __ . __ . __ . __ . __ . __ . __ . __
 72
    65
 73
     4
 40
1.0
 49
0.5
 74
     0
 49
-0.25
 74
     0
 49
0.0
 74
     0
 49
-0.25
 74
     0
  0
LTYPE
  5
A26
330
5
100
AcDbSymbolTableRecord
100
AcDbLinetypeTableRecord
  2
DASHDOT
 70
     0
  3
__ . __ . __ . __ . __ . __ . __ . __ . __ . __
 72
    65
 73
     4
 40
7.5
 49
6.0
 74
     0
 49
-0.5
 74
     0
 49
0.5
 74
     0
 49
-0.5
 74
     0
  0
ENDTAB
  0
TABLE
  2
LAYER
  5
2
102
{ACAD_XDICTIONARY
360
480
102
}
330
0
100
AcDbSymbolTable
 70
     3
  0
LAYER
  5
10
330
2
100
AcDbSymbolTableRecord
100
AcDbLayerTableRecord
  2
0
 70
     0
 62
     7
  6
CONTINUOUS
  0
LAYER
  5
47E
330
2
100
AcDbSymbolTableRecord
100
AcDbLayerTableRecord
  2
1
 70
     0
 62
     3
  6
CONTINUOUS
  0
LAYER
  5
A27
330
2
100
AcDbSymbolTableRecord
100
AcDbLayerTableRecord
  2
2_カバ_
 70
     0
 62
     7
  6
CONTINUOUS
  0
ENDTAB
  0
TABLE
  2
STYLE
  5
3
330
0
100
AcDbSymbolTable
 70
     1
  0
STYLE
  5
11
330
3
100
AcDbSymbolTableRecord
100
AcDbTextStyleTableRecord
  2
STANDARD
 70
     0
 40
0.0
 41
1.0
 50
0.0
 71
     0
 42
2.5
  3
txt
  4

  0
ENDTAB
  0
TABLE
  2
VIEW
  5
6
330
0
100
AcDbSymbolTable
 70
     0
  0
ENDTAB
  0
TABLE
  2
UCS
  5
7
330
0
100
AcDbSymbolTable
 70
     0
  0
ENDTAB
  0
TABLE
  2
APPID
  5
9
330
0
100
AcDbSymbolTable
 70
     1
  0
APPID
  5
12
330
9
100
AcDbSymbolTableRecord
100
AcDbRegAppTableRecord
  2
ACAD
 70
     0
  0
ENDTAB
  0
TABLE
  2
DIMSTYLE
  5
A
330
0
100
AcDbSymbolTable
 70
     2
  0
DIMSTYLE
105
27
330
A
100
AcDbSymbolTableRecord
100
AcDbDimStyleTableRecord
  2
ISO-25
 70
     0
  3

  4

  5

  6

  7

 40
1.0
 41
2.5
 42
0.625
 43
3.75
 44
1.25
 45
0.0
 46
0.0
 47
0.0
 48
0.0
140
2.5
141
2.5
142
0.0
143
0.03937007874016
144
1.0
145
0.0
146
1.0
147
0.625
 71
     0
 72
     0
 73
     0
 74
     0
 75
     0
 76
     0
 77
     1
 78
     8
170
     0
171
     3
172
     1
173
     0
174
     0
175
     0
176
     0
177
     0
178
     0
270
     2
271
     2
272
     2
273
     2
274
     3
340
11
275
     0
280
     0
281
     0
282
     0
283
     0
284
     8
285
     0
286
     0
287
     3
288
     0
  0
DIMSTYLE
105
47F
330
A
100
AcDbSymbolTableRecord
100
AcDbDimStyleTableRecord
  2
STANDARD
 70
     0
  3

  4

  5

  6

  7

 40
1.0
 41
2.5
 42
0.625
 43
3.75
 44
1.25
 45
0.0
 46
0.0
 47
0.0
 48
0.0
140
2.5
141
2.5
142
0.0
143
0.0394
144
1.0
145
0.0
146
1.0
147
0.625
 71
     0
 72
     0
 73
     0
 74
     0
 75
     0
 76
     0
 77
     1
 78
     8
170
     0
171
     4
172
     1
173
     0
174
     0
175
     0
176
     0
177
     0
178
     0
270
     2
271
     4
272
     4
273
     8
274
     4
340
11
275
     0
280
     0
281
     0
282
     0
283
     1
284
     0
285
     0
286
     0
287
     3
288
     0
  0
ENDTAB
  0
TABLE
  2
BLOCK_RECORD
  5
1
330
0
100
AcDbSymbolTable
 70
     3
  0
BLOCK_RECORD
  5
1F
102
{ACAD_XDICTIONARY
360
AE7
102
}
330
1
100
AcDbSymbolTableRecord
100
AcDbBlockTableRecord
  2
*MODEL_SPACE
  0
BLOCK_RECORD
  5
1B
102
{ACAD_XDICTIONARY
360
AE5
102
}
330
1
100
AcDbSymbolTableRecord
100
AcDbBlockTableRecord
  2
*PAPER_SPACE
  0
BLOCK_RECORD
  5
263
330
1
100
AcDbSymbolTableRecord
100
AcDbBlockTableRecord
  2
A$C5CFD6E8C
  0
BLOCK_RECORD
  5
26A
330
1
100
AcDbSymbolTableRecord
100
AcDbBlockTableRecord
  2
A$C5D8F2B47
  0
ENDTAB
  0
ENDSEC
  0
SECTION
  2
BLOCKS
  0
BLOCK
  5
20
330
1F
100
AcDbEntity
  8
0
100
AcDbBlockBegin
  2
*MODEL_SPACE
 70
     0
 10
0.0
 20
0.0
 30
0.0
  3
*MODEL_SPACE
  1

  0
ENDBLK
  5
21
330
1F
100
AcDbEntity
  8
0
100
AcDbBlockEnd
  0
BLOCK
  5
1C
330
1B
100
AcDbEntity
 67
     1
  8
0
100
AcDbBlockBegin
  2
*PAPER_SPACE
 70
     0
 10
0.0
 20
0.0
 30
0.0
  3
*PAPER_SPACE
  1

  0
ENDBLK
  5
1D
330
1B
100
AcDbEntity
 67
     1
  8
0
100
AcDbBlockEnd
  0
BLOCK
  5
268
330
263
100
AcDbEntity
  8
0
 48
5.0
100
AcDbBlockBegin
  2
A$C5CFD6E8C
 70
     0
 10
0.0
 20
0.0
 30
0.0
  3
A$C5CFD6E8C
  1

  0
LINE
  5
264
330
263
100
AcDbEntity
  8
0
 62
     0
100
AcDbLine
 10
1.599997211020308
 20
2.70000247964549
 30
0.0
 11
1.599997211020308
 21
0.0000024796447633
 31
0.0
  0
LINE
  5
265
330
263
100
AcDbEntity
  8
0
 62
     0
100
AcDbLine
 10
-0.0000027889800549
 20
0.0000024796447633
 30
0.0
 11
-0.0000027889800549
 21
2.70000247964549
 31
0.0
  0
LINE
  5
266
330
263
100
AcDbEntity
  8
0
  6
CENTER
 62
     0
100
AcDbLine
 10
1.599997211020308
 20
2.70000247964549
 30
0.0
 11
-0.0000027889800549
 21
2.70000247964549
 31
0.0
  0
LINE
  5
267
330
263
100
AcDbEntity
  8
0
  6
CENTER
 62
     0
100
AcDbLine
 10
1.599997211020308
 20
0.0000024796447633
 30
0.0
 11
-0.0000027889800549
 21
0.0000024796447633
 31
0.0
  0
ENDBLK
  5
269
330
263
100
AcDbEntity
  8
0
 48
5.0
100
AcDbBlockEnd
  0
BLOCK
  5
47B
330
26A
100
AcDbEntity
  8
0
100
AcDbBlockBegin
  2
A$C5D8F2B47
 70
     0
 10
0.0
 20
0.0
 30
0.0
  3
A$C5D8F2B47
  1

  0
LINE
  5
26B
330
26A
100
AcDbEntity
  8
0
  6
BYBLOCK
100
AcDbLine
 10
14.899925687454
 20
-32.80000359999758
 30
0.0
 11
14.89992568745218
 21
0.000000000001819
 31
0.0
  0
LINE
  5
26C
330
26A
100
AcDbEntity
  8
0
  6
CONTINUOUS
100
AcDbLine
 10
12.17590150145633
 20
-13.93885465276935
 30
0.0
 11
12.17590150145633
 21
-1.710173878199839
 31
0.0
  0
LINE
  5
26D
330
26A
100
AcDbEntity
  8
0
  6
CONTINUOUS
100
AcDbLine
 10
2.399059652367665
 20
-2.139299380905411
 30
0.0
 11
2.399059652367665
 21
-13.50972915006376
 31
0.0
  0
LINE
  5
26E
330
26A
100
AcDbEntity
  8
0
  6
CONTINUOUS
100
AcDbLine
 10
2.869537740031318
 20
-5.662697571642183
 30
0.0
 11
2.869537740031318
 21
-9.986330959327004
 31
0.0
  0
LINE
  5
26F
330
26A
100
AcDbEntity
  8
0
  6
CONTINUOUS
100
AcDbLine
 10
12.17675552425726
 20
-13.93885465276935
 30
0.0
 11
12.17675552425726
 21
-1.710173878199839
 31
0.0
  0
LINE
  5
270
330
26A
100
AcDbEntity
  8
0
  6
CONTINUOUS
100
AcDbLine
 10
2.400106458941536
 20
-2.139299380905411
 30
0.0
 11
2.400106458941536
 21
-13.50972915006376
 31
0.0
  0
LINE
  5
271
330
26A
100
AcDbEntity
  8
0
  6
CONTINUOUS
100
AcDbLine
 10
2.716748683730201
 20
-10.13919591841795
 30
0.0
 11
2.716748683730201
 21
-5.509832146889947
 31
0.0
  0
LINE
  5
272
330
26A
100
AcDbEntity
  8
0
  6
CONTINUOUS
100
AcDbLine
 10
12.33521773202164
 20
-14.09723909509875
 30
0.0
 11
12.33521773202164
 21
-1.551789435870432
 31
0.0
  0
LINE
  5
273
330
26A
100
AcDbEntity
  8
0
  6
CONTINUOUS
100
AcDbLine
 10
13.90014559684139
 20
-15.07451405686834
 30
0.0
 11
13.90014559684139
 21
-0.5745135427782772
 31
0.0
  0
LINE
  5
274
330
26A
100
AcDbEntity
  8
0
  6
CONTINUOUS
100
AcDbLine
 10
9.704940660873488
 20
-16.60123231758871
 30
0.0
 11
11.04017969874485
 21
-16.60123231758871
 31
0.0
  0
LINE
  5
275
330
26A
100
AcDbEntity
  8
0
  6
CONTINUOUS
100
AcDbLine
 10
11.05008245168072
 20
-16.63819514269516
 30
0.0
 11
9.693129627982216
 21
-16.63819514269516
 31
0.0
  0
LINE
  5
276
330
26A
100
AcDbEntity
  8
0
  6
CONTINUOUS
100
AcDbLine
 10
9.536680473962855
 20
-17.65654466053046
 30
0.0
 11
11.1812564423476
 21
-17.65654466053046
 31
0.0
  0
LINE
  5
277
330
26A
100
AcDbEntity
  8
0
  6
CONTINUOUS
100
AcDbLine
 10
11.1812564423476
 20
-32.14592041385866
 30
0.0
 11
9.536680473962855
 21
-32.14592041385866
 31
0.0
  0
LINE
  5
278
330
26A
100
AcDbEntity
  8
0
  6
CONTINUOUS
100
AcDbLine
 10
12.17675552425726
 20
-18.78689180066385
 30
0.0
 11
5.389271943846778
 21
-18.78689180066385
 31
0.0
  0
LINE
  5
279
330
26A
100
AcDbEntity
  8
0
  6
CONTINUOUS
100
AcDbLine
 10
5.389271943846778
 20
-31.01557327372529
 30
0.0
 11
12.17675552425726
 21
-31.01557327372529
 31
0.0
  0
LINE
  5
27A
330
26A
100
AcDbEntity
  8
0
  6
CONTINUOUS
100
AcDbLine
 10
9.323847188631132
 20
-17.90123232112772
 30
0.0
 11
11.39196165559632
 21
-17.90123232112772
 31
0.0
  0
LINE
  5
27B
330
26A
100
AcDbEntity
  8
0
  6
CONTINUOUS
100
AcDbLine
 10
12.33521773202164
 20
-18.62850735833444
 30
0.0
 11
5.230964801291063
 21
-18.62850735833444
 31
0.0
  0
LINE
  5
27C
330
26A
100
AcDbEntity
  8
0
  6
CONTINUOUS
100
AcDbLine
 10
5.230964801291063
 20
-31.17395771605469
 30
0.0
 11
12.33521773202164
 21
-31.17395771605469
 31
0.0
  0
LINE
  5
27D
330
26A
100
AcDbEntity
  8
0
  6
CONTINUOUS
100
AcDbLine
 10
11.39196165559632
 20
-31.9012321711848
 30
0.0
 11
9.323847188631132
 21
-31.9012321711848
 31
0.0
  0
LINE
  5
27E
330
26A
100
AcDbEntity
  8
0
  6
CONTINUOUS
100
AcDbLine
 10
11.04017969874485
 20
-16.12451409218873
 30
0.0
 11
9.704940660873488
 21
-16.12451409218873
 31
0.0
  0
LINE
  5
27F
330
26A
100
AcDbEntity
  8
0
  6
CONTINUOUS
100
AcDbLine
 10
9.693129627982216
 20
-16.08755125253037
 30
0.0
 11
11.05008245168072
 21
-16.08755125253037
 31
0.0
  0
LINE
  5
280
330
26A
100
AcDbEntity
  8
0
  6
CONTINUOUS
100
AcDbLine
 10
11.1812564423476
 20
-15.06920179290273
 30
0.0
 11
9.536680473962855
 21
-15.06920179290273
 31
0.0
  0
LINE
  5
281
330
26A
100
AcDbEntity
  8
0
  6
CONTINUOUS
100
AcDbLine
 10
5.389271943846778
 20
-13.93885465276935
 30
0.0
 11
12.17675552425726
 21
-13.93885465276935
 31
0.0
  0
LINE
  5
282
330
26A
100
AcDbEntity
  8
0
  6
CONTINUOUS
100
AcDbLine
 10
5.230964801291063
 20
-14.09723909509875
 30
0.0
 11
12.33521773202164
 21
-14.09723909509875
 31
0.0
  0
LINE
  5
283
330
26A
100
AcDbEntity
  8
0
  6
CONTINUOUS
100
AcDbLine
 10
11.39196165559632
 20
-14.82451413230544
 30
0.0
 11
9.323847188631132
 21
-14.82451413230544
 31
0.0
  0
LINE
  5
284
330
26A
100
AcDbEntity
  8
0
  6
CONTINUOUS
100
AcDbLine
 10
12.40389764962535
 20
-16.21570746701716
 30
0.0
 11
7.553897506574227
 21
-16.21570746701716
 31
0.0
  0
LINE
  5
285
330
26A
100
AcDbEntity
  8
0
  6
CONTINUOUS
100
AcDbLine
 10
12.40389578698023
 20
-16.58879047372417
 30
0.0
 11
7.553895643929076
 21
-16.58879047372417
 31
0.0
  0
LINE
  5
286
330
26A
100
AcDbEntity
  8
0
  6
CONTINUOUS
100
AcDbLine
 10
12.17590150145633
 20
-31.01557327372529
 30
0.0
 11
12.17590150145633
 21
-18.78689180066385
 31
0.0
  0
LINE
  5
287
330
26A
100
AcDbEntity
  8
0
  6
CONTINUOUS
100
AcDbLine
 10
12.17675552425726
 20
-31.01557327372529
 30
0.0
 11
12.17675552425726
 21
-18.78689180066385
 31
0.0
  0
LINE
  5
288
330
26A
100
AcDbEntity
  8
0
  6
CONTINUOUS
100
AcDbLine
 10
12.33521773202164
 20
-31.17395771605469
 30
0.0
 11
12.33521773202164
 21
-18.62850735833444
 31
0.0
  0
LINE
  5
289
330
26A
100
AcDbEntity
  8
0
  6
CONTINUOUS
100
AcDbLine
 10
13.90014559684139
 20
-32.15123267782428
 30
0.0
 11
13.90014559684139
 21
-17.65123228014954
 31
0.0
  0
LINE
  5
28A
330
26A
100
AcDbEntity
  8
0
  6
CONTINUOUS
100
AcDbLine
 10
11.14924595413548
 20
-32.40123318446376
 30
0.0
 11
11.14924595413548
 21
-32.39443080437877
 31
0.0
  0
LINE
  5
28B
330
26A
100
AcDbEntity
  8
0
  6
CONTINUOUS
100
AcDbLine
 10
13.89871042875393
 20
-32.69939983201719
 30
0.0
 11
13.898524164239
 21
-32.69939983201719
 31
0.0
  0
LINE
  5
28C
330
26A
100
AcDbEntity
  8
0
  6
CONTINUOUS
100
AcDbLine
 10
13.6271311780606
 20
-32.40123318446376
 30
0.0
 11
13.89951416013581
 21
-32.40123318446376
 31
0.0
  0
LINE
  5
28D
330
26A
100
AcDbEntity
  8
0
  6
CONTINUOUS
100
AcDbLine
 10
13.37776257378799
 20
-32.40123318446376
 30
0.0
 11
13.6271311780606
 21
-32.40123318446376
 31
0.0
  0
LINE
  5
28E
330
26A
100
AcDbEntity
  8
0
  6
CONTINUOUS
100
AcDbLine
 10
13.6271311780606
 20
-32.15123267782428
 30
0.0
 11
13.6271311780606
 21
-32.40123318446376
 31
0.0
  0
LINE
  5
28F
330
26A
100
AcDbEntity
  8
0
  6
CONTINUOUS
100
AcDbLine
 10
11.14836957959276
 20
-32.40123318446376
 30
0.0
 11
11.14924595413548
 21
-32.40123318446376
 31
0.0
  0
LINE
  5
290
330
26A
100
AcDbEntity
  8
0
  6
CONTINUOUS
100
AcDbLine
 10
14.47544217763288
 20
-31.57123198670842
 30
0.0
 11
14.10156133306964
 21
-31.57123198670842
 31
0.0
  0
LINE
  5
291
330
26A
100
AcDbEntity
  8
0
  6
CONTINUOUS
100
AcDbLine
 10
14.47544217763288
 20
-30.27123233241536
 30
0.0
 11
14.10156133306964
 21
-30.27123233241536
 31
0.0
  0
LINE
  5
292
330
26A
100
AcDbEntity
  8
0
  6
CONTINUOUS
100
AcDbLine
 10
14.47544217763288
 20
-30.27123233241536
 30
0.0
 11
14.47544217763288
 21
-31.57123198670842
 31
0.0
  0
LINE
  5
293
330
26A
100
AcDbEntity
  8
0
  6
CONTINUOUS
100
AcDbLine
 10
14.10156133306964
 20
-31.57123198670842
 30
0.0
 11
13.90012045113189
 21
-31.57123198670842
 31
0.0
  0
LINE
  5
294
330
26A
100
AcDbEntity
  8
0
  6
CONTINUOUS
100
AcDbLine
 10
14.10156133306964
 20
-30.27123233241536
 30
0.0
 11
13.90012045113189
 21
-30.27123233241536
 31
0.0
  0
LINE
  5
295
330
26A
100
AcDbEntity
  8
0
  6
CONTINUOUS
100
AcDbLine
 10
14.10156133306964
 20
-31.57123198670842
 30
0.0
 11
14.10156133306964
 21
-30.27123233241536
 31
0.0
  0
LINE
  5
296
330
26A
100
AcDbEntity
  8
0
  6
CONTINUOUS
100
AcDbLine
 10
11.1812564423476
 20
-32.14592041385866
 30
0.0
 11
11.09700370099266
 21
-32.80000359999758
 31
0.0
  0
LINE
  5
297
330
26A
100
AcDbEntity
  8
0
  6
CONTINUOUS
100
AcDbLine
 10
11.14924595413548
 20
-32.40123318446376
 30
0.0
 11
11.39196165559632
 21
-32.40123318446376
 31
0.0
  0
LINE
  5
298
330
26A
100
AcDbEntity
  8
0
  6
CONTINUOUS
100
AcDbLine
 10
11.18057192025526
 20
-32.15123267782428
 30
0.0
 11
11.37884025184257
 21
-32.15123267782428
 31
0.0
  0
ELLIPSE
  5
299
330
26A
100
AcDbEntity
  8
0
  6
CONTINUOUS
100
AcDbEllipse
 10
11.37884004355441
 20
-31.90123231158394
 30
0.0
 11
0.0
 21
0.25
 31
0.0
210
0.0
220
0.0
230
1.0
 40
0.0524853924318904
 41
3.14159265358979
 42
4.71238898038469
  0
LINE
  5
29A
330
26A
100
AcDbEntity
  8
0
  6
CONTINUOUS
100
AcDbLine
 10
12.33521773202164
 20
-31.17395771605469
 30
0.0
 11
12.17675552425726
 21
-31.01557327372529
 31
0.0
  0
LINE
  5
29B
330
26A
100
AcDbEntity
  8
0
  6
CONTINUOUS
100
AcDbLine
 10
13.37776257378799
 20
-32.40123318446376
 30
0.0
 11
11.39196165559632
 21
-32.40123318446376
 31
0.0
  0
LINE
  5
29C
330
26A
100
AcDbEntity
  8
0
  6
CONTINUOUS
100
AcDbLine
 10
11.39196165559632
 20
-31.9012321711848
 30
0.0
 11
11.39196165559632
 21
-32.40123318446376
 31
0.0
  0
LINE
  5
29D
330
26A
100
AcDbEntity
  8
0
  6
CONTINUOUS
100
AcDbLine
 10
13.37776257378799
 20
-32.40123318446376
 30
0.0
 11
13.37776257378799
 21
-32.15123267782428
 31
0.0
  0
LINE
  5
29E
330
26A
100
AcDbEntity
  8
0
  6
CONTINUOUS
100
AcDbLine
 10
13.90014559684139
 20
-32.15123267782428
 30
0.0
 11
13.37776257378799
 21
-32.15123267782428
 31
0.0
  0
LINE
  5
29F
330
26A
100
AcDbEntity
  8
0
  6
CONTINUOUS
100
AcDbLine
 10
13.89933581186276
 20
-32.69939983201719
 30
0.0
 11
13.89917888400896
 21
-32.69939983201719
 31
0.0
  0
LINE
  5
2A0
330
26A
100
AcDbEntity
  8
0
  6
CONTINUOUS
100
AcDbLine
 10
13.89933488054021
 20
-32.64544645262457
 30
0.0
 11
13.89927481023414
 21
-32.64544645262457
 31
0.0
  0
LINE
  5
2A1
330
26A
100
AcDbEntity
  8
0
  6
CONTINUOUS
100
AcDbLine
 10
13.89938796592696
 20
-32.69939983201719
 30
0.0
 11
13.89935211000784
 21
-32.69939983201719
 31
0.0
  0
LINE
  5
2A2
330
26A
100
AcDbEntity
  8
0
  6
CONTINUOUS
100
AcDbLine
 10
13.89944198263629
 20
-32.69939983201719
 30
0.0
 11
13.89940659237844
 21
-32.69939983201719
 31
0.0
  0
LINE
  5
2A3
330
26A
100
AcDbEntity
  8
0
  6
CONTINUOUS
100
AcDbLine
 10
13.89949646500689
 20
-32.69939983201719
 30
0.0
 11
13.89946107474907
 21
-32.69939983201719
 31
0.0
  0
LINE
  5
2A4
330
26A
100
AcDbEntity
  8
0
  6
CONTINUOUS
100
AcDbLine
 10
13.89966969100576
 20
-32.69939983201719
 30
0.0
 11
13.89951322881324
 21
-32.69939983201719
 31
0.0
  0
LINE
  5
2A5
330
26A
100
AcDbEntity
  8
0
  6
CONTINUOUS
100
AcDbLine
 10
13.89966270608647
 20
-32.64544645262457
 30
0.0
 11
13.89957376478059
 21
-32.64544645262457
 31
0.0
  0
LWPOLYLINE
  5
2A6
330
26A
100
AcDbEntity
  8
0
  6
CONTINUOUS
100
AcDbPolyline
 90
        3
 70
   128
 43
0.0
 10
13.89870716912491
 20
-32.40123318446376
 10
13.8987076347862
 20
-32.41222092819905
 10
13.89871042875393
 20
-32.69939983201719
  0
LWPOLYLINE
  5
2A7
330
26A
100
AcDbEntity
  8
0
  6
CONTINUOUS
100
AcDbPolyline
 90
        3
 70
   128
 43
0.0
 10
13.898524164239
 20
-32.69939983201719
 10
13.89852649254543
 20
-32.41222092819905
 10
13.89852695820673
 20
-32.40123318446376
  0
LINE
  5
2A8
330
26A
100
AcDbEntity
  8
0
  6
CONTINUOUS
100
AcDbLine
 10
13.89917888400896
 20
-32.69939983201719
 30
0.0
 11
13.89871042875393
 21
-32.69939983201719
 31
0.0
  0
LWPOLYLINE
  5
2A9
330
26A
100
AcDbEntity
  8
0
  6
CONTINUOUS
100
AcDbPolyline
 90
        9
 70
   128
 43
0.0
 10
13.89917888400896
 20
-32.69939983201719
 10
13.89918959421857
 20
-32.61894660008646
 10
13.89920123575073
 20
-32.55830818725326
 10
13.89921380860551
 20
-32.51859659267164
 10
13.89922638146026
 20
-32.50054011059501
 10
13.899238954315
 20
-32.50446842921474
 10
13.89925106150849
 20
-32.53030890537002
 10
13.89926316870196
 20
-32.57759215248325
 10
13.89927481023414
 20
-32.64544645262457
  0
LWPOLYLINE
  5
2AA
330
26A
100
AcDbEntity
  8
0
  6
CONTINUOUS
100
AcDbPolyline
 90
        4
 70
   128
 43
0.0
 10
13.89931997937901
 20
-32.40123318446376
 10
13.89932603297575
 20
-32.45867529822087
 10
13.89933255223376
 20
-32.56842421305872
 10
13.89933581186276
 20
-32.69939983201719
  0
LWPOLYLINE
  5
2AB
330
26A
100
AcDbEntity
  8
0
  6
CONTINUOUS
100
AcDbPolyline
 90
        4
 70
   128
 43
0.0
 10
13.89927481023414
 20
-32.64544645262457
 10
13.89927946684702
 20
-32.5212136091063
 10
13.89928691742761
 20
-32.42374511373737
 10
13.89928971139534
 20
-32.40123318446376
  0
LINE
  5
2AC
330
26A
100
AcDbEntity
  8
0
  6
CONTINUOUS
100
AcDbLine
 10
13.89933581186276
 20
-32.69939983201719
 30
0.0
 11
13.89935211000784
 21
-32.69939983201719
 31
0.0
  0
LWPOLYLINE
  5
2AD
330
26A
100
AcDbEntity
  8
0
  6
CONTINUOUS
100
AcDbPolyline
 90
        5
 70
   128
 43
0.0
 10
13.89938191233022
 20
-32.40123318446376
 10
13.89938377497537
 20
-32.42395931792953
 10
13.89938796592696
 20
-32.50634225023485
 10
13.89938936291082
 20
-32.60316254509189
 10
13.89938796592696
 20
-32.69939983201719
  0
LWPOLYLINE
  5
2AE
330
26A
100
AcDbEntity
  8
0
  6
CONTINUOUS
100
AcDbPolyline
 90
        5
 70
   128
 43
0.0
 10
13.89935211000784
 20
-32.69939983201719
 10
13.89935071302397
 20
-32.60316254509189
 10
13.89935211000784
 20
-32.50634225023485
 10
13.89935630095942
 20
-32.42395931792953
 10
13.89935816360456
 20
-32.40123318446376
  0
LINE
  5
2AF
330
26A
100
AcDbEntity
  8
0
  6
CONTINUOUS
100
AcDbLine
 10
13.89940659237844
 20
-32.69939983201719
 30
0.0
 11
13.89938796592696
 21
-32.69939983201719
 31
0.0
  0
LWPOLYLINE
  5
2B0
330
26A
100
AcDbEntity
  8
0
  6
CONTINUOUS
100
AcDbPolyline
 90
        5
 70
   128
 43
0.0
 10
13.89943592903952
 20
-32.40123318446376
 10
13.89943825734599
 20
-32.42395931792953
 10
13.89944244829757
 20
-32.50634225023485
 10
13.89944384528144
 20
-32.60316254509189
 10
13.89944198263629
 20
-32.69939983201719
  0
LWPOLYLINE
  5
2B1
330
26A
100
AcDbEntity
  8
0
  6
CONTINUOUS
100
AcDbPolyline
 90
        5
 70
   128
 43
0.0
 10
13.89940659237844
 20
-32.69939983201719
 10
13.8994047297333
 20
-32.60316254509189
 10
13.89940612671716
 20
-32.50634225023485
 10
13.89941031766874
 20
-32.42395931792953
 10
13.89941264597519
 20
-32.40123318446376
  0
LINE
  5
2B2
330
26A
100
AcDbEntity
  8
0
  6
CONTINUOUS
100
AcDbLine
 10
13.89946107474907
 20
-32.69939983201719
 30
0.0
 11
13.89944198263629
 21
-32.69939983201719
 31
0.0
  0
LWPOLYLINE
  5
2B3
330
26A
100
AcDbEntity
  8
0
  6
CONTINUOUS
100
AcDbPolyline
 90
        5
 70
   128
 43
0.0
 10
13.89949041141017
 20
-32.40123318446376
 10
13.89949227405532
 20
-32.42395931792953
 10
13.89949646500689
 20
-32.50634225023485
 10
13.89949786199076
 20
-32.60316254509189
 10
13.89949646500689
 20
-32.69939983201719
  0
LWPOLYLINE
  5
2B4
330
26A
100
AcDbEntity
  8
0
  6
CONTINUOUS
100
AcDbPolyline
 90
        5
 70
   128
 43
0.0
 10
13.89946107474907
 20
-32.69939983201719
 10
13.89945921210392
 20
-32.60316254509189
 10
13.89946060908777
 20
-32.50634225023485
 10
13.89946480003936
 20
-32.42395931792953
 10
13.89946666268451
 20
-32.40123318446376
  0
LINE
  5
2B5
330
26A
100
AcDbEntity
  8
0
  6
CONTINUOUS
100
AcDbLine
 10
13.89949646500689
 20
-32.69939983201719
 30
0.0
 11
13.89951322881324
 21
-32.69939983201719
 31
0.0
  0
LWPOLYLINE
  5
2B6
330
26A
100
AcDbEntity
  8
0
  6
CONTINUOUS
100
AcDbPolyline
 90
        9
 70
   128
 43
0.0
 10
13.89951322881324
 20
-32.69939983201719
 10
13.89951602278097
 20
-32.56842421305872
 10
13.89952254203898
 20
-32.45867529822087
 10
13.89953138960343
 20
-32.38302396548487
 10
13.89954163415175
 20
-32.35034571898676
 10
13.89955234436138
 20
-32.36447201979854
 10
13.8995616575871
 20
-32.42374511373737
 10
13.89956910816771
 20
-32.5212136091063
 10
13.89957376478059
 20
-32.64544645262457
  0
LWPOLYLINE
  5
2B7
330
26A
100
AcDbEntity
  8
0
  6
CONTINUOUS
100
AcDbPolyline
 90
        9
 70
   128
 43
0.0
 10
13.89957376478059
 20
-32.64544645262457
 10
13.89958540631278
 20
-32.57759215248325
 10
13.89959751350625
 20
-32.53030890537002
 10
13.89960962069972
 20
-32.50446842921474
 10
13.89962219355447
 20
-32.50054011059501
 10
13.89963476640923
 20
-32.51859659267164
 10
13.89964733926398
 20
-32.55830818725326
 10
13.89965898079617
 20
-32.61894660008646
 10
13.89966969100576
 20
-32.69939983201719
  0
LINE
  5
2B8
330
26A
100
AcDbEntity
  8
0
  6
CONTINUOUS
100
AcDbLine
 10
13.89985129890783
 20
-32.69939983201719
 30
0.0
 11
13.89966969100576
 21
-32.69939983201719
 31
0.0
  0
LINE
  5
2B9
330
26A
100
AcDbEntity
  8
0
  6
CONTINUOUS
100
AcDbLine
 10
13.89985129890783
 20
-32.15123267782428
 30
0.0
 11
13.89985129890783
 21
-32.69939983201719
 31
0.0
  0
LINE
  5
2BA
330
26A
100
AcDbEntity
  8
0
  6
CONTINUOUS
100
AcDbLine
 10
13.89985129890783
 20
-32.69939983201719
 30
0.0
 11
14.899925687454
 21
-32.69939983201719
 31
0.0
  0
LINE
  5
2BB
330
26A
100
AcDbEntity
  8
0
  6
CONTINUOUS
100
AcDbLine
 10
13.198178655638
 20
-32.80000359999758
 30
0.0
 11
13.19826411736949
 21
-32.40123318446376
 31
0.0
  0
LINE
  5
2BC
330
26A
100
AcDbEntity
  8
0
  6
CONTINUOUS
100
AcDbLine
 10
13.89827224148256
 20
-32.80000359999758
 30
0.0
 11
13.89827224148256
 21
-32.71780462873675
 31
0.0
  0
LINE
  5
2BD
330
26A
100
AcDbEntity
  8
0
  6
CONTINUOUS
100
AcDbLine
 10
13.89827224148256
 20
-32.71780462873675
 30
0.0
 11
13.89828341735346
 21
-32.6352242560456
 31
0.0
  0
LINE
  5
2BE
330
26A
100
AcDbEntity
  8
0
  6
CONTINUOUS
100
AcDbLine
 10
13.89827224148256
 20
-32.71780462873675
 30
0.0
 11
13.64827220050438
 21
-32.71780462873675
 31
0.0
  0
LINE
  5
2BF
330
26A
100
AcDbEntity
  8
0
  6
CONTINUOUS
100
AcDbLine
 10
13.89828341735346
 20
-32.6352242560456
 30
0.0
 11
13.89828388301475
 21
-32.40123318446376
 31
0.0
  0
LINE
  5
2C0
330
26A
100
AcDbEntity
  8
0
  6
CONTINUOUS
100
AcDbLine
 10
13.89828341735346
 20
-32.6352242560456
 30
0.0
 11
13.64828337637526
 21
-32.6352242560456
 31
0.0
  0
LINE
  5
2C1
330
26A
100
AcDbEntity
  8
0
  6
CONTINUOUS
100
AcDbLine
 10
13.64827220050438
 20
-32.80000359999758
 30
0.0
 11
13.64827220050438
 21
-32.71780462873675
 31
0.0
  0
LINE
  5
2C2
330
26A
100
AcDbEntity
  8
0
  6
CONTINUOUS
100
AcDbLine
 10
13.64827220050438
 20
-32.71780462873675
 30
0.0
 11
13.64828337637526
 21
-32.6352242560456
 31
0.0
  0
LINE
  5
2C3
330
26A
100
AcDbEntity
  8
0
  6
CONTINUOUS
100
AcDbLine
 10
13.64828337637526
 20
-32.6352242560456
 30
0.0
 11
13.64828384203655
 21
-32.40123318446376
 31
0.0
  0
LINE
  5
2C4
330
26A
100
AcDbEntity
  8
0
  6
CONTINUOUS
100
AcDbLine
 10
11.05008245168072
 20
-16.63819514269516
 30
0.0
 11
11.1812564423476
 21
-17.65654466053046
 31
0.0
  0
LINE
  5
2C5
330
26A
100
AcDbEntity
  8
0
  6
CONTINUOUS
100
AcDbLine
 10
13.89639748913985
 20
-17.40123235558666
 30
0.0
 11
13.89639748913985
 21
-15.32451409784653
 31
0.0
  0
LINE
  5
2C6
330
26A
100
AcDbEntity
  8
0
  6
CONTINUOUS
100
AcDbLine
 10
13.89985129890783
 20
-15.07451405686834
 30
0.0
 11
13.89985129890783
 21
-17.65123228014954
 31
0.0
  0
LINE
  5
2C7
330
26A
100
AcDbEntity
  8
0
  6
CONTINUOUS
100
AcDbLine
 10
13.75375752059562
 20
-16.58879047372417
 30
0.0
 11
13.75375752059562
 21
-17.40123235558666
 31
0.0
  0
LINE
  5
2C8
330
26A
100
AcDbEntity
  8
0
  6
CONTINUOUS
100
AcDbLine
 10
12.40389578698023
 20
-17.40123235558666
 30
0.0
 11
12.40389578698023
 21
-16.58879047372417
 31
0.0
  0
LINE
  5
2C9
330
26A
100
AcDbEntity
  8
0
  6
CONTINUOUS
100
AcDbLine
 10
11.14924595413548
 20
-17.40123235558666
 30
0.0
 11
11.14924595413548
 21
-17.40803473567166
 31
0.0
  0
LINE
  5
2CA
330
26A
100
AcDbEntity
  8
0
  6
CONTINUOUS
100
AcDbLine
 10
13.89951416013581
 20
-17.40123235558666
 30
0.0
 11
13.6271311780606
 21
-17.40123235558666
 31
0.0
  0
LINE
  5
2CB
330
26A
100
AcDbEntity
  8
0
  6
CONTINUOUS
100
AcDbLine
 10
13.37776257378799
 20
-17.40123235558666
 30
0.0
 11
13.6271311780606
 21
-17.40123235558666
 31
0.0
  0
LINE
  5
2CC
330
26A
100
AcDbEntity
  8
0
  6
CONTINUOUS
100
AcDbLine
 10
13.6271311780606
 20
-17.40123235558666
 30
0.0
 11
13.6271311780606
 21
-17.65123228014954
 31
0.0
  0
LINE
  5
2CD
330
26A
100
AcDbEntity
  8
0
  6
CONTINUOUS
100
AcDbLine
 10
11.14924595413548
 20
-17.40123235558666
 30
0.0
 11
11.14836957959276
 21
-17.40123235558666
 31
0.0
  0
LINE
  5
2CE
330
26A
100
AcDbEntity
  8
0
  6
CONTINUOUS
100
AcDbLine
 10
14.10156133306964
 20
-19.53123227631246
 30
0.0
 11
14.47544217763288
 21
-19.53123227631246
 31
0.0
  0
LINE
  5
2CF
330
26A
100
AcDbEntity
  8
0
  6
CONTINUOUS
100
AcDbLine
 10
14.10156133306964
 20
-18.23123227277346
 30
0.0
 11
14.47544217763288
 21
-18.23123227277346
 31
0.0
  0
LINE
  5
2D0
330
26A
100
AcDbEntity
  8
0
  6
CONTINUOUS
100
AcDbLine
 10
14.47544217763288
 20
-18.23123227277346
 30
0.0
 11
14.47544217763288
 21
-19.53123227631246
 31
0.0
  0
LINE
  5
2D1
330
26A
100
AcDbEntity
  8
0
  6
CONTINUOUS
100
AcDbLine
 10
13.90012045113189
 20
-19.53123227631246
 30
0.0
 11
14.10156133306964
 21
-19.53123227631246
 31
0.0
  0
LINE
  5
2D2
330
26A
100
AcDbEntity
  8
0
  6
CONTINUOUS
100
AcDbLine
 10
13.90012045113189
 20
-18.23123227277346
 30
0.0
 11
14.10156133306964
 21
-18.23123227277346
 31
0.0
  0
LINE
  5
2D3
330
26A
100
AcDbEntity
  8
0
  6
CONTINUOUS
100
AcDbLine
 10
14.10156133306964
 20
-19.53123227631246
 30
0.0
 11
14.10156133306964
 21
-18.23123227277346
 31
0.0
  0
LINE
  5
2D4
330
26A
100
AcDbEntity
  8
0
  6
CONTINUOUS
100
AcDbLine
 10
11.39196165559632
 20
-17.40123235558666
 30
0.0
 11
11.14924595413548
 21
-17.40123235558666
 31
0.0
  0
ELLIPSE
  5
2D5
330
26A
100
AcDbEntity
  8
0
  6
CONTINUOUS
100
AcDbEllipse
 10
11.37884004355441
 20
-17.90123231158394
 30
0.0
 11
0.0
 21
0.25
 31
0.0
210
0.0
220
0.0
230
1.0
 40
0.0524853924317768
 41
4.71238898038469
 42
6.283185307179584
  0
LINE
  5
2D6
330
26A
100
AcDbEntity
  8
0
  6
CONTINUOUS
100
AcDbLine
 10
11.37884025184257
 20
-17.65123228014954
 30
0.0
 11
11.18057192025526
 21
-17.65123228014954
 31
0.0
  0
LINE
  5
2D7
330
26A
100
AcDbEntity
  8
0
  6
CONTINUOUS
100
AcDbLine
 10
12.33521773202164
 20
-18.62850735833444
 30
0.0
 11
12.17675552425726
 21
-18.78689180066385
 31
0.0
  0
LINE
  5
2D8
330
26A
100
AcDbEntity
  8
0
  6
CONTINUOUS
100
AcDbLine
 10
11.39196165559632
 20
-17.40123235558666
 30
0.0
 11
13.37776257378799
 21
-17.40123235558666
 31
0.0
  0
LINE
  5
2D9
330
26A
100
AcDbEntity
  8
0
  6
CONTINUOUS
100
AcDbLine
 10
13.37776257378799
 20
-17.40123235558666
 30
0.0
 11
13.37776257378799
 21
-17.65123228014954
 31
0.0
  0
LINE
  5
2DA
330
26A
100
AcDbEntity
  8
0
  6
CONTINUOUS
100
AcDbLine
 10
11.39196165559632
 20
-17.40123235558666
 30
0.0
 11
11.39196165559632
 21
-17.90123232112772
 31
0.0
  0
LINE
  5
2DB
330
26A
100
AcDbEntity
  8
0
  6
CONTINUOUS
100
AcDbLine
 10
13.90014559684139
 20
-17.65123228014954
 30
0.0
 11
13.37776257378799
 21
-17.65123228014954
 31
0.0
  0
LINE
  5
2DC
330
26A
100
AcDbEntity
  8
0
  6
CONTINUOUS
100
AcDbLine
 10
14.47544217763288
 20
-13.19451417712071
 30
0.0
 11
14.47544217763288
 21
-14.49451406424441
 31
0.0
  0
LINE
  5
2DD
330
26A
100
AcDbEntity
  8
0
  6
CONTINUOUS
100
AcDbLine
 10
14.10156133306964
 20
-14.49451406424441
 30
0.0
 11
14.10156133306964
 21
-13.19451417712071
 31
0.0
  0
LINE
  5
2DE
330
26A
100
AcDbEntity
  8
0
  6
CONTINUOUS
100
AcDbLine
 10
11.14924595413548
 20
-15.32451409784653
 30
0.0
 11
11.14924595413548
 21
-15.31771171776154
 31
0.0
  0
ELLIPSE
  5
2DF
330
26A
100
AcDbEntity
  8
0
  6
CONTINUOUS
100
AcDbEllipse
 10
11.04017991904447
 20
-17.10123231158376
 30
0.0
 11
0.0
 21
0.5
 31
0.0
210
0.0
220
0.0
230
1.0
 40
0.0524853924318336
 41
5.896261866244925
 42
6.283185307179584
  0
LINE
  5
2E0
330
26A
100
AcDbEntity
  8
0
  6
CONTINUOUS
100
AcDbLine
 10
13.6271311780606
 20
-15.32451409784653
 30
0.0
 11
13.89951416013581
 21
-15.32451409784653
 31
0.0
  0
LINE
  5
2E1
330
26A
100
AcDbEntity
  8
0
  6
CONTINUOUS
100
AcDbLine
 10
13.37776257378799
 20
-15.32451409784653
 30
0.0
 11
13.6271311780606
 21
-15.32451409784653
 31
0.0
  0
LINE
  5
2E2
330
26A
100
AcDbEntity
  8
0
  6
CONTINUOUS
100
AcDbLine
 10
13.6271311780606
 20
-15.07451405686834
 30
0.0
 11
13.6271311780606
 21
-15.32451409784653
 31
0.0
  0
LINE
  5
2E3
330
26A
100
AcDbEntity
  8
0
  6
CONTINUOUS
100
AcDbLine
 10
11.14836957959276
 20
-15.32451409784653
 30
0.0
 11
11.14924595413548
 21
-15.32451409784653
 31
0.0
  0
ELLIPSE
  5
2E4
330
26A
100
AcDbEntity
  8
0
  6
CONTINUOUS
100
AcDbEllipse
 10
11.04017991904447
 20
-15.62451408887089
 30
0.0
 11
0.0
 21
0.5
 31
0.0
210
0.0
220
0.0
230
1.0
 40
0.0524853924318336
 41
3.14159265358979
 42
3.528516094524923
  0
LINE
  5
2E5
330
26A
100
AcDbEntity
  8
0
  6
CONTINUOUS
100
AcDbLine
 10
14.47544217763288
 20
-14.49451406424441
 30
0.0
 11
14.10156133306964
 21
-14.49451406424441
 31
0.0
  0
LINE
  5
2E6
330
26A
100
AcDbEntity
  8
0
  6
CONTINUOUS
100
AcDbLine
 10
14.10156133306964
 20
-14.49451406424441
 30
0.0
 11
13.90012045113189
 21
-14.49451406424441
 31
0.0
  0
LINE
  5
2E7
330
26A
100
AcDbEntity
  8
0
  6
CONTINUOUS
100
AcDbLine
 10
11.1812564423476
 20
-15.06920179290273
 30
0.0
 11
11.05008245168072
 21
-16.08755125253037
 31
0.0
  0
LINE
  5
2E8
330
26A
100
AcDbEntity
  8
0
  6
CONTINUOUS
100
AcDbLine
 10
11.14924595413548
 20
-15.32451409784653
 30
0.0
 11
11.39196165559632
 21
-15.32451409784653
 31
0.0
  0
LINE
  5
2E9
330
26A
100
AcDbEntity
  8
0
  6
CONTINUOUS
100
AcDbLine
 10
11.18057192025526
 20
-15.07451405686834
 30
0.0
 11
11.37884025184257
 21
-15.07451405686834
 31
0.0
  0
ELLIPSE
  5
2EA
330
26A
100
AcDbEntity
  8
0
  6
CONTINUOUS
100
AcDbEllipse
 10
11.37884004355441
 20
-14.82451408887072
 30
0.0
 11
0.0
 21
0.25
 31
0.0
210
0.0
220
0.0
230
1.0
 40
0.0524853924318904
 41
3.14159265358979
 42
4.71238898038469
  0
LINE
  5
2EB
330
26A
100
AcDbEntity
  8
0
  6
CONTINUOUS
100
AcDbLine
 10
12.33521773202164
 20
-14.09723909509875
 30
0.0
 11
12.17675552425726
 21
-13.93885465276935
 31
0.0
  0
LINE
  5
2EC
330
26A
100
AcDbEntity
  8
0
  6
CONTINUOUS
100
AcDbLine
 10
13.37776257378799
 20
-15.32451409784653
 30
0.0
 11
11.39196165559632
 21
-15.32451409784653
 31
0.0
  0
LINE
  5
2ED
330
26A
100
AcDbEntity
  8
0
  6
CONTINUOUS
100
AcDbLine
 10
11.39196165559632
 20
-14.82451413230544
 30
0.0
 11
11.39196165559632
 21
-15.32451409784653
 31
0.0
  0
LINE
  5
2EE
330
26A
100
AcDbEntity
  8
0
  6
CONTINUOUS
100
AcDbLine
 10
13.37776257378799
 20
-15.32451409784653
 30
0.0
 11
13.37776257378799
 21
-15.07451405686834
 31
0.0
  0
LINE
  5
2EF
330
26A
100
AcDbEntity
  8
0
  6
CONTINUOUS
100
AcDbLine
 10
13.90014559684139
 20
-15.07451405686834
 30
0.0
 11
13.37776257378799
 21
-15.07451405686834
 31
0.0
  0
LINE
  5
2F0
330
26A
100
AcDbEntity
  8
0
  6
CONTINUOUS
100
AcDbLine
 10
13.75375984890206
 20
-15.35070742884227
 30
0.0
 11
13.75375984890206
 21
-16.21570746701716
 31
0.0
  0
LINE
  5
2F1
330
26A
100
AcDbEntity
  8
0
  6
CONTINUOUS
100
AcDbLine
 10
12.40389764962535
 20
-15.35070742884227
 30
0.0
 11
13.75375984890206
 21
-15.35070742884227
 31
0.0
  0
LINE
  5
2F2
330
26A
100
AcDbEntity
  8
0
  6
CONTINUOUS
100
AcDbLine
 10
12.40389764962535
 20
-16.21570746701716
 30
0.0
 11
13.75375984890206
 21
-16.21570746701716
 31
0.0
  0
LINE
  5
2F3
330
26A
100
AcDbEntity
  8
0
  6
CONTINUOUS
100
AcDbLine
 10
12.40389764962535
 20
-16.21570746701716
 30
0.0
 11
12.40389764962535
 21
-15.32451409784653
 31
0.0
  0
LINE
  5
2F4
330
26A
100
AcDbEntity
  8
0
  6
CONTINUOUS
100
AcDbLine
 10
12.40389578698023
 20
-16.58879047372417
 30
0.0
 11
13.75375752059562
 21
-16.58879047372417
 31
0.0
  0
LINE
  5
2F5
330
26A
100
AcDbEntity
  8
0
  6
CONTINUOUS
100
AcDbLine
 10
14.47544217763288
 20
-13.19451417712071
 30
0.0
 11
14.10156133306964
 21
-13.19451417712071
 31
0.0
  0
LINE
  5
2F6
330
26A
100
AcDbEntity
  8
0
  6
CONTINUOUS
100
AcDbLine
 10
14.10156133306964
 20
-13.19451417712071
 30
0.0
 11
13.90012045113189
 21
-13.19451417712071
 31
0.0
  0
LINE
  5
2F7
330
26A
100
AcDbEntity
  8
0
  6
CONTINUOUS
100
AcDbLine
 10
2.399059652367665
 20
-19.21601730336942
 30
0.0
 11
2.399059652367665
 21
-30.58644683969714
 31
0.0
  0
LINE
  5
2F8
330
26A
100
AcDbEntity
  8
0
  6
CONTINUOUS
100
AcDbLine
 10
2.869537740031318
 20
-22.73941572693684
 30
0.0
 11
2.869537740031318
 21
-27.06304864896037
 31
0.0
  0
LINE
  5
2F9
330
26A
100
AcDbEntity
  8
0
  6
CONTINUOUS
100
AcDbLine
 10
2.400106458941536
 20
-19.21601730336942
 30
0.0
 11
2.400106458941536
 21
-30.58644683969714
 31
0.0
  0
LINE
  5
2FA
330
26A
100
AcDbEntity
  8
0
  6
CONTINUOUS
100
AcDbLine
 10
2.716748683730201
 20
-27.21591407371261
 30
0.0
 11
2.716748683730201
 21
-22.5865503021846
 31
0.0
  0
LINE
  5
2FB
330
26A
100
AcDbEntity
  8
0
  6
CONTINUOUS
100
AcDbLine
 10
4.657849377969339
 20
-29.14828920675017
 30
0.0
 11
4.816155589202478
 21
-28.98990476442077
 31
0.0
  0
LINE
  5
2FC
330
26A
100
AcDbEntity
  8
0
  6
CONTINUOUS
100
AcDbLine
 10
4.657849377969339
 20
-28.38742846561172
 30
0.0
 11
4.816155589202478
 21
-28.2290440232823
 31
0.0
  0
LINE
  5
2FD
330
26A
100
AcDbEntity
  8
0
  6
CONTINUOUS
100
AcDbLine
 10
4.816155589202478
 20
-28.2290440232823
 30
0.0
 11
3.324079035798149
 21
-28.2290440232823
 31
0.0
  0
LINE
  5
2FE
330
26A
100
AcDbEntity
  8
0
  6
CONTINUOUS
100
AcDbLine
 10
5.139836750010084
 20
-32.40123318446376
 30
0.0
 11
2.900146587768631
 21
-32.40123318446376
 31
0.0
  0
LINE
  5
2FF
330
26A
100
AcDbEntity
  8
0
  6
CONTINUOUS
100
AcDbLine
 10
4.723069897869661
 20
-31.45764602286317
 30
0.0
 11
3.367134078422623
 21
-31.45764602286317
 31
0.0
  0
LINE
  5
300
330
26A
100
AcDbEntity
  8
0
  6
CONTINUOUS
100
AcDbLine
 10
3.367134078422623
 20
-29.6174476103256
 30
0.0
 11
4.723069897869661
 21
-29.6174476103256
 31
0.0
  0
LINE
  5
301
330
26A
100
AcDbEntity
  8
0
  6
CONTINUOUS
100
AcDbLine
 10
4.657849377969339
 20
-29.14828920675017
 30
0.0
 11
5.230964801291063
 21
-29.14828920675017
 31
0.0
  0
LINE
  5
302
330
26A
100
AcDbEntity
  8
0
  6
CONTINUOUS
100
AcDbLine
 10
5.389271943846778
 20
-28.98990476442077
 30
0.0
 11
5.389271943846778
 21
-31.01557327372529
 31
0.0
  0
LINE
  5
303
330
26A
100
AcDbEntity
  8
0
  6
CONTINUOUS
100
AcDbLine
 10
5.230964801291063
 20
-29.14828920675017
 30
0.0
 11
5.230964801291063
 21
-31.17395771605469
 31
0.0
  0
LINE
  5
304
330
26A
100
AcDbEntity
  8
0
  6
CONTINUOUS
100
AcDbLine
 10
5.381835333088472
 20
-32.40123318446376
 30
0.0
 11
5.381835333088472
 21
-32.30965251041151
 31
0.0
  0
LINE
  5
305
330
26A
100
AcDbEntity
  8
0
  6
CONTINUOUS
100
AcDbLine
 10
5.381835333088472
 20
-32.40123318446376
 30
0.0
 11
5.395904823223188
 21
-32.40123318446376
 31
0.0
  0
LINE
  5
306
330
26A
100
AcDbEntity
  8
0
  6
CONTINUOUS
100
AcDbLine
 10
9.63716739245774
 20
-32.80000359999758
 30
0.0
 11
9.536680473962855
 21
-32.14592041385866
 31
0.0
  0
LINE
  5
307
330
26A
100
AcDbEntity
  8
0
  6
CONTINUOUS
100
AcDbLine
 10
7.001256278732852
 20
-32.14592041385866
 30
0.0
 11
6.917003537377922
 21
-32.80000359999758
 31
0.0
  0
LINE
  5
308
330
26A
100
AcDbEntity
  8
0
  6
CONTINUOUS
100
AcDbLine
 10
5.457167228842988
 20
-32.80000359999758
 30
0.0
 11
5.356680310348106
 21
-32.14592041385866
 31
0.0
  0
LINE
  5
309
330
26A
100
AcDbEntity
  8
0
  6
CONTINUOUS
100
AcDbLine
 10
9.339497133174972
 20
-32.15123267782428
 30
0.0
 11
9.537497243860796
 21
-32.15123267782428
 31
0.0
  0
LINE
  5
30A
330
26A
100
AcDbEntity
  8
0
  6
CONTINUOUS
100
AcDbLine
 10
9.323847188631132
 20
-32.40123318446376
 30
0.0
 11
9.575904055515366
 21
-32.40123318446376
 31
0.0
  0
ELLIPSE
  5
30B
330
26A
100
AcDbEntity
  8
0
  6
CONTINUOUS
100
AcDbEllipse
 10
9.339497286964386
 20
-31.90123231158394
 30
0.0
 11
0.0
 21
0.25
 31
0.0
210
0.0
220
0.0
230
1.0
 40
0.0625986046035223
 41
1.570796326794896
 42
3.141592653587975
  0
LINE
  5
30C
330
26A
100
AcDbEntity
  8
0
  6
CONTINUOUS
100
AcDbLine
 10
6.968369415978027
 20
-32.40123318446376
 30
0.0
 11
7.207951216975287
 21
-32.40123318446376
 31
0.0
  0
LINE
  5
30D
330
26A
100
AcDbEntity
  8
0
  6
CONTINUOUS
100
AcDbLine
 10
7.001256278732852
 20
-32.14592041385866
 30
0.0
 11
5.356680310348106
 21
-32.14592041385866
 31
0.0
  0
LINE
  5
30E
330
26A
100
AcDbEntity
  8
0
  6
CONTINUOUS
100
AcDbLine
 10
7.192262156883312
 20
-32.15123267782428
 30
0.0
 11
7.000571756640511
 21
-32.15123267782428
 31
0.0
  0
ELLIPSE
  5
30F
330
26A
100
AcDbEntity
  8
0
  6
CONTINUOUS
100
AcDbEllipse
 10
7.192262331331447
 20
-31.90123231158394
 30
0.0
 11
0.0
 21
0.25
 31
0.0
210
0.0
220
0.0
230
1.0
 40
0.0627538312166962
 41
3.14159265358979
 42
4.71238898038469
  0
LINE
  5
310
330
26A
100
AcDbEntity
  8
0
  6
CONTINUOUS
100
AcDbLine
 10
5.357497080246043
 20
-32.15123267782428
 30
0.0
 11
5.152919969538285
 21
-32.15123267782428
 31
0.0
  0
LINE
  5
311
330
26A
100
AcDbEntity
  8
0
  6
CONTINUOUS
100
AcDbLine
 10
4.722914366999702
 20
-31.45764602286317
 30
0.0
 11
4.722914366999702
 21
-29.6174476103256
 31
0.0
  0
LINE
  5
312
330
26A
100
AcDbEntity
  8
0
  6
CONTINUOUS
100
AcDbLine
 10
5.230964801291063
 20
-31.17395771605469
 30
0.0
 11
5.389271943846778
 21
-31.01557327372529
 31
0.0
  0
LINE
  5
313
330
26A
100
AcDbEntity
  8
0
  6
CONTINUOUS
100
AcDbLine
 10
5.139836750010084
 20
-32.40123318446376
 30
0.0
 11
5.381835333088472
 21
-32.40123318446376
 31
0.0
  0
ELLIPSE
  5
314
330
26A
100
AcDbEntity
  8
0
  6
CONTINUOUS
100
AcDbEllipse
 10
5.15291957474119
 20
-31.90123231158394
 30
0.0
 11
0.0
 21
0.25
 31
0.0
210
0.0
220
0.0
230
1.0
 40
0.0523301658186028
 41
1.570796326794896
 42
3.14159265358979
  0
LINE
  5
315
330
26A
100
AcDbEntity
  8
0
  6
CONTINUOUS
100
AcDbLine
 10
9.323847188631132
 20
-32.40123318446376
 30
0.0
 11
7.207951216975287
 21
-32.40123318446376
 31
0.0
  0
LINE
  5
316
330
26A
100
AcDbEntity
  8
0
  6
CONTINUOUS
100
AcDbLine
 10
4.723069897869661
 20
-31.45764602286317
 30
0.0
 11
4.723069897869661
 21
-29.6174476103256
 31
0.0
  0
LINE
  5
317
330
26A
100
AcDbEntity
  8
0
  6
CONTINUOUS
100
AcDbLine
 10
5.139836750010084
 20
-32.40123318446376
 30
0.0
 11
5.139836750010084
 21
-31.9012321711848
 31
0.0
  0
LINE
  5
318
330
26A
100
AcDbEntity
  8
0
  6
CONTINUOUS
100
AcDbLine
 10
7.207951216975287
 20
-31.9012321711848
 30
0.0
 11
5.139836750010084
 21
-31.9012321711848
 31
0.0
  0
LINE
  5
319
330
26A
100
AcDbEntity
  8
0
  6
CONTINUOUS
100
AcDbLine
 10
7.207951216975287
 20
-31.9012321711848
 30
0.0
 11
7.207951216975287
 21
-32.40123318446376
 31
0.0
  0
LINE
  5
31A
330
26A
100
AcDbEntity
  8
0
  6
CONTINUOUS
100
AcDbLine
 10
9.323847188631132
 20
-32.40123318446376
 30
0.0
 11
9.323847188631132
 21
-31.9012321711848
 31
0.0
  0
LINE
  5
31B
330
26A
100
AcDbEntity
  8
0
  6
CONTINUOUS
100
AcDbLine
 10
4.816155589202478
 20
-28.98990476442077
 30
0.0
 11
4.816155589202478
 21
-28.2290440232823
 31
0.0
  0
LINE
  5
31C
330
26A
100
AcDbEntity
  8
0
  6
CONTINUOUS
100
AcDbLine
 10
5.230964801291063
 20
-29.14828920675017
 30
0.0
 11
5.389271943846778
 21
-28.98990476442077
 31
0.0
  0
LINE
  5
31D
330
26A
100
AcDbEntity
  8
0
  6
CONTINUOUS
100
AcDbLine
 10
5.389271943846778
 20
-28.98990476442077
 30
0.0
 11
4.816155589202478
 21
-28.98990476442077
 31
0.0
  0
LINE
  5
31E
330
26A
100
AcDbEntity
  8
0
  6
CONTINUOUS
100
AcDbLine
 10
2.900146587768631
 20
-32.40123318446376
 30
0.0
 11
2.900146587768631
 21
-27.22143309128978
 31
0.0
  0
LINE
  5
31F
330
26A
100
AcDbEntity
  8
0
  6
CONTINUOUS
100
AcDbLine
 10
2.608419104496078
 20
-32.40123318446376
 30
0.0
 11
2.399698539653853
 21
-32.40123318446376
 31
0.0
  0
LINE
  5
320
330
26A
100
AcDbEntity
  8
0
  6
CONTINUOUS
100
AcDbLine
 10
1.585005491057471
 20
-31.88644742531278
 30
0.0
 11
1.584899320283965
 21
-31.88644742531278
 31
0.0
  0
LINE
  5
321
330
26A
100
AcDbEntity
  8
0
  6
CONTINUOUS
100
AcDbLine
 10
1.585005491057471
 20
-30.58644683969714
 30
0.0
 11
1.584899320283965
 21
-30.58644683969714
 31
0.0
  0
LINE
  5
322
330
26A
100
AcDbEntity
  8
0
  6
CONTINUOUS
100
AcDbLine
 10
1.584899320283965
 20
-30.58644683969714
 30
0.0
 11
1.584899320283965
 21
-31.88644742531278
 31
0.0
  0
LINE
  5
323
330
26A
100
AcDbEntity
  8
0
  6
CONTINUOUS
100
AcDbLine
 10
1.612259714881018
 20
-31.88644742531278
 30
0.0
 11
1.585005491057471
 21
-31.88644742531278
 31
0.0
  0
LINE
  5
324
330
26A
100
AcDbEntity
  8
0
  6
CONTINUOUS
100
AcDbLine
 10
1.612259714881018
 20
-30.58644683969714
 30
0.0
 11
1.585005491057471
 21
-30.58644683969714
 31
0.0
  0
LINE
  5
325
330
26A
100
AcDbEntity
  8
0
  6
CONTINUOUS
100
AcDbLine
 10
1.585005491057471
 20
-30.58644683969714
 30
0.0
 11
1.585005491057471
 21
-31.88644742531278
 31
0.0
  0
LINE
  5
326
330
26A
100
AcDbEntity
  8
0
  6
CONTINUOUS
100
AcDbLine
 10
2.400106458941536
 20
-32.15123267782428
 30
0.0
 11
2.399698539653853
 21
-32.15123267782428
 31
0.0
  0
LINE
  5
327
330
26A
100
AcDbEntity
  8
0
  6
CONTINUOUS
100
AcDbLine
 10
2.399059652367665
 20
-32.15123267782428
 30
0.0
 11
2.39907827881916
 21
-32.15123267782428
 31
0.0
  0
LINE
  5
328
330
26A
100
AcDbEntity
  8
0
  6
CONTINUOUS
100
AcDbLine
 10
2.399059652367665
 20
-31.88644742531278
 30
0.0
 11
2.399059652367665
 21
-32.15123267782428
 31
0.0
  0
LINE
  5
329
330
26A
100
AcDbEntity
  8
0
  6
CONTINUOUS
100
AcDbLine
 10
2.39907827881916
 20
-32.15123267782428
 30
0.0
 11
2.39907827881916
 21
-32.40123318446376
 31
0.0
  0
LINE
  5
32A
330
26A
100
AcDbEntity
  8
0
  6
CONTINUOUS
100
AcDbLine
 10
2.39907827881916
 20
-32.40123318446376
 30
0.0
 11
2.399698539653853
 21
-32.40123318446376
 31
0.0
  0
LINE
  5
32B
330
26A
100
AcDbEntity
  8
0
  6
CONTINUOUS
100
AcDbLine
 10
2.399698539653853
 20
-32.40123318446376
 30
0.0
 11
2.399698539653853
 21
-32.15123267782428
 31
0.0
  0
LINE
  5
32C
330
26A
100
AcDbEntity
  8
0
  6
CONTINUOUS
100
AcDbLine
 10
2.404682978073195
 20
-31.88644742531278
 30
0.0
 11
1.612259714881018
 21
-31.88644742531278
 31
0.0
  0
LINE
  5
32D
330
26A
100
AcDbEntity
  8
0
  6
CONTINUOUS
100
AcDbLine
 10
2.404682978073195
 20
-30.58644683969714
 30
0.0
 11
1.612259714881018
 21
-30.58644683969714
 31
0.0
  0
LINE
  5
32E
330
26A
100
AcDbEntity
  8
0
  6
CONTINUOUS
100
AcDbLine
 10
1.612259714881018
 20
-31.88644742531278
 30
0.0
 11
1.612259714881018
 21
-30.58644683969714
 31
0.0
  0
LINE
  5
32F
330
26A
100
AcDbEntity
  8
0
  6
CONTINUOUS
100
AcDbLine
 10
2.608419104496078
 20
-32.40123318446376
 30
0.0
 11
2.608841924944954
 21
-32.40123318446376
 31
0.0
  0
LINE
  5
330
330
26A
100
AcDbEntity
  8
0
  6
CONTINUOUS
100
AcDbLine
 10
2.608419104496078
 20
-32.40123318446376
 30
0.0
 11
2.608419104496078
 21
-32.15123267782428
 31
0.0
  0
LINE
  5
331
330
26A
100
AcDbEntity
  8
0
  6
CONTINUOUS
100
AcDbLine
 10
3.467133908549383
 20
-29.71744744045236
 30
0.0
 11
4.623070067742901
 21
-29.71744744045236
 31
0.0
  0
LINE
  5
332
330
26A
100
AcDbEntity
  8
0
  6
CONTINUOUS
100
AcDbLine
 10
4.623070067742901
 20
-31.35764619273641
 30
0.0
 11
3.467133908549383
 21
-31.35764619273641
 31
0.0
  0
LINE
  5
333
330
26A
100
AcDbEntity
  8
0
  6
CONTINUOUS
100
AcDbLine
 10
4.623070067742901
 20
-29.71744744045236
 30
0.0
 11
4.623070067742901
 21
-31.35764619273641
 31
0.0
  0
LINE
  5
334
330
26A
100
AcDbEntity
  8
0
  6
CONTINUOUS
100
AcDbLine
 10
3.46697744635685
 20
-29.71744744045236
 30
0.0
 11
3.46697744635685
 21
-31.35764619273641
 31
0.0
  0
LINE
  5
335
330
26A
100
AcDbEntity
  8
0
  6
CONTINUOUS
100
AcDbLine
 10
3.467133908549383
 20
-31.35764619273641
 30
0.0
 11
3.46697744635685
 21
-31.35764619273641
 31
0.0
  0
LINE
  5
336
330
26A
100
AcDbEntity
  8
0
  6
CONTINUOUS
100
AcDbLine
 10
3.467133908549383
 20
-31.35764619273641
 30
0.0
 11
3.467133908549383
 21
-29.71744744045236
 31
0.0
  0
LINE
  5
337
330
26A
100
AcDbEntity
  8
0
  6
CONTINUOUS
100
AcDbLine
 10
3.46697744635685
 20
-29.71744744045236
 30
0.0
 11
3.467133908549383
 21
-29.71744744045236
 31
0.0
  0
LINE
  5
338
330
26A
100
AcDbEntity
  8
0
  6
CONTINUOUS
100
AcDbLine
 10
2.608841924944954
 20
-32.40123318446376
 30
0.0
 11
2.900146587768631
 21
-32.40123318446376
 31
0.0
  0
LINE
  5
339
330
26A
100
AcDbEntity
  8
0
  6
CONTINUOUS
100
AcDbLine
 10
2.404682978073195
 20
-30.58644683969714
 30
0.0
 11
2.404682978073195
 21
-31.88644742531278
 31
0.0
  0
LINE
  5
33A
330
26A
100
AcDbEntity
  8
0
  6
CONTINUOUS
100
AcDbLine
 10
2.400106458941536
 20
-31.88644742531278
 30
0.0
 11
2.400106458941536
 21
-32.15123267782428
 31
0.0
  0
LINE
  5
33B
330
26A
100
AcDbEntity
  8
0
  6
CONTINUOUS
100
AcDbLine
 10
2.608841924944954
 20
-32.15123267782428
 30
0.0
 11
2.400106458941536
 21
-32.15123267782428
 31
0.0
  0
LINE
  5
33C
330
26A
100
AcDbEntity
  8
0
  6
CONTINUOUS
100
AcDbLine
 10
2.608841924944954
 20
-32.15123267782428
 30
0.0
 11
2.608841924944954
 21
-32.40123318446376
 31
0.0
  0
LINE
  5
33D
330
26A
100
AcDbEntity
  8
0
  6
CONTINUOUS
100
AcDbLine
 10
3.367134078422623
 20
-29.6174476103256
 30
0.0
 11
3.367134078422623
 21
-31.45764602286317
 31
0.0
  0
LINE
  5
33E
330
26A
100
AcDbEntity
  8
0
  6
CONTINUOUS
100
AcDbLine
 10
3.324079035798149
 20
-28.2290440232823
 30
0.0
 11
3.324079035798149
 21
-27.06304864896037
 31
0.0
  0
LINE
  5
33F
330
26A
100
AcDbEntity
  8
0
  6
CONTINUOUS
100
AcDbLine
 10
3.165770961919861
 20
-28.38742846561172
 30
0.0
 11
3.324079035798149
 21
-28.2290440232823
 31
0.0
  0
LINE
  5
340
330
26A
100
AcDbEntity
  8
0
  6
CONTINUOUS
100
AcDbLine
 10
4.657849377969339
 20
-28.38742846561172
 30
0.0
 11
4.657849377969339
 21
-29.14828920675017
 31
0.0
  0
LINE
  5
341
330
26A
100
AcDbEntity
  8
0
  6
CONTINUOUS
100
AcDbLine
 10
3.165770961919861
 20
-28.38742846561172
 30
0.0
 11
4.657849377969339
 21
-28.38742846561172
 31
0.0
  0
LINE
  5
342
330
26A
100
AcDbEntity
  8
0
  6
CONTINUOUS
100
AcDbLine
 10
3.165770961919861
 20
-27.22143309128978
 30
0.0
 11
3.165770961919861
 21
-28.38742846561172
 31
0.0
  0
LINE
  5
343
330
26A
100
AcDbEntity
  8
0
  6
CONTINUOUS
100
AcDbLine
 10
3.165770961919861
 20
-27.22143309128978
 30
0.0
 11
3.324079035798149
 21
-27.06304864896037
 31
0.0
  0
LINE
  5
344
330
26A
100
AcDbEntity
  8
0
  6
CONTINUOUS
100
AcDbLine
 10
3.324079035798149
 20
-27.06304864896037
 30
0.0
 11
2.869537740031318
 21
-27.06304864896037
 31
0.0
  0
LINE
  5
345
330
26A
100
AcDbEntity
  8
0
  6
CONTINUOUS
100
AcDbLine
 10
2.716748683730201
 20
-27.21591407371261
 30
0.0
 11
2.869537740031318
 21
-27.06304864896037
 31
0.0
  0
ELLIPSE
  5
346
330
26A
100
AcDbEntity
  8
0
  6
CONTINUOUS
100
AcDbEllipse
 10
2.900106948043003
 20
-27.14224130800403
 30
0.0
 11
-0.4999999999990055
 21
0.0000063045229695
 31
0.0
210
0.0
220
0.0
230
1.0
 40
0.1583844398229271
 41
1.195319426270372
 42
1.570875937178294
  0
LINE
  5
347
330
26A
100
AcDbEntity
  8
0
  6
CONTINUOUS
100
AcDbLine
 10
2.900146587768631
 20
-27.22143309128978
 30
0.0
 11
3.165770961919861
 21
-27.22143309128978
 31
0.0
  0
LINE
  5
348
330
26A
100
AcDbEntity
  8
0
  6
CONTINUOUS
100
AcDbLine
 10
9.536680473962855
 20
-17.65654466053046
 30
0.0
 11
9.693129627982216
 21
-16.63819514269516
 31
0.0
  0
LINE
  5
349
330
26A
100
AcDbEntity
  8
0
  6
CONTINUOUS
100
AcDbLine
 10
5.356680310348106
 20
-17.65654466053046
 30
0.0
 11
5.513129464367461
 21
-16.63819514269516
 31
0.0
  0
LINE
  5
34A
330
26A
100
AcDbEntity
  8
0
  6
CONTINUOUS
100
AcDbLine
 10
6.870082288065987
 20
-16.63819514269516
 30
0.0
 11
7.001256278732852
 21
-17.65654466053046
 31
0.0
  0
LINE
  5
34B
330
26A
100
AcDbEntity
  8
0
  6
CONTINUOUS
100
AcDbLine
 10
7.553895643929076
 20
-17.40123235558666
 30
0.0
 11
7.553895643929076
 21
-16.58879047372417
 31
0.0
  0
LINE
  5
34C
330
26A
100
AcDbEntity
  8
0
  6
CONTINUOUS
100
AcDbLine
 10
7.553343369642331
 20
-16.58879047372417
 30
0.0
 11
7.553343369642331
 21
-17.40123235558666
 31
0.0
  0
LINE
  5
34D
330
26A
100
AcDbEntity
  8
0
  6
CONTINUOUS
100
AcDbLine
 10
4.657849377969339
 20
-20.65417563480832
 30
0.0
 11
4.816155589202478
 21
-20.81256007713772
 31
0.0
  0
LINE
  5
34E
330
26A
100
AcDbEntity
  8
0
  6
CONTINUOUS
100
AcDbLine
 10
3.324079035798149
 20
-21.57342081827619
 30
0.0
 11
4.816155589202478
 21
-21.57342081827619
 31
0.0
  0
LINE
  5
34F
330
26A
100
AcDbEntity
  8
0
  6
CONTINUOUS
100
AcDbLine
 10
4.657849377969339
 20
-21.41503637594678
 30
0.0
 11
4.816155589202478
 21
-21.57342081827619
 31
0.0
  0
LINE
  5
350
330
26A
100
AcDbEntity
  8
0
  6
CONTINUOUS
100
AcDbLine
 10
2.900146587768631
 20
-17.40123235558666
 30
0.0
 11
5.139836750010084
 21
-17.40123235558666
 31
0.0
  0
LINE
  5
351
330
26A
100
AcDbEntity
  8
0
  6
CONTINUOUS
100
AcDbLine
 10
4.723069897869661
 20
-20.18501723123289
 30
0.0
 11
3.367134078422623
 21
-20.18501723123289
 31
0.0
  0
LINE
  5
352
330
26A
100
AcDbEntity
  8
0
  6
CONTINUOUS
100
AcDbLine
 10
3.367134078422623
 20
-18.34481812020339
 30
0.0
 11
4.723069897869661
 21
-18.34481812020339
 31
0.0
  0
LINE
  5
353
330
26A
100
AcDbEntity
  8
0
  6
CONTINUOUS
100
AcDbLine
 10
5.230964801291063
 20
-20.65417563480832
 30
0.0
 11
4.657849377969339
 21
-20.65417563480832
 31
0.0
  0
LINE
  5
354
330
26A
100
AcDbEntity
  8
0
  6
CONTINUOUS
100
AcDbLine
 10
4.816155589202478
 20
-21.57342081827619
 30
0.0
 11
4.816155589202478
 21
-20.81256007713772
 31
0.0
  0
LINE
  5
355
330
26A
100
AcDbEntity
  8
0
  6
CONTINUOUS
100
AcDbLine
 10
5.381835333088472
 20
-17.40123235558666
 30
0.0
 11
5.381835333088472
 21
-17.49281163265503
 31
0.0
  0
LINE
  5
356
330
26A
100
AcDbEntity
  8
0
  6
CONTINUOUS
100
AcDbLine
 10
5.395904823223188
 20
-17.40123235558666
 30
0.0
 11
5.381835333088472
 21
-17.40123235558666
 31
0.0
  0
LINE
  5
357
330
26A
100
AcDbEntity
  8
0
  6
CONTINUOUS
100
AcDbLine
 10
9.537497243860796
 20
-17.65123228014954
 30
0.0
 11
9.339497133174972
 21
-17.65123228014954
 31
0.0
  0
LINE
  5
358
330
26A
100
AcDbEntity
  8
0
  6
CONTINUOUS
100
AcDbLine
 10
9.575904055515366
 20
-17.40123235558666
 30
0.0
 11
9.323847188631132
 21
-17.40123235558666
 31
0.0
  0
ELLIPSE
  5
359
330
26A
100
AcDbEntity
  8
0
  6
CONTINUOUS
100
AcDbEllipse
 10
9.339497286964386
 20
-17.90123231158394
 30
0.0
 11
0.0
 21
0.25
 31
0.0
210
0.0
220
0.0
230
1.0
 40
0.0625986046035223
 41
0.0
 42
1.570796326794896
  0
LINE
  5
35A
330
26A
100
AcDbEntity
  8
0
  6
CONTINUOUS
100
AcDbLine
 10
7.207951216975287
 20
-17.40123235558666
 30
0.0
 11
6.968369415978027
 21
-17.40123235558666
 31
0.0
  0
ELLIPSE
  5
35B
330
26A
100
AcDbEntity
  8
0
  6
CONTINUOUS
100
AcDbEllipse
 10
7.192262331331447
 20
-17.90123231158394
 30
0.0
 11
0.0
 21
0.25
 31
0.0
210
0.0
220
0.0
230
1.0
 40
0.0627538312168099
 41
4.71238898038469
 42
6.283185307179584
  0
LINE
  5
35C
330
26A
100
AcDbEntity
  8
0
  6
CONTINUOUS
100
AcDbLine
 10
7.000571756640511
 20
-17.65123228014954
 30
0.0
 11
7.192262156883312
 21
-17.65123228014954
 31
0.0
  0
LINE
  5
35D
330
26A
100
AcDbEntity
  8
0
  6
CONTINUOUS
100
AcDbLine
 10
5.356680310348106
 20
-17.65654466053046
 30
0.0
 11
7.001256278732852
 21
-17.65654466053046
 31
0.0
  0
LINE
  5
35E
330
26A
100
AcDbEntity
  8
0
  6
CONTINUOUS
100
AcDbLine
 10
5.152919969538285
 20
-17.65123228014954
 30
0.0
 11
5.357497080246043
 21
-17.65123228014954
 31
0.0
  0
LINE
  5
35F
330
26A
100
AcDbEntity
  8
0
  6
CONTINUOUS
100
AcDbLine
 10
4.722914366999702
 20
-20.18501723123289
 30
0.0
 11
4.722914366999702
 21
-18.34481812020339
 31
0.0
  0
LINE
  5
360
330
26A
100
AcDbEntity
  8
0
  6
CONTINUOUS
100
AcDbLine
 10
5.389271943846778
 20
-18.78689180066385
 30
0.0
 11
5.389271943846778
 21
-20.81256007713772
 31
0.0
  0
LINE
  5
361
330
26A
100
AcDbEntity
  8
0
  6
CONTINUOUS
100
AcDbLine
 10
5.230964801291063
 20
-18.62850735833444
 30
0.0
 11
5.389271943846778
 21
-18.78689180066385
 31
0.0
  0
LINE
  5
362
330
26A
100
AcDbEntity
  8
0
  6
CONTINUOUS
100
AcDbLine
 10
5.381835333088472
 20
-17.40123235558666
 30
0.0
 11
5.139836750010084
 21
-17.40123235558666
 31
0.0
  0
ELLIPSE
  5
363
330
26A
100
AcDbEntity
  8
0
  6
CONTINUOUS
100
AcDbEllipse
 10
5.152919574741416
 20
-17.90123231158394
 30
0.0
 11
0.0
 21
0.25
 31
0.0
210
0.0
220
0.0
230
1.0
 40
0.0523301658186028
 41
0.0
 42
1.570796326794896
  0
LINE
  5
364
330
26A
100
AcDbEntity
  8
0
  6
CONTINUOUS
100
AcDbLine
 10
4.816155589202478
 20
-20.81256007713772
 30
0.0
 11
5.389271943846778
 21
-20.81256007713772
 31
0.0
  0
LINE
  5
365
330
26A
100
AcDbEntity
  8
0
  6
CONTINUOUS
100
AcDbLine
 10
5.230964801291063
 20
-20.65417563480832
 30
0.0
 11
5.389271943846778
 21
-20.81256007713772
 31
0.0
  0
LINE
  5
366
330
26A
100
AcDbEntity
  8
0
  6
CONTINUOUS
100
AcDbLine
 10
7.207951216975287
 20
-17.40123235558666
 30
0.0
 11
9.323847188631132
 21
-17.40123235558666
 31
0.0
  0
LINE
  5
367
330
26A
100
AcDbEntity
  8
0
  6
CONTINUOUS
100
AcDbLine
 10
4.723069897869661
 20
-20.18501723123289
 30
0.0
 11
4.723069897869661
 21
-18.34481812020339
 31
0.0
  0
LINE
  5
368
330
26A
100
AcDbEntity
  8
0
  6
CONTINUOUS
100
AcDbLine
 10
9.323847188631132
 20
-17.90123232112772
 30
0.0
 11
9.323847188631132
 21
-17.40123235558666
 31
0.0
  0
LINE
  5
369
330
26A
100
AcDbEntity
  8
0
  6
CONTINUOUS
100
AcDbLine
 10
7.207951216975287
 20
-17.40123235558666
 30
0.0
 11
7.207951216975287
 21
-17.90123232112772
 31
0.0
  0
LINE
  5
36A
330
26A
100
AcDbEntity
  8
0
  6
CONTINUOUS
100
AcDbLine
 10
5.139836750010084
 20
-17.90123232112772
 30
0.0
 11
7.207951216975287
 21
-17.90123232112772
 31
0.0
  0
LINE
  5
36B
330
26A
100
AcDbEntity
  8
0
  6
CONTINUOUS
100
AcDbLine
 10
5.139836750010084
 20
-17.90123232112772
 30
0.0
 11
5.139836750010084
 21
-17.40123235558666
 31
0.0
  0
LINE
  5
36C
330
26A
100
AcDbEntity
  8
0
  6
CONTINUOUS
100
AcDbLine
 10
5.230964801291063
 20
-18.62850735833444
 30
0.0
 11
5.230964801291063
 21
-20.65417563480832
 31
0.0
  0
LINE
  5
36D
330
26A
100
AcDbEntity
  8
0
  6
CONTINUOUS
100
AcDbLine
 10
2.900146587768631
 20
-22.58103128460743
 30
0.0
 11
2.900146587768631
 21
-17.40123235558666
 31
0.0
  0
LINE
  5
36E
330
26A
100
AcDbEntity
  8
0
  6
CONTINUOUS
100
AcDbLine
 10
4.657849377969339
 20
-20.65417563480832
 30
0.0
 11
4.657849377969339
 21
-21.41503637594678
 31
0.0
  0
LINE
  5
36F
330
26A
100
AcDbEntity
  8
0
  6
CONTINUOUS
100
AcDbLine
 10
3.324079035798149
 20
-22.73941572693684
 30
0.0
 11
3.324079035798149
 21
-21.57342081827619
 31
0.0
  0
LINE
  5
370
330
26A
100
AcDbEntity
  8
0
  6
CONTINUOUS
100
AcDbLine
 10
3.165770961919861
 20
-21.41503637594678
 30
0.0
 11
3.324079035798149
 21
-21.57342081827619
 31
0.0
  0
LINE
  5
371
330
26A
100
AcDbEntity
  8
0
  6
CONTINUOUS
100
AcDbLine
 10
3.165770961919861
 20
-21.41503637594678
 30
0.0
 11
3.165770961919861
 21
-22.58103128460743
 31
0.0
  0
LINE
  5
372
330
26A
100
AcDbEntity
  8
0
  6
CONTINUOUS
100
AcDbLine
 10
4.657849377969339
 20
-21.41503637594678
 30
0.0
 11
3.165770961919861
 21
-21.41503637594678
 31
0.0
  0
ELLIPSE
  5
373
330
26A
100
AcDbEntity
  8
0
  6
CONTINUOUS
100
AcDbEllipse
 10
2.900106948043003
 20
-22.66022331516342
 30
0.0
 11
-0.4999999999990055
 21
-0.0000063045230263
 31
0.0
210
0.0
220
0.0
230
1.0
 40
0.1583844398229271
 41
4.712309370001213
 42
5.087865880909113
  0
LINE
  5
374
330
26A
100
AcDbEntity
  8
0
  6
CONTINUOUS
100
AcDbLine
 10
2.869537740031318
 20
-22.73941572693684
 30
0.0
 11
2.716748683730201
 21
-22.5865503021846
 31
0.0
  0
LINE
  5
375
330
26A
100
AcDbEntity
  8
0
  6
CONTINUOUS
100
AcDbLine
 10
2.869537740031318
 20
-22.73941572693684
 30
0.0
 11
3.324079035798149
 21
-22.73941572693684
 31
0.0
  0
LINE
  5
376
330
26A
100
AcDbEntity
  8
0
  6
CONTINUOUS
100
AcDbLine
 10
3.165770961919861
 20
-22.58103128460743
 30
0.0
 11
3.324079035798149
 21
-22.73941572693684
 31
0.0
  0
LINE
  5
377
330
26A
100
AcDbEntity
  8
0
  6
CONTINUOUS
100
AcDbLine
 10
3.165770961919861
 20
-22.58103128460743
 30
0.0
 11
2.900146587768631
 21
-22.58103128460743
 31
0.0
  0
LINE
  5
378
330
26A
100
AcDbEntity
  8
0
  6
CONTINUOUS
100
AcDbLine
 10
2.399698539653853
 20
-17.40123235558666
 30
0.0
 11
2.608419104496078
 21
-17.40123235558666
 31
0.0
  0
LINE
  5
379
330
26A
100
AcDbEntity
  8
0
  6
CONTINUOUS
100
AcDbLine
 10
1.584899320283965
 20
-17.91601741624571
 30
0.0
 11
1.585005491057471
 21
-17.91601741624571
 31
0.0
  0
LINE
  5
37A
330
26A
100
AcDbEntity
  8
0
  6
CONTINUOUS
100
AcDbLine
 10
1.584899320283965
 20
-19.21601730336942
 30
0.0
 11
1.585005491057471
 21
-19.21601730336942
 31
0.0
  0
LINE
  5
37B
330
26A
100
AcDbEntity
  8
0
  6
CONTINUOUS
100
AcDbLine
 10
1.584899320283965
 20
-19.21601730336942
 30
0.0
 11
1.584899320283965
 21
-17.91601741624571
 31
0.0
  0
LINE
  5
37C
330
26A
100
AcDbEntity
  8
0
  6
CONTINUOUS
100
AcDbLine
 10
1.585005491057471
 20
-17.91601741624571
 30
0.0
 11
1.612259714881018
 21
-17.91601741624571
 31
0.0
  0
LINE
  5
37D
330
26A
100
AcDbEntity
  8
0
  6
CONTINUOUS
100
AcDbLine
 10
1.585005491057471
 20
-19.21601730336942
 30
0.0
 11
1.612259714881018
 21
-19.21601730336942
 31
0.0
  0
LINE
  5
37E
330
26A
100
AcDbEntity
  8
0
  6
CONTINUOUS
100
AcDbLine
 10
1.585005491057471
 20
-17.91601741624571
 30
0.0
 11
1.585005491057471
 21
-19.21601730336942
 31
0.0
  0
LINE
  5
37F
330
26A
100
AcDbEntity
  8
0
  6
CONTINUOUS
100
AcDbLine
 10
2.399059652367665
 20
-17.65123228014954
 30
0.0
 11
2.39907827881916
 21
-17.65123228014954
 31
0.0
  0
LINE
  5
380
330
26A
100
AcDbEntity
  8
0
  6
CONTINUOUS
100
AcDbLine
 10
2.399698539653853
 20
-17.65123228014954
 30
0.0
 11
2.400106458941536
 21
-17.65123228014954
 31
0.0
  0
LINE
  5
381
330
26A
100
AcDbEntity
  8
0
  6
CONTINUOUS
100
AcDbLine
 10
2.399698539653853
 20
-17.65123228014954
 30
0.0
 11
2.399698539653853
 21
-17.40123235558666
 31
0.0
  0
LINE
  5
382
330
26A
100
AcDbEntity
  8
0
  6
CONTINUOUS
100
AcDbLine
 10
2.399698539653853
 20
-17.40123235558666
 30
0.0
 11
2.39907827881916
 21
-17.40123235558666
 31
0.0
  0
LINE
  5
383
330
26A
100
AcDbEntity
  8
0
  6
CONTINUOUS
100
AcDbLine
 10
2.39907827881916
 20
-17.40123235558666
 30
0.0
 11
2.39907827881916
 21
-17.65123228014954
 31
0.0
  0
LINE
  5
384
330
26A
100
AcDbEntity
  8
0
  6
CONTINUOUS
100
AcDbLine
 10
2.399059652367665
 20
-17.65123228014954
 30
0.0
 11
2.399059652367665
 21
-17.91601741624571
 31
0.0
  0
LINE
  5
385
330
26A
100
AcDbEntity
  8
0
  6
CONTINUOUS
100
AcDbLine
 10
1.612259714881018
 20
-17.91601741624571
 30
0.0
 11
2.404682978073195
 21
-17.91601741624571
 31
0.0
  0
LINE
  5
386
330
26A
100
AcDbEntity
  8
0
  6
CONTINUOUS
100
AcDbLine
 10
2.404682978073195
 20
-19.21601730336942
 30
0.0
 11
1.612259714881018
 21
-19.21601730336942
 31
0.0
  0
LINE
  5
387
330
26A
100
AcDbEntity
  8
0
  6
CONTINUOUS
100
AcDbLine
 10
1.612259714881018
 20
-19.21601730336942
 30
0.0
 11
1.612259714881018
 21
-17.91601741624571
 31
0.0
  0
LINE
  5
388
330
26A
100
AcDbEntity
  8
0
  6
CONTINUOUS
100
AcDbLine
 10
2.608841924944954
 20
-17.40123235558666
 30
0.0
 11
2.608419104496078
 21
-17.40123235558666
 31
0.0
  0
LINE
  5
389
330
26A
100
AcDbEntity
  8
0
  6
CONTINUOUS
100
AcDbLine
 10
2.608419104496078
 20
-17.40123235558666
 30
0.0
 11
2.608419104496078
 21
-17.65123228014954
 31
0.0
  0
LINE
  5
38A
330
26A
100
AcDbEntity
  8
0
  6
CONTINUOUS
100
AcDbLine
 10
3.46697744635685
 20
-20.0850171682755
 30
0.0
 11
3.46697744635685
 21
-18.4448181831608
 31
0.0
  0
LINE
  5
38B
330
26A
100
AcDbEntity
  8
0
  6
CONTINUOUS
100
AcDbLine
 10
3.46697744635685
 20
-20.0850171682755
 30
0.0
 11
3.467133908549383
 21
-20.0850171682755
 31
0.0
  0
LINE
  5
38C
330
26A
100
AcDbEntity
  8
0
  6
CONTINUOUS
100
AcDbLine
 10
3.467133908549383
 20
-18.4448181831608
 30
0.0
 11
3.46697744635685
 21
-18.4448181831608
 31
0.0
  0
LINE
  5
38D
330
26A
100
AcDbEntity
  8
0
  6
CONTINUOUS
100
AcDbLine
 10
4.623070067742901
 20
-20.0850171682755
 30
0.0
 11
3.467133908549383
 21
-20.0850171682755
 31
0.0
  0
LINE
  5
38E
330
26A
100
AcDbEntity
  8
0
  6
CONTINUOUS
100
AcDbLine
 10
4.623070067742901
 20
-18.4448181831608
 30
0.0
 11
4.623070067742901
 21
-20.0850171682755
 31
0.0
  0
LINE
  5
38F
330
26A
100
AcDbEntity
  8
0
  6
CONTINUOUS
100
AcDbLine
 10
3.467133908549383
 20
-18.4448181831608
 30
0.0
 11
4.623070067742901
 21
-18.4448181831608
 31
0.0
  0
LINE
  5
390
330
26A
100
AcDbEntity
  8
0
  6
CONTINUOUS
100
AcDbLine
 10
3.467133908549383
 20
-20.0850171682755
 30
0.0
 11
3.467133908549383
 21
-18.4448181831608
 31
0.0
  0
LINE
  5
391
330
26A
100
AcDbEntity
  8
0
  6
CONTINUOUS
100
AcDbLine
 10
2.900146587768631
 20
-17.40123235558666
 30
0.0
 11
2.608841924944954
 21
-17.40123235558666
 31
0.0
  0
LINE
  5
392
330
26A
100
AcDbEntity
  8
0
  6
CONTINUOUS
100
AcDbLine
 10
2.608841924944954
 20
-17.40123235558666
 30
0.0
 11
2.608841924944954
 21
-17.65123228014954
 31
0.0
  0
LINE
  5
393
330
26A
100
AcDbEntity
  8
0
  6
CONTINUOUS
100
AcDbLine
 10
2.400106458941536
 20
-17.65123228014954
 30
0.0
 11
2.608841924944954
 21
-17.65123228014954
 31
0.0
  0
LINE
  5
394
330
26A
100
AcDbEntity
  8
0
  6
CONTINUOUS
100
AcDbLine
 10
2.400106458941536
 20
-17.65123228014954
 30
0.0
 11
2.400106458941536
 21
-17.91601741624571
 31
0.0
  0
LINE
  5
395
330
26A
100
AcDbEntity
  8
0
  6
CONTINUOUS
100
AcDbLine
 10
2.404682978073195
 20
-17.91601741624571
 30
0.0
 11
2.404682978073195
 21
-19.21601730336942
 31
0.0
  0
LINE
  5
396
330
26A
100
AcDbEntity
  8
0
  6
CONTINUOUS
100
AcDbLine
 10
3.367134078422623
 20
-18.34481812020339
 30
0.0
 11
3.367134078422623
 21
-20.18501723123289
 31
0.0
  0
LINE
  5
397
330
26A
100
AcDbEntity
  8
0
  6
CONTINUOUS
100
AcDbLine
 10
4.657849377969339
 20
-12.07157058579423
 30
0.0
 11
4.816155589202478
 21
-11.91318614346482
 31
0.0
  0
LINE
  5
398
330
26A
100
AcDbEntity
  8
0
  6
CONTINUOUS
100
AcDbLine
 10
4.657849377969339
 20
-11.31070984465573
 30
0.0
 11
4.816155589202478
 21
-11.15232540232635
 31
0.0
  0
LINE
  5
399
330
26A
100
AcDbEntity
  8
0
  6
CONTINUOUS
100
AcDbLine
 10
4.816155589202478
 20
-11.15232540232635
 30
0.0
 11
3.324079035798149
 21
-11.15232540232635
 31
0.0
  0
LINE
  5
39A
330
26A
100
AcDbEntity
  8
0
  6
CONTINUOUS
100
AcDbLine
 10
5.139836750010084
 20
-15.32451409784653
 30
0.0
 11
2.900146587768631
 21
-15.32451409784653
 31
0.0
  0
LINE
  5
39B
330
26A
100
AcDbEntity
  8
0
  6
CONTINUOUS
100
AcDbLine
 10
4.723069897869661
 20
-14.38092810039916
 30
0.0
 11
3.367134078422623
 21
-14.38092810039916
 31
0.0
  0
LINE
  5
39C
330
26A
100
AcDbEntity
  8
0
  6
CONTINUOUS
100
AcDbLine
 10
3.367134078422623
 20
-12.54072922220029
 30
0.0
 11
4.723069897869661
 21
-12.54072922220029
 31
0.0
  0
LINE
  5
39D
330
26A
100
AcDbEntity
  8
0
  6
CONTINUOUS
100
AcDbLine
 10
4.657849377969339
 20
-12.07157058579423
 30
0.0
 11
5.230964801291063
 21
-12.07157058579423
 31
0.0
  0
LINE
  5
39E
330
26A
100
AcDbEntity
  8
0
  6
CONTINUOUS
100
AcDbLine
 10
4.722914366999702
 20
-14.38092810039916
 30
0.0
 11
4.722914366999702
 21
-12.54072922220029
 31
0.0
  0
LINE
  5
39F
330
26A
100
AcDbEntity
  8
0
  6
CONTINUOUS
100
AcDbLine
 10
5.389271943846778
 20
-11.91318614346482
 30
0.0
 11
5.389271943846778
 21
-13.93885465276935
 31
0.0
  0
LINE
  5
3A0
330
26A
100
AcDbEntity
  8
0
  6
CONTINUOUS
100
AcDbLine
 10
4.723069897869661
 20
-14.38092810039916
 30
0.0
 11
4.723069897869661
 21
-12.54072922220029
 31
0.0
  0
LINE
  5
3A1
330
26A
100
AcDbEntity
  8
0
  6
CONTINUOUS
100
AcDbLine
 10
5.230964801291063
 20
-12.07157058579423
 30
0.0
 11
5.230964801291063
 21
-14.09723909509875
 31
0.0
  0
LINE
  5
3A2
330
26A
100
AcDbEntity
  8
0
  6
CONTINUOUS
100
AcDbLine
 10
5.381835333088472
 20
-15.32451409784653
 30
0.0
 11
5.381835333088472
 21
-15.23293470436283
 31
0.0
  0
ELLIPSE
  5
3A3
330
26A
100
AcDbEntity
  8
0
  6
CONTINUOUS
100
AcDbEllipse
 10
9.704940397799873
 20
-17.10123231158376
 30
0.0
 11
0.0
 21
0.5
 31
0.0
210
0.0
220
0.0
230
1.0
 40
0.0625986046035791
 41
0.0
 42
0.3869234409357994
  0
ELLIPSE
  5
3A4
330
26A
100
AcDbEntity
  8
0
  6
CONTINUOUS
100
AcDbEllipse
 10
5.524940410389715
 20
-17.10123231158376
 30
0.0
 11
0.0
 21
0.5
 31
0.0
210
0.0
220
0.0
230
1.0
 40
0.0625986046035223
 41
0.0
 42
0.3869234409377984
  0
ELLIPSE
  5
3A5
330
26A
100
AcDbEntity
  8
0
  6
CONTINUOUS
100
AcDbEllipse
 10
6.86017993163432
 20
-17.10123231158376
 30
0.0
 11
0.0
 21
0.5
 31
0.0
210
0.0
220
0.0
230
1.0
 40
0.0524853924317768
 41
5.896261866244547
 42
6.283185307179584
  0
LINE
  5
3A6
330
26A
100
AcDbEntity
  8
0
  6
CONTINUOUS
100
AcDbLine
 10
5.524940497258738
 20
-16.60123231758871
 30
0.0
 11
6.860179535130098
 21
-16.60123231758871
 31
0.0
  0
LINE
  5
3A7
330
26A
100
AcDbEntity
  8
0
  6
CONTINUOUS
100
AcDbLine
 10
6.870082288065987
 20
-16.63819514269516
 30
0.0
 11
5.513129464367461
 21
-16.63819514269516
 31
0.0
  0
LINE
  5
3A8
330
26A
100
AcDbEntity
  8
0
  6
CONTINUOUS
100
AcDbLine
 10
5.381835333088472
 20
-15.32451409784653
 30
0.0
 11
5.395904823223188
 21
-15.32451409784653
 31
0.0
  0
ELLIPSE
  5
3A9
330
26A
100
AcDbEntity
  8
0
  6
CONTINUOUS
100
AcDbEllipse
 10
9.704940397799873
 20
-15.62451408887089
 30
0.0
 11
0.0
 21
0.5
 31
0.0
210
0.0
220
0.0
230
1.0
 40
0.0625986046035791
 41
2.754669212653993
 42
3.14159265358979
  0
ELLIPSE
  5
3AA
330
26A
100
AcDbEntity
  8
0
  6
CONTINUOUS
100
AcDbEllipse
 10
5.524940410389715
 20
-15.62451408887089
 30
0.0
 11
0.0
 21
0.5
 31
0.0
210
0.0
220
0.0
230
1.0
 40
0.0625986046035223
 41
2.754669212652855
 42
3.14159265358979
  0
ELLIPSE
  5
3AB
330
26A
100
AcDbEntity
  8
0
  6
CONTINUOUS
100
AcDbEllipse
 10
6.86017993163432
 20
-15.62451408887089
 30
0.0
 11
0.0
 21
0.5
 31
0.0
210
0.0
220
0.0
230
1.0
 40
0.0524853924317768
 41
3.14159265358979
 42
3.528516094525303
  0
LINE
  5
3AC
330
26A
100
AcDbEntity
  8
0
  6
CONTINUOUS
100
AcDbLine
 10
6.860179535130098
 20
-16.12451409218873
 30
0.0
 11
5.524940497258738
 21
-16.12451409218873
 31
0.0
  0
LINE
  5
3AD
330
26A
100
AcDbEntity
  8
0
  6
CONTINUOUS
100
AcDbLine
 10
9.693129627982216
 20
-16.08755125253037
 30
0.0
 11
9.536680473962855
 21
-15.06920179290273
 31
0.0
  0
LINE
  5
3AE
330
26A
100
AcDbEntity
  8
0
  6
CONTINUOUS
100
AcDbLine
 10
5.513129464367461
 20
-16.08755125253037
 30
0.0
 11
6.870082288065987
 21
-16.08755125253037
 31
0.0
  0
LINE
  5
3AF
330
26A
100
AcDbEntity
  8
0
  6
CONTINUOUS
100
AcDbLine
 10
7.001256278732852
 20
-15.06920179290273
 30
0.0
 11
6.870082288065987
 21
-16.08755125253037
 31
0.0
  0
LINE
  5
3B0
330
26A
100
AcDbEntity
  8
0
  6
CONTINUOUS
100
AcDbLine
 10
5.513129464367461
 20
-16.08755125253037
 30
0.0
 11
5.356680310348106
 21
-15.06920179290273
 31
0.0
  0
LINE
  5
3B1
330
26A
100
AcDbEntity
  8
0
  6
CONTINUOUS
100
AcDbLine
 10
9.339497133174972
 20
-15.07451405686834
 30
0.0
 11
9.537497243860796
 21
-15.07451405686834
 31
0.0
  0
LINE
  5
3B2
330
26A
100
AcDbEntity
  8
0
  6
CONTINUOUS
100
AcDbLine
 10
9.323847188631132
 20
-15.32451409784653
 30
0.0
 11
9.575904055515366
 21
-15.32451409784653
 31
0.0
  0
ELLIPSE
  5
3B3
330
26A
100
AcDbEntity
  8
0
  6
CONTINUOUS
100
AcDbEllipse
 10
9.339497286964386
 20
-14.82451408887072
 30
0.0
 11
0.0
 21
0.25
 31
0.0
210
0.0
220
0.0
230
1.0
 40
0.0625986046035223
 41
1.570796326794896
 42
3.141592653587975
  0
LINE
  5
3B4
330
26A
100
AcDbEntity
  8
0
  6
CONTINUOUS
100
AcDbLine
 10
6.968369415978027
 20
-15.32451409784653
 30
0.0
 11
7.207951216975287
 21
-15.32451409784653
 31
0.0
  0
LINE
  5
3B5
330
26A
100
AcDbEntity
  8
0
  6
CONTINUOUS
100
AcDbLine
 10
7.001256278732852
 20
-15.06920179290273
 30
0.0
 11
5.356680310348106
 21
-15.06920179290273
 31
0.0
  0
LINE
  5
3B6
330
26A
100
AcDbEntity
  8
0
  6
CONTINUOUS
100
AcDbLine
 10
7.192262156883312
 20
-15.07451405686834
 30
0.0
 11
7.000571756640511
 21
-15.07451405686834
 31
0.0
  0
ELLIPSE
  5
3B7
330
26A
100
AcDbEntity
  8
0
  6
CONTINUOUS
100
AcDbEllipse
 10
7.192262331331447
 20
-14.82451408887072
 30
0.0
 11
0.0
 21
0.25
 31
0.0
210
0.0
220
0.0
230
1.0
 40
0.0627538312168099
 41
3.141592653587977
 42
4.71238898038469
  0
LINE
  5
3B8
330
26A
100
AcDbEntity
  8
0
  6
CONTINUOUS
100
AcDbLine
 10
5.357497080246043
 20
-15.07451405686834
 30
0.0
 11
5.152919969538285
 21
-15.07451405686834
 31
0.0
  0
LINE
  5
3B9
330
26A
100
AcDbEntity
  8
0
  6
CONTINUOUS
100
AcDbLine
 10
5.230964801291063
 20
-14.09723909509875
 30
0.0
 11
5.389271943846778
 21
-13.93885465276935
 31
0.0
  0
LINE
  5
3BA
330
26A
100
AcDbEntity
  8
0
  6
CONTINUOUS
100
AcDbLine
 10
5.139836750010084
 20
-15.32451409784653
 30
0.0
 11
5.381835333088472
 21
-15.32451409784653
 31
0.0
  0
ELLIPSE
  5
3BB
330
26A
100
AcDbEntity
  8
0
  6
CONTINUOUS
100
AcDbEllipse
 10
5.152919574741416
 20
-14.82451408887072
 30
0.0
 11
0.0
 21
0.25
 31
0.0
210
0.0
220
0.0
230
1.0
 40
0.0523301658186028
 41
1.570796326794896
 42
3.14159265358979
  0
LINE
  5
3BC
330
26A
100
AcDbEntity
  8
0
  6
CONTINUOUS
100
AcDbLine
 10
9.323847188631132
 20
-15.32451409784653
 30
0.0
 11
7.207951216975287
 21
-15.32451409784653
 31
0.0
  0
LINE
  5
3BD
330
26A
100
AcDbEntity
  8
0
  6
CONTINUOUS
100
AcDbLine
 10
5.139836750010084
 20
-15.32451409784653
 30
0.0
 11
5.139836750010084
 21
-14.82451413230544
 31
0.0
  0
LINE
  5
3BE
330
26A
100
AcDbEntity
  8
0
  6
CONTINUOUS
100
AcDbLine
 10
7.207951216975287
 20
-14.82451413230544
 30
0.0
 11
5.139836750010084
 21
-14.82451413230544
 31
0.0
  0
LINE
  5
3BF
330
26A
100
AcDbEntity
  8
0
  6
CONTINUOUS
100
AcDbLine
 10
7.207951216975287
 20
-14.82451413230544
 30
0.0
 11
7.207951216975287
 21
-15.32451409784653
 31
0.0
  0
LINE
  5
3C0
330
26A
100
AcDbEntity
  8
0
  6
CONTINUOUS
100
AcDbLine
 10
9.323847188631132
 20
-15.32451409784653
 30
0.0
 11
9.323847188631132
 21
-14.82451413230544
 31
0.0
  0
LINE
  5
3C1
330
26A
100
AcDbEntity
  8
0
  6
CONTINUOUS
100
AcDbLine
 10
7.553897506574227
 20
-16.21570746701716
 30
0.0
 11
7.553897506574227
 21
-15.32451409784653
 31
0.0
  0
LINE
  5
3C2
330
26A
100
AcDbEntity
  8
0
  6
CONTINUOUS
100
AcDbLine
 10
7.553346163610057
 20
-15.81570747712203
 30
0.0
 11
7.553346163610057
 21
-16.21570746701716
 31
0.0
  0
SPLINE
  5
3C3
330
26A
100
AcDbEntity
  8
0
  6
CONTINUOUS
100
AcDbSpline
210
0.0
220
0.0
230
1.0
 70
     8
 71
     3
 72
    15
 73
    11
 74
     0
 42
0.0000000001
 43
0.0000000001
 40
0.0
 40
0.0
 40
0.0
 40
0.0
 40
0.0746038426308414
 40
0.2164025188609785
 40
0.358201185648325
 40
0.4999999766764791
 40
0.6417987677046333
 40
0.7835974344919798
 40
0.9253962674204599
 40
1.0
 40
1.0
 40
1.0
 40
1.0
 10
7.553864910284117
 20
-15.32451409784653
 30
0.0
 10
7.553864476510169
 20
-15.36552127869754
 30
0.0
 10
7.553863218267451
 20
-15.48447034237369
 30
0.0
 10
7.553853317831907
 20
-15.65046886351046
 30
0.0
 10
7.553838471727885
 20
-15.78462320426706
 30
0.0
 10
7.553820206800306
 20
-15.83124961263183
 30
0.0
 10
7.553801941874552
 20
-15.7846232351726
 30
0.0
 10
7.553787095759616
 20
-15.65046869047182
 30
0.0
 10
7.553777195340442
 20
-15.48447061286424
 30
0.0
 10
7.553775937092041
 20
-15.36552129648498
 30
0.0
 10
7.553775503316955
 20
-15.32451409784653
 30
0.0
  0
LINE
  5
3C4
330
26A
100
AcDbEntity
  8
0
  6
CONTINUOUS
100
AcDbLine
 10
4.816155589202478
 20
-11.91318614346482
 30
0.0
 11
4.816155589202478
 21
-11.15232540232635
 31
0.0
  0
LINE
  5
3C5
330
26A
100
AcDbEntity
  8
0
  6
CONTINUOUS
100
AcDbLine
 10
5.230964801291063
 20
-12.07157058579423
 30
0.0
 11
5.389271943846778
 21
-11.91318614346482
 31
0.0
  0
LINE
  5
3C6
330
26A
100
AcDbEntity
  8
0
  6
CONTINUOUS
100
AcDbLine
 10
5.389271943846778
 20
-11.91318614346482
 30
0.0
 11
4.816155589202478
 21
-11.91318614346482
 31
0.0
  0
LINE
  5
3C7
330
26A
100
AcDbEntity
  8
0
  6
CONTINUOUS
100
AcDbLine
 10
4.623070067742901
 20
-12.64072905232706
 30
0.0
 11
4.623070067742901
 21
-14.28092827027239
 31
0.0
  0
LINE
  5
3C8
330
26A
100
AcDbEntity
  8
0
  6
CONTINUOUS
100
AcDbLine
 10
3.46697744635685
 20
-12.64072905232706
 30
0.0
 11
3.46697744635685
 21
-14.28092827027239
 31
0.0
  0
LINE
  5
3C9
330
26A
100
AcDbEntity
  8
0
  6
CONTINUOUS
100
AcDbLine
 10
3.467133908549383
 20
-14.28092827027239
 30
0.0
 11
3.467133908549383
 21
-12.64072905232706
 31
0.0
  0
LINE
  5
3CA
330
26A
100
AcDbEntity
  8
0
  6
CONTINUOUS
100
AcDbLine
 10
3.367134078422623
 20
-12.54072922220029
 30
0.0
 11
3.367134078422623
 21
-14.38092810039916
 31
0.0
  0
LINE
  5
3CB
330
26A
100
AcDbEntity
  8
0
  6
CONTINUOUS
100
AcDbLine
 10
2.900146587768631
 20
-15.32451409784653
 30
0.0
 11
2.900146587768631
 21
-10.14471540165641
 31
0.0
  0
LINE
  5
3CC
330
26A
100
AcDbEntity
  8
0
  6
CONTINUOUS
100
AcDbLine
 10
2.608419104496078
 20
-15.32451409784653
 30
0.0
 11
2.399698539653853
 21
-15.32451409784653
 31
0.0
  0
LINE
  5
3CD
330
26A
100
AcDbEntity
  8
0
  6
CONTINUOUS
100
AcDbLine
 10
1.585005491057471
 20
-14.80972903718748
 30
0.0
 11
1.584899320283965
 21
-14.80972903718748
 31
0.0
  0
LINE
  5
3CE
330
26A
100
AcDbEntity
  8
0
  6
CONTINUOUS
100
AcDbLine
 10
1.585005491057471
 20
-13.50972915006376
 30
0.0
 11
1.584899320283965
 21
-13.50972915006376
 31
0.0
  0
LINE
  5
3CF
330
26A
100
AcDbEntity
  8
0
  6
CONTINUOUS
100
AcDbLine
 10
1.584899320283965
 20
-13.50972915006376
 30
0.0
 11
1.584899320283965
 21
-14.80972903718748
 31
0.0
  0
LINE
  5
3D0
330
26A
100
AcDbEntity
  8
0
  6
CONTINUOUS
100
AcDbLine
 10
1.612259714881018
 20
-14.80972903718748
 30
0.0
 11
1.585005491057471
 21
-14.80972903718748
 31
0.0
  0
LINE
  5
3D1
330
26A
100
AcDbEntity
  8
0
  6
CONTINUOUS
100
AcDbLine
 10
1.612259714881018
 20
-13.50972915006376
 30
0.0
 11
1.585005491057471
 21
-13.50972915006376
 31
0.0
  0
LINE
  5
3D2
330
26A
100
AcDbEntity
  8
0
  6
CONTINUOUS
100
AcDbLine
 10
1.585005491057471
 20
-13.50972915006376
 30
0.0
 11
1.585005491057471
 21
-14.80972903718748
 31
0.0
  0
LINE
  5
3D3
330
26A
100
AcDbEntity
  8
0
  6
CONTINUOUS
100
AcDbLine
 10
2.400106458941536
 20
-15.07451405686834
 30
0.0
 11
2.399698539653853
 21
-15.07451405686834
 31
0.0
  0
LINE
  5
3D4
330
26A
100
AcDbEntity
  8
0
  6
CONTINUOUS
100
AcDbLine
 10
2.399059652367665
 20
-15.07451405686834
 30
0.0
 11
2.39907827881916
 21
-15.07451405686834
 31
0.0
  0
LINE
  5
3D5
330
26A
100
AcDbEntity
  8
0
  6
CONTINUOUS
100
AcDbLine
 10
2.399059652367665
 20
-14.80972903718748
 30
0.0
 11
2.399059652367665
 21
-15.07451405686834
 31
0.0
  0
LINE
  5
3D6
330
26A
100
AcDbEntity
  8
0
  6
CONTINUOUS
100
AcDbLine
 10
2.39907827881916
 20
-15.07451405686834
 30
0.0
 11
2.39907827881916
 21
-15.32451409784653
 31
0.0
  0
LINE
  5
3D7
330
26A
100
AcDbEntity
  8
0
  6
CONTINUOUS
100
AcDbLine
 10
2.39907827881916
 20
-15.32451409784653
 30
0.0
 11
2.399698539653853
 21
-15.32451409784653
 31
0.0
  0
LINE
  5
3D8
330
26A
100
AcDbEntity
  8
0
  6
CONTINUOUS
100
AcDbLine
 10
2.399698539653853
 20
-15.32451409784653
 30
0.0
 11
2.399698539653853
 21
-15.07451405686834
 31
0.0
  0
LINE
  5
3D9
330
26A
100
AcDbEntity
  8
0
  6
CONTINUOUS
100
AcDbLine
 10
2.404682978073195
 20
-14.80972903718748
 30
0.0
 11
1.612259714881018
 21
-14.80972903718748
 31
0.0
  0
LINE
  5
3DA
330
26A
100
AcDbEntity
  8
0
  6
CONTINUOUS
100
AcDbLine
 10
2.404682978073195
 20
-13.50972915006376
 30
0.0
 11
1.612259714881018
 21
-13.50972915006376
 31
0.0
  0
LINE
  5
3DB
330
26A
100
AcDbEntity
  8
0
  6
CONTINUOUS
100
AcDbLine
 10
1.612259714881018
 20
-14.80972903718748
 30
0.0
 11
1.612259714881018
 21
-13.50972915006376
 31
0.0
  0
LINE
  5
3DC
330
26A
100
AcDbEntity
  8
0
  6
CONTINUOUS
100
AcDbLine
 10
2.608419104496078
 20
-15.32451409784653
 30
0.0
 11
2.608841924944954
 21
-15.32451409784653
 31
0.0
  0
LINE
  5
3DD
330
26A
100
AcDbEntity
  8
0
  6
CONTINUOUS
100
AcDbLine
 10
2.608419104496078
 20
-15.32451409784653
 30
0.0
 11
2.608419104496078
 21
-15.07451405686834
 31
0.0
  0
LINE
  5
3DE
330
26A
100
AcDbEntity
  8
0
  6
CONTINUOUS
100
AcDbLine
 10
4.623070067742901
 20
-14.28092827027239
 30
0.0
 11
3.467133908549383
 21
-14.28092827027239
 31
0.0
  0
LINE
  5
3DF
330
26A
100
AcDbEntity
  8
0
  6
CONTINUOUS
100
AcDbLine
 10
3.467133908549383
 20
-14.28092827027239
 30
0.0
 11
3.46697744635685
 21
-14.28092827027239
 31
0.0
  0
LINE
  5
3E0
330
26A
100
AcDbEntity
  8
0
  6
CONTINUOUS
100
AcDbLine
 10
2.608841924944954
 20
-15.32451409784653
 30
0.0
 11
2.900146587768631
 21
-15.32451409784653
 31
0.0
  0
LINE
  5
3E1
330
26A
100
AcDbEntity
  8
0
  6
CONTINUOUS
100
AcDbLine
 10
2.404682978073195
 20
-13.50972915006376
 30
0.0
 11
2.404682978073195
 21
-14.80972903718748
 31
0.0
  0
LINE
  5
3E2
330
26A
100
AcDbEntity
  8
0
  6
CONTINUOUS
100
AcDbLine
 10
2.400106458941536
 20
-14.80972903718748
 30
0.0
 11
2.400106458941536
 21
-15.07451405686834
 31
0.0
  0
LINE
  5
3E3
330
26A
100
AcDbEntity
  8
0
  6
CONTINUOUS
100
AcDbLine
 10
2.608841924944954
 20
-15.07451405686834
 30
0.0
 11
2.400106458941536
 21
-15.07451405686834
 31
0.0
  0
LINE
  5
3E4
330
26A
100
AcDbEntity
  8
0
  6
CONTINUOUS
100
AcDbLine
 10
2.608841924944954
 20
-15.07451405686834
 30
0.0
 11
2.608841924944954
 21
-15.32451409784653
 31
0.0
  0
LINE
  5
3E5
330
26A
100
AcDbEntity
  8
0
  6
CONTINUOUS
100
AcDbLine
 10
3.467133908549383
 20
-12.64072905232706
 30
0.0
 11
4.623070067742901
 21
-12.64072905232706
 31
0.0
  0
LINE
  5
3E6
330
26A
100
AcDbEntity
  8
0
  6
CONTINUOUS
100
AcDbLine
 10
3.46697744635685
 20
-12.64072905232706
 30
0.0
 11
3.467133908549383
 21
-12.64072905232706
 31
0.0
  0
LINE
  5
3E7
330
26A
100
AcDbEntity
  8
0
  6
CONTINUOUS
100
AcDbLine
 10
3.324079035798149
 20
-11.15232540232635
 30
0.0
 11
3.324079035798149
 21
-9.986330959327004
 31
0.0
  0
LINE
  5
3E8
330
26A
100
AcDbEntity
  8
0
  6
CONTINUOUS
100
AcDbLine
 10
3.165770961919861
 20
-11.31070984465573
 30
0.0
 11
3.324079035798149
 21
-11.15232540232635
 31
0.0
  0
LINE
  5
3E9
330
26A
100
AcDbEntity
  8
0
  6
CONTINUOUS
100
AcDbLine
 10
4.657849377969339
 20
-11.31070984465573
 30
0.0
 11
4.657849377969339
 21
-12.07157058579423
 31
0.0
  0
LINE
  5
3EA
330
26A
100
AcDbEntity
  8
0
  6
CONTINUOUS
100
AcDbLine
 10
3.165770961919861
 20
-11.31070984465573
 30
0.0
 11
4.657849377969339
 21
-11.31070984465573
 31
0.0
  0
LINE
  5
3EB
330
26A
100
AcDbEntity
  8
0
  6
CONTINUOUS
100
AcDbLine
 10
3.165770961919861
 20
-10.14471540165641
 30
0.0
 11
3.165770961919861
 21
-11.31070984465573
 31
0.0
  0
LINE
  5
3EC
330
26A
100
AcDbEntity
  8
0
  6
CONTINUOUS
100
AcDbLine
 10
3.165770961919861
 20
-10.14471540165641
 30
0.0
 11
3.324079035798149
 21
-9.986330959327004
 31
0.0
  0
LINE
  5
3ED
330
26A
100
AcDbEntity
  8
0
  6
CONTINUOUS
100
AcDbLine
 10
3.324079035798149
 20
-9.986330959327004
 30
0.0
 11
2.869537740031318
 21
-9.986330959327004
 31
0.0
  0
LINE
  5
3EE
330
26A
100
AcDbEntity
  8
0
  6
CONTINUOUS
100
AcDbLine
 10
2.716748683730201
 20
-10.13919591841795
 30
0.0
 11
2.869537740031318
 21
-9.986330959327004
 31
0.0
  0
ELLIPSE
  5
3EF
330
26A
100
AcDbEntity
  8
0
  6
CONTINUOUS
100
AcDbEllipse
 10
2.90010694804323
 20
-10.06552308529125
 30
0.0
 11
-0.4999999999990055
 21
0.0000063045229979
 31
0.0
210
0.0
220
0.0
230
1.0
 40
0.1583844398229271
 41
1.195319426270428
 42
1.570875937178303
  0
LINE
  5
3F0
330
26A
100
AcDbEntity
  8
0
  6
CONTINUOUS
100
AcDbLine
 10
2.900146587768631
 20
-10.14471540165641
 30
0.0
 11
3.165770961919861
 21
-10.14471540165641
 31
0.0
  0
LINE
  5
3F1
330
26A
100
AcDbEntity
  8
0
  6
CONTINUOUS
100
AcDbLine
 10
9.536680473962855
 20
-0.5798258067438839
 30
0.0
 11
11.1812564423476
 21
-0.5798258067438839
 31
0.0
  0
LINE
  5
3F2
330
26A
100
AcDbEntity
  8
0
  6
CONTINUOUS
100
AcDbLine
 10
12.17675552425726
 20
-1.710173878199839
 30
0.0
 11
5.389271943846778
 21
-1.710173878199839
 31
0.0
  0
LINE
  5
3F3
330
26A
100
AcDbEntity
  8
0
  6
CONTINUOUS
100
AcDbLine
 10
9.323847188631132
 20
-0.8245140494177576
 30
0.0
 11
11.39196165559632
 21
-0.8245140494177576
 31
0.0
  0
LINE
  5
3F4
330
26A
100
AcDbEntity
  8
0
  6
CONTINUOUS
100
AcDbLine
 10
12.33521773202164
 20
-1.551789435870432
 30
0.0
 11
5.230964801291063
 21
-1.551789435870432
 31
0.0
  0
LINE
  5
3F5
330
26A
100
AcDbEntity
  8
0
  6
CONTINUOUS
100
AcDbLine
 10
14.10156133306964
 20
-2.454513888187193
 30
0.0
 11
14.47544217763288
 21
-2.454513888187193
 31
0.0
  0
LINE
  5
3F6
330
26A
100
AcDbEntity
  8
0
  6
CONTINUOUS
100
AcDbLine
 10
14.10156133306964
 20
-1.154514233894133
 30
0.0
 11
14.47544217763288
 21
-1.154514233894133
 31
0.0
  0
LINE
  5
3F7
330
26A
100
AcDbEntity
  8
0
  6
CONTINUOUS
100
AcDbLine
 10
14.47544217763288
 20
-1.154514233894133
 30
0.0
 11
14.47544217763288
 21
-2.454513888187193
 31
0.0
  0
LINE
  5
3F8
330
26A
100
AcDbEntity
  8
0
  6
CONTINUOUS
100
AcDbLine
 10
13.90012045113189
 20
-2.454513888187193
 30
0.0
 11
14.10156133306964
 21
-2.454513888187193
 31
0.0
  0
LINE
  5
3F9
330
26A
100
AcDbEntity
  8
0
  6
CONTINUOUS
100
AcDbLine
 10
13.90012045113189
 20
-1.154514233894133
 30
0.0
 11
14.10156133306964
 21
-1.154514233894133
 31
0.0
  0
LINE
  5
3FA
330
26A
100
AcDbEntity
  8
0
  6
CONTINUOUS
100
AcDbLine
 10
14.10156133306964
 20
-2.454513888187193
 30
0.0
 11
14.10156133306964
 21
-1.154514233894133
 31
0.0
  0
LINE
  5
3FB
330
26A
100
AcDbEntity
  8
0
  6
CONTINUOUS
100
AcDbLine
 10
12.33521773202164
 20
-1.551789435870432
 30
0.0
 11
12.17675552425726
 21
-1.710173878199839
 31
0.0
  0
LINE
  5
3FC
330
26A
100
AcDbEntity
  8
0
  6
CONTINUOUS
100
AcDbLine
 10
11.14924595413548
 20
-0.3245148987839457
 30
0.0
 11
11.14924595413548
 21
-0.3313172788689371
 31
0.0
  0
LINE
  5
3FD
330
26A
100
AcDbEntity
  8
0
  6
CONTINUOUS
100
AcDbLine
 10
13.898524164239
 20
-0.0993993313381907
 30
0.0
 11
13.89871042875393
 21
-0.0993993313381907
 31
0.0
  0
LINE
  5
3FE
330
26A
100
AcDbEntity
  8
0
  6
CONTINUOUS
100
AcDbLine
 10
13.89951416013581
 20
-0.3245148987839457
 30
0.0
 11
13.6271311780606
 21
-0.3245148987839457
 31
0.0
  0
LINE
  5
3FF
330
26A
100
AcDbEntity
  8
0
  6
CONTINUOUS
100
AcDbLine
 10
13.37776257378799
 20
-0.3245148987839457
 30
0.0
 11
13.6271311780606
 21
-0.3245148987839457
 31
0.0
  0
LINE
  5
400
330
26A
100
AcDbEntity
  8
0
  6
CONTINUOUS
100
AcDbLine
 10
13.6271311780606
 20
-0.3245148987839457
 30
0.0
 11
13.6271311780606
 21
-0.5745135427782772
 31
0.0
  0
LINE
  5
401
330
26A
100
AcDbEntity
  8
0
  6
CONTINUOUS
100
AcDbLine
 10
11.14924595413548
 20
-0.3245148987839457
 30
0.0
 11
11.14836957959276
 21
-0.3245148987839457
 31
0.0
  0
LINE
  5
402
330
26A
100
AcDbEntity
  8
0
  6
CONTINUOUS
100
AcDbLine
 10
11.10656882651847
 20
0.0000000000013642
 30
0.0
 11
11.1812564423476
 21
-0.5798258067438839
 31
0.0
  0
LINE
  5
403
330
26A
100
AcDbEntity
  8
0
  6
CONTINUOUS
100
AcDbLine
 10
11.39196165559632
 20
-0.3245148987839457
 30
0.0
 11
11.14924595413548
 21
-0.3245148987839457
 31
0.0
  0
ELLIPSE
  5
404
330
26A
100
AcDbEntity
  8
0
  6
CONTINUOUS
100
AcDbEllipse
 10
11.37884004355441
 20
-0.8245140888707283
 30
0.0
 11
0.0
 21
0.25
 31
0.0
210
0.0
220
0.0
230
1.0
 40
0.0524853924317768
 41
4.71238898038469
 42
6.283185307179584
  0
LINE
  5
405
330
26A
100
AcDbEntity
  8
0
  6
CONTINUOUS
100
AcDbLine
 10
11.37884025184257
 20
-0.5745135427782772
 30
0.0
 11
11.18057192025526
 21
-0.5745135427782772
 31
0.0
  0
LINE
  5
406
330
26A
100
AcDbEntity
  8
0
  6
CONTINUOUS
100
AcDbLine
 10
11.39196165559632
 20
-0.3245148987839457
 30
0.0
 11
13.37776257378799
 21
-0.3245148987839457
 31
0.0
  0
LINE
  5
407
330
26A
100
AcDbEntity
  8
0
  6
CONTINUOUS
100
AcDbLine
 10
13.37776257378799
 20
-0.3245148987839457
 30
0.0
 11
13.37776257378799
 21
-0.5745135427782772
 31
0.0
  0
LINE
  5
408
330
26A
100
AcDbEntity
  8
0
  6
CONTINUOUS
100
AcDbLine
 10
11.39196165559632
 20
-0.3245148987839457
 30
0.0
 11
11.39196165559632
 21
-0.8245140494177576
 31
0.0
  0
LINE
  5
409
330
26A
100
AcDbEntity
  8
0
  6
CONTINUOUS
100
AcDbLine
 10
13.90014559684139
 20
-0.5745135427782772
 30
0.0
 11
13.37776257378799
 21
-0.5745135427782772
 31
0.0
  0
LINE
  5
40A
330
26A
100
AcDbEntity
  8
0
  6
CONTINUOUS
100
AcDbLine
 10
13.89917888400896
 20
-0.0993993313381907
 30
0.0
 11
13.89933581186276
 21
-0.0993993313381907
 31
0.0
  0
LINE
  5
40B
330
26A
100
AcDbEntity
  8
0
  6
CONTINUOUS
100
AcDbLine
 10
13.89933488054021
 20
-0.1533527107308146
 30
0.0
 11
13.89927481023414
 21
-0.1533527107308146
 31
0.0
  0
LINE
  5
40C
330
26A
100
AcDbEntity
  8
0
  6
CONTINUOUS
100
AcDbLine
 10
13.89935211000784
 20
-0.0993993313381907
 30
0.0
 11
13.89938796592696
 21
-0.0993993313381907
 31
0.0
  0
LINE
  5
40D
330
26A
100
AcDbEntity
  8
0
  6
CONTINUOUS
100
AcDbLine
 10
13.89940659237844
 20
-0.0993993313381907
 30
0.0
 11
13.89944198263629
 21
-0.0993993313381907
 31
0.0
  0
LINE
  5
40E
330
26A
100
AcDbEntity
  8
0
  6
CONTINUOUS
100
AcDbLine
 10
13.89946107474907
 20
-0.0993993313381907
 30
0.0
 11
13.89949646500689
 21
-0.0993993313381907
 31
0.0
  0
LINE
  5
40F
330
26A
100
AcDbEntity
  8
0
  6
CONTINUOUS
100
AcDbLine
 10
13.89951322881324
 20
-0.0993993313381907
 30
0.0
 11
13.89966969100576
 21
-0.0993993313381907
 31
0.0
  0
LINE
  5
410
330
26A
100
AcDbEntity
  8
0
  6
CONTINUOUS
100
AcDbLine
 10
13.89966270608647
 20
-0.1533527107308146
 30
0.0
 11
13.89957376478059
 21
-0.1533527107308146
 31
0.0
  0
LINE
  5
411
330
26A
100
AcDbEntity
  8
0
  6
CONTINUOUS
100
AcDbLine
 10
13.89966969100576
 20
-0.0993993313381907
 30
0.0
 11
13.89985129890783
 21
-0.0993993313381907
 31
0.0
  0
LWPOLYLINE
  5
412
330
26A
100
AcDbEntity
  8
0
  6
CONTINUOUS
100
AcDbPolyline
 90
        9
 70
   128
 43
0.0
 10
13.89966969100576
 20
-0.0993993313381907
 10
13.89965898079617
 20
-0.1798525632689234
 10
13.89964733926398
 20
-0.2404909761021372
 10
13.89963476640923
 20
-0.2802025706837412
 10
13.89962219355447
 20
-0.2982609154055353
 10
13.89960962069972
 20
-0.294330734140658
 10
13.89959751350625
 20
-0.268490257985377
 10
13.89958540631278
 20
-0.2212070108721491
 10
13.89957376478059
 20
-0.1533527107308146
  0
LWPOLYLINE
  5
413
330
26A
100
AcDbEntity
  8
0
  6
CONTINUOUS
100
AcDbPolyline
 90
        9
 70
   128
 43
0.0
 10
13.89957376478059
 20
-0.1533527107308146
 10
13.89956910816771
 20
-0.2775855542490717
 10
13.8995616575871
 20
-0.3750540496180292
 10
13.89955234436138
 20
-0.4343271435568571
 10
13.89954163415175
 20
-0.4484534443686245
 10
13.89953138960343
 20
-0.4157751978705165
 10
13.89952254203898
 20
-0.3401238651345011
 10
13.89951602278097
 20
-0.2303749502966639
 10
13.89951322881324
 20
-0.0993993313381907
  0
LINE
  5
414
330
26A
100
AcDbEntity
  8
0
  6
CONTINUOUS
100
AcDbLine
 10
13.89951322881324
 20
-0.0993993313381907
 30
0.0
 11
13.89949646500689
 21
-0.0993993313381907
 31
0.0
  0
LWPOLYLINE
  5
415
330
26A
100
AcDbEntity
  8
0
  6
CONTINUOUS
100
AcDbPolyline
 90
        4
 70
   128
 43
0.0
 10
13.89946200607164
 20
-0.3245148987839457
 10
13.89946060908777
 20
-0.2924569131205317
 10
13.89945921210392
 20
-0.1956366182635065
 10
13.89946107474907
 20
-0.0993993313381907
  0
LWPOLYLINE
  5
416
330
26A
100
AcDbEntity
  8
0
  6
CONTINUOUS
100
AcDbPolyline
 90
        4
 70
   128
 43
0.0
 10
13.89949646500689
 20
-0.0993993313381907
 10
13.89949786199076
 20
-0.1956366182635065
 10
13.89949646500689
 20
-0.2924569131205317
 10
13.89949553368433
 20
-0.3245148987839457
  0
LINE
  5
417
330
26A
100
AcDbEntity
  8
0
  6
CONTINUOUS
100
AcDbLine
 10
13.89944198263629
 20
-0.0993993313381907
 30
0.0
 11
13.89946107474907
 21
-0.0993993313381907
 31
0.0
  0
LWPOLYLINE
  5
418
330
26A
100
AcDbEntity
  8
0
  6
CONTINUOUS
100
AcDbPolyline
 90
        4
 70
   128
 43
0.0
 10
13.89940752370103
 20
-0.3245148987839457
 10
13.89940612671716
 20
-0.2924569131205317
 10
13.8994047297333
 20
-0.1956366182635065
 10
13.89940659237844
 20
-0.0993993313381907
  0
LWPOLYLINE
  5
419
330
26A
100
AcDbEntity
  8
0
  6
CONTINUOUS
100
AcDbPolyline
 90
        4
 70
   128
 43
0.0
 10
13.89944198263629
 20
-0.0993993313381907
 10
13.89944384528144
 20
-0.1956366182635065
 10
13.89944244829757
 20
-0.2924569131205317
 10
13.89944105131371
 20
-0.3245148987839457
  0
LINE
  5
41A
330
26A
100
AcDbEntity
  8
0
  6
CONTINUOUS
100
AcDbLine
 10
13.89938796592696
 20
-0.0993993313381907
 30
0.0
 11
13.89940659237844
 21
-0.0993993313381907
 31
0.0
  0
LWPOLYLINE
  5
41B
330
26A
100
AcDbEntity
  8
0
  6
CONTINUOUS
100
AcDbPolyline
 90
        4
 70
   128
 43
0.0
 10
13.8993530413304
 20
-0.3245148987839457
 10
13.89935211000784
 20
-0.2924569131205317
 10
13.89935071302397
 20
-0.1956366182635065
 10
13.89935211000784
 20
-0.0993993313381907
  0
LWPOLYLINE
  5
41C
330
26A
100
AcDbEntity
  8
0
  6
CONTINUOUS
100
AcDbPolyline
 90
        4
 70
   128
 43
0.0
 10
13.89938796592696
 20
-0.0993993313381907
 10
13.89938936291082
 20
-0.1956366182635065
 10
13.89938796592696
 20
-0.2924569131205317
 10
13.8993865689431
 20
-0.3245148987839457
  0
LINE
  5
41D
330
26A
100
AcDbEntity
  8
0
  6
CONTINUOUS
100
AcDbLine
 10
13.89935211000784
 20
-0.0993993313381907
 30
0.0
 11
13.89933581186276
 21
-0.0993993313381907
 31
0.0
  0
LWPOLYLINE
  5
41E
330
26A
100
AcDbEntity
  8
0
  6
CONTINUOUS
100
AcDbPolyline
 90
        3
 70
   128
 43
0.0
 10
13.89928226081474
 20
-0.3245148987839457
 10
13.89927946684702
 20
-0.2775855542490717
 10
13.89927481023414
 20
-0.1533527107308146
  0
LWPOLYLINE
  5
41F
330
26A
100
AcDbEntity
  8
0
  6
CONTINUOUS
100
AcDbPolyline
 90
        3
 70
   128
 43
0.0
 10
13.89933581186276
 20
-0.0993993313381907
 10
13.89933255223376
 20
-0.2303749502966639
 10
13.8993274299596
 20
-0.3245148987839457
  0
LWPOLYLINE
  5
420
330
26A
100
AcDbEntity
  8
0
  6
CONTINUOUS
100
AcDbPolyline
 90
        9
 70
   128
 43
0.0
 10
13.89927481023414
 20
-0.1533527107308146
 10
13.89926316870196
 20
-0.2212070108721491
 10
13.89925106150849
 20
-0.268490257985377
 10
13.899238954315
 20
-0.294330734140658
 10
13.89922638146026
 20
-0.2982609154055353
 10
13.89921380860551
 20
-0.2802025706837412
 10
13.89920123575073
 20
-0.2404909761021372
 10
13.89918959421857
 20
-0.1798525632689234
 10
13.89917888400896
 20
-0.0993993313381907
  0
LINE
  5
421
330
26A
100
AcDbEntity
  8
0
  6
CONTINUOUS
100
AcDbLine
 10
13.89871042875393
 20
-0.0993993313381907
 30
0.0
 11
13.89917888400896
 21
-0.0993993313381907
 31
0.0
  0
LINE
  5
422
330
26A
100
AcDbEntity
  8
0
  6
CONTINUOUS
100
AcDbLine
 10
13.89852556122284
 20
-0.3245148987839457
 30
0.0
 11
13.898524164239
 21
-0.0993993313381907
 31
0.0
  0
LINE
  5
423
330
26A
100
AcDbEntity
  8
0
  6
CONTINUOUS
100
AcDbLine
 10
13.89871042875393
 20
-0.0993993313381907
 30
0.0
 11
13.89870856610878
 21
-0.3245148987839457
 31
0.0
  0
LINE
  5
424
330
26A
100
AcDbEntity
  8
0
  6
CONTINUOUS
100
AcDbLine
 10
13.89985129890783
 20
-0.0993993313381907
 30
0.0
 11
14.89992568745218
 21
-0.0993993313381907
 31
0.0
  0
LINE
  5
425
330
26A
100
AcDbEntity
  8
0
  6
CONTINUOUS
100
AcDbLine
 10
13.89985129890783
 20
-0.0993993313381907
 30
0.0
 11
13.89985129890783
 21
-0.5745135427782772
 31
0.0
  0
LINE
  5
426
330
26A
100
AcDbEntity
  8
0
  6
CONTINUOUS
100
AcDbLine
 10
13.1982627203856
 20
-0.3245148987839457
 30
0.0
 11
13.19826249736593
 21
0.000000000001819
 31
0.0
  0
LINE
  5
427
330
26A
100
AcDbEntity
  8
0
  6
CONTINUOUS
100
AcDbLine
 10
13.8982820203696
 20
-0.1811545522282358
 30
0.0
 11
13.89827037883742
 21
-0.0981718481848475
 31
0.0
  0
LINE
  5
428
330
26A
100
AcDbEntity
  8
0
  6
CONTINUOUS
100
AcDbLine
 10
13.89827037883742
 20
-0.0981718481848475
 30
0.0
 11
13.64827033785923
 21
-0.0981718481848475
 31
0.0
  0
LINE
  5
429
330
26A
100
AcDbEntity
  8
0
  6
CONTINUOUS
100
AcDbLine
 10
13.8982820203696
 20
-0.3245148987839457
 30
0.0
 11
13.8982820203696
 21
-0.1811545522282358
 31
0.0
  0
LINE
  5
42A
330
26A
100
AcDbEntity
  8
0
  6
CONTINUOUS
100
AcDbLine
 10
13.8982820203696
 20
-0.1811545522282358
 30
0.0
 11
13.64828197939141
 21
-0.1811545522282358
 31
0.0
  0
LINE
  5
42B
330
26A
100
AcDbEntity
  8
0
  6
CONTINUOUS
100
AcDbLine
 10
13.64826614690763
 20
0.000000000001819
 30
0.0
 11
13.64826661256892
 21
-0.3245148987839457
 31
0.0
  0
LINE
  5
42C
330
26A
100
AcDbEntity
  8
0
  6
CONTINUOUS
100
AcDbLine
 10
13.64828197939141
 20
-0.1811545522282358
 30
0.0
 11
13.64827033785923
 21
-0.0981718481848475
 31
0.0
  0
LINE
  5
42D
330
26A
100
AcDbEntity
  8
0
  6
CONTINUOUS
100
AcDbLine
 10
13.64828197939141
 20
-0.3245148987839457
 30
0.0
 11
13.64828197939141
 21
-0.1811545522282358
 31
0.0
  0
LINE
  5
42E
330
26A
100
AcDbEntity
  8
0
  6
CONTINUOUS
100
AcDbLine
 10
1.584899320283965
 20
-2.139299380905411
 30
0.0
 11
1.584899320283965
 21
-0.8392987952897783
 31
0.0
  0
LINE
  5
42F
330
26A
100
AcDbEntity
  8
0
  6
CONTINUOUS
100
AcDbLine
 10
1.585005491057471
 20
-0.8392987952897783
 30
0.0
 11
1.585005491057471
 21
-2.139299380905411
 31
0.0
  0
LINE
  5
430
330
26A
100
AcDbEntity
  8
0
  6
CONTINUOUS
100
AcDbLine
 10
1.612259714881018
 20
-2.139299380905411
 30
0.0
 11
1.612259714881018
 21
-0.8392987952897783
 31
0.0
  0
LINE
  5
431
330
26A
100
AcDbEntity
  8
0
  6
CONTINUOUS
100
AcDbLine
 10
2.404682978073195
 20
-0.8392987952897783
 30
0.0
 11
2.404682978073195
 21
-2.139299380905411
 31
0.0
  0
LINE
  5
432
330
26A
100
AcDbEntity
  8
0
  6
CONTINUOUS
100
AcDbLine
 10
2.900146587768631
 20
-5.504313129312777
 30
0.0
 11
2.900146587768631
 21
-0.3245148987839457
 31
0.0
  0
LINE
  5
433
330
26A
100
AcDbEntity
  8
0
  6
CONTINUOUS
100
AcDbLine
 10
4.657849377969339
 20
-3.577457945174955
 30
0.0
 11
4.816155589202478
 21
-3.735842387504361
 31
0.0
  0
LINE
  5
434
330
26A
100
AcDbEntity
  8
0
  6
CONTINUOUS
100
AcDbLine
 10
3.324079035798149
 20
-4.49670312864282
 30
0.0
 11
4.816155589202478
 21
-4.49670312864282
 31
0.0
  0
LINE
  5
435
330
26A
100
AcDbEntity
  8
0
  6
CONTINUOUS
100
AcDbLine
 10
4.657849377969339
 20
-4.338318686313413
 30
0.0
 11
4.816155589202478
 21
-4.49670312864282
 31
0.0
  0
LINE
  5
436
330
26A
100
AcDbEntity
  8
0
  6
CONTINUOUS
100
AcDbLine
 10
4.723069897869661
 20
-3.10829861027696
 30
0.0
 11
3.367134078422623
 21
-3.10829861027696
 31
0.0
  0
LINE
  5
437
330
26A
100
AcDbEntity
  8
0
  6
CONTINUOUS
100
AcDbLine
 10
3.367134078422623
 20
-1.268100197739385
 30
0.0
 11
4.723069897869661
 21
-1.268100197739385
 31
0.0
  0
LINE
  5
438
330
26A
100
AcDbEntity
  8
0
  6
CONTINUOUS
100
AcDbLine
 10
5.230964801291063
 20
-3.577457945174955
 30
0.0
 11
4.657849377969339
 21
-3.577457945174955
 31
0.0
  0
LINE
  5
439
330
26A
100
AcDbEntity
  8
0
  6
CONTINUOUS
100
AcDbLine
 10
4.722914366999702
 20
-3.10829861027696
 30
0.0
 11
4.722914366999702
 21
-1.268100197739385
 31
0.0
  0
LINE
  5
43A
330
26A
100
AcDbEntity
  8
0
  6
CONTINUOUS
100
AcDbLine
 10
5.389271943846778
 20
-1.710173878199839
 30
0.0
 11
5.389271943846778
 21
-3.735842387504361
 31
0.0
  0
LINE
  5
43B
330
26A
100
AcDbEntity
  8
0
  6
CONTINUOUS
100
AcDbLine
 10
5.230964801291063
 20
-1.551789435870432
 30
0.0
 11
5.389271943846778
 21
-1.710173878199839
 31
0.0
  0
LINE
  5
43C
330
26A
100
AcDbEntity
  8
0
  6
CONTINUOUS
100
AcDbLine
 10
4.816155589202478
 20
-4.49670312864282
 30
0.0
 11
4.816155589202478
 21
-3.735842387504361
 31
0.0
  0
LINE
  5
43D
330
26A
100
AcDbEntity
  8
0
  6
CONTINUOUS
100
AcDbLine
 10
4.816155589202478
 20
-3.735842387504361
 30
0.0
 11
5.389271943846778
 21
-3.735842387504361
 31
0.0
  0
LINE
  5
43E
330
26A
100
AcDbEntity
  8
0
  6
CONTINUOUS
100
AcDbLine
 10
5.230964801291063
 20
-3.577457945174955
 30
0.0
 11
5.389271943846778
 21
-3.735842387504361
 31
0.0
  0
LINE
  5
43F
330
26A
100
AcDbEntity
  8
0
  6
CONTINUOUS
100
AcDbLine
 10
4.723069897869661
 20
-3.10829861027696
 30
0.0
 11
4.723069897869661
 21
-1.268100197739385
 31
0.0
  0
LINE
  5
440
330
26A
100
AcDbEntity
  8
0
  6
CONTINUOUS
100
AcDbLine
 10
5.230964801291063
 20
-1.551789435870432
 30
0.0
 11
5.230964801291063
 21
-3.577457945174955
 31
0.0
  0
LINE
  5
441
330
26A
100
AcDbEntity
  8
0
  6
CONTINUOUS
100
AcDbLine
 10
3.324079035798149
 20
-5.662697571642183
 30
0.0
 11
3.324079035798149
 21
-4.49670312864282
 31
0.0
  0
LINE
  5
442
330
26A
100
AcDbEntity
  8
0
  6
CONTINUOUS
100
AcDbLine
 10
3.165770961919861
 20
-4.338318686313413
 30
0.0
 11
3.165770961919861
 21
-5.504313129312777
 31
0.0
  0
ELLIPSE
  5
443
330
26A
100
AcDbEntity
  8
0
  6
CONTINUOUS
100
AcDbEllipse
 10
2.90010694804323
 20
-5.583505092450651
 30
0.0
 11
-0.4999999999990055
 21
-0.0000063045229694
 31
0.0
210
0.0
220
0.0
230
1.0
 40
0.1583844398229839
 41
4.712309370001235
 42
5.087865880909347
  0
LINE
  5
444
330
26A
100
AcDbEntity
  8
0
  6
CONTINUOUS
100
AcDbLine
 10
2.869537740031318
 20
-5.662697571642183
 30
0.0
 11
2.716748683730201
 21
-5.509832146889947
 31
0.0
  0
LINE
  5
445
330
26A
100
AcDbEntity
  8
0
  6
CONTINUOUS
100
AcDbLine
 10
2.869537740031318
 20
-5.662697571642183
 30
0.0
 11
3.324079035798149
 21
-5.662697571642183
 31
0.0
  0
LINE
  5
446
330
26A
100
AcDbEntity
  8
0
  6
CONTINUOUS
100
AcDbLine
 10
3.165770961919861
 20
-5.504313129312777
 30
0.0
 11
3.324079035798149
 21
-5.662697571642183
 31
0.0
  0
LINE
  5
447
330
26A
100
AcDbEntity
  8
0
  6
CONTINUOUS
100
AcDbLine
 10
3.165770961919861
 20
-5.504313129312777
 30
0.0
 11
2.900146587768631
 21
-5.504313129312777
 31
0.0
  0
LINE
  5
448
330
26A
100
AcDbEntity
  8
0
  6
CONTINUOUS
100
AcDbLine
 10
1.584899320283965
 20
-2.139299380905411
 30
0.0
 11
1.585005491057471
 21
-2.139299380905411
 31
0.0
  0
LINE
  5
449
330
26A
100
AcDbEntity
  8
0
  6
CONTINUOUS
100
AcDbLine
 10
1.585005491057471
 20
-2.139299380905411
 30
0.0
 11
1.612259714881018
 21
-2.139299380905411
 31
0.0
  0
LINE
  5
44A
330
26A
100
AcDbEntity
  8
0
  6
CONTINUOUS
100
AcDbLine
 10
2.404682978073195
 20
-2.139299380905411
 30
0.0
 11
1.612259714881018
 21
-2.139299380905411
 31
0.0
  0
LINE
  5
44B
330
26A
100
AcDbEntity
  8
0
  6
CONTINUOUS
100
AcDbLine
 10
4.623070067742901
 20
-3.008298780150198
 30
0.0
 11
3.467133908549383
 21
-3.008298780150198
 31
0.0
  0
LINE
  5
44C
330
26A
100
AcDbEntity
  8
0
  6
CONTINUOUS
100
AcDbLine
 10
4.623070067742901
 20
-1.368100027866148
 30
0.0
 11
4.623070067742901
 21
-3.008298780150198
 31
0.0
  0
LINE
  5
44D
330
26A
100
AcDbEntity
  8
0
  6
CONTINUOUS
100
AcDbLine
 10
3.467133908549383
 20
-1.368100027866148
 30
0.0
 11
4.623070067742901
 21
-1.368100027866148
 31
0.0
  0
LINE
  5
44E
330
26A
100
AcDbEntity
  8
0
  6
CONTINUOUS
100
AcDbLine
 10
3.46697744635685
 20
-3.008298780150198
 30
0.0
 11
3.46697744635685
 21
-1.368100027866148
 31
0.0
  0
LINE
  5
44F
330
26A
100
AcDbEntity
  8
0
  6
CONTINUOUS
100
AcDbLine
 10
3.46697744635685
 20
-3.008298780150198
 30
0.0
 11
3.467133908549383
 21
-3.008298780150198
 31
0.0
  0
LINE
  5
450
330
26A
100
AcDbEntity
  8
0
  6
CONTINUOUS
100
AcDbLine
 10
3.467133908549383
 20
-3.008298780150198
 30
0.0
 11
3.467133908549383
 21
-1.368100027866148
 31
0.0
  0
LINE
  5
451
330
26A
100
AcDbEntity
  8
0
  6
CONTINUOUS
100
AcDbLine
 10
3.467133908549383
 20
-1.368100027866148
 30
0.0
 11
3.46697744635685
 21
-1.368100027866148
 31
0.0
  0
LINE
  5
452
330
26A
100
AcDbEntity
  8
0
  6
CONTINUOUS
100
AcDbLine
 10
3.165770961919861
 20
-4.338318686313413
 30
0.0
 11
3.324079035798149
 21
-4.49670312864282
 31
0.0
  0
LINE
  5
453
330
26A
100
AcDbEntity
  8
0
  6
CONTINUOUS
100
AcDbLine
 10
3.367134078422623
 20
-1.268100197739385
 30
0.0
 11
3.367134078422623
 21
-3.10829861027696
 31
0.0
  0
LINE
  5
454
330
26A
100
AcDbEntity
  8
0
  6
CONTINUOUS
100
AcDbLine
 10
4.657849377969339
 20
-4.338318686313413
 30
0.0
 11
3.165770961919861
 21
-4.338318686313413
 31
0.0
  0
LINE
  5
455
330
26A
100
AcDbEntity
  8
0
  6
CONTINUOUS
100
AcDbLine
 10
4.657849377969339
 20
-3.577457945174955
 30
0.0
 11
4.657849377969339
 21
-4.338318686313413
 31
0.0
  0
LINE
  5
456
330
26A
100
AcDbEntity
  8
0
  6
CONTINUOUS
100
AcDbLine
 10
2.900146587768631
 20
-0.3245148987839457
 30
0.0
 11
5.139836750010084
 21
-0.3245148987839457
 31
0.0
  0
LINE
  5
457
330
26A
100
AcDbEntity
  8
0
  6
CONTINUOUS
100
AcDbLine
 10
5.381835333088472
 20
-0.3245148987839457
 30
0.0
 11
5.381835333088472
 21
-0.416093710191035
 31
0.0
  0
LINE
  5
458
330
26A
100
AcDbEntity
  8
0
  6
CONTINUOUS
100
AcDbLine
 10
5.395904823223188
 20
-0.3245148987839457
 30
0.0
 11
5.381835333088472
 21
-0.3245148987839457
 31
0.0
  0
LINE
  5
459
330
26A
100
AcDbEntity
  8
0
  6
CONTINUOUS
100
AcDbLine
 10
9.536680473962855
 20
-0.5798258067438839
 30
0.0
 11
9.625759217796023
 21
0.0000000000013642
 31
0.0
  0
LINE
  5
45A
330
26A
100
AcDbEntity
  8
0
  6
CONTINUOUS
100
AcDbLine
 10
5.356680310348106
 20
-0.5798258067438839
 30
0.0
 11
5.445759054181051
 21
0.0000000000004547
 31
0.0
  0
LINE
  5
45B
330
26A
100
AcDbEntity
  8
0
  6
CONTINUOUS
100
AcDbLine
 10
6.926568662903719
 20
0.0000000000009095
 30
0.0
 11
7.001256278732852
 21
-0.5798258067438839
 31
0.0
  0
LINE
  5
45C
330
26A
100
AcDbEntity
  8
0
  6
CONTINUOUS
100
AcDbLine
 10
9.537497243860796
 20
-0.5745135427782772
 30
0.0
 11
9.339497133174972
 21
-0.5745135427782772
 31
0.0
  0
LINE
  5
45D
330
26A
100
AcDbEntity
  8
0
  6
CONTINUOUS
100
AcDbLine
 10
9.575904055515366
 20
-0.3245148987839457
 30
0.0
 11
9.323847188631132
 21
-0.3245148987839457
 31
0.0
  0
ELLIPSE
  5
45E
330
26A
100
AcDbEntity
  8
0
  6
CONTINUOUS
100
AcDbEllipse
 10
9.339497286964386
 20
-0.8245140888707283
 30
0.0
 11
0.0
 21
0.25
 31
0.0
210
0.0
220
0.0
230
1.0
 40
0.0625986046035223
 41
0.0
 42
1.570796326794896
  0
LINE
  5
45F
330
26A
100
AcDbEntity
  8
0
  6
CONTINUOUS
100
AcDbLine
 10
7.207951216975287
 20
-0.3245148987839457
 30
0.0
 11
6.968369415978027
 21
-0.3245148987839457
 31
0.0
  0
ELLIPSE
  5
460
330
26A
100
AcDbEntity
  8
0
  6
CONTINUOUS
100
AcDbEllipse
 10
7.192262331331447
 20
-0.8245140888707283
 30
0.0
 11
0.0
 21
0.25
 31
0.0
210
0.0
220
0.0
230
1.0
 40
0.0627538312166962
 41
4.71238898038469
 42
6.283185307179584
  0
LINE
  5
461
330
26A
100
AcDbEntity
  8
0
  6
CONTINUOUS
100
AcDbLine
 10
7.000571756640511
 20
-0.5745135427782772
 30
0.0
 11
7.192262156883312
 21
-0.5745135427782772
 31
0.0
  0
LINE
  5
462
330
26A
100
AcDbEntity
  8
0
  6
CONTINUOUS
100
AcDbLine
 10
5.356680310348106
 20
-0.5798258067438839
 30
0.0
 11
7.001256278732852
 21
-0.5798258067438839
 31
0.0
  0
LINE
  5
463
330
26A
100
AcDbEntity
  8
0
  6
CONTINUOUS
100
AcDbLine
 10
5.152919969538285
 20
-0.5745135427782772
 30
0.0
 11
5.357497080246043
 21
-0.5745135427782772
 31
0.0
  0
LINE
  5
464
330
26A
100
AcDbEntity
  8
0
  6
CONTINUOUS
100
AcDbLine
 10
5.381835333088472
 20
-0.3245148987839457
 30
0.0
 11
5.139836750010084
 21
-0.3245148987839457
 31
0.0
  0
ELLIPSE
  5
465
330
26A
100
AcDbEntity
  8
0
  6
CONTINUOUS
100
AcDbEllipse
 10
5.152919574741416
 20
-0.8245140888707283
 30
0.0
 11
0.0
 21
0.25
 31
0.0
210
0.0
220
0.0
230
1.0
 40
0.0523301658186028
 41
0.0
 42
1.570796326794896
  0
LINE
  5
466
330
26A
100
AcDbEntity
  8
0
  6
CONTINUOUS
100
AcDbLine
 10
7.207951216975287
 20
-0.3245148987839457
 30
0.0
 11
9.323847188631132
 21
-0.3245148987839457
 31
0.0
  0
LINE
  5
467
330
26A
100
AcDbEntity
  8
0
  6
CONTINUOUS
100
AcDbLine
 10
9.323847188631132
 20
-0.8245140494177576
 30
0.0
 11
9.323847188631132
 21
-0.3245148987839457
 31
0.0
  0
LINE
  5
468
330
26A
100
AcDbEntity
  8
0
  6
CONTINUOUS
100
AcDbLine
 10
7.207951216975287
 20
-0.3245148987839457
 30
0.0
 11
7.207951216975287
 21
-0.8245140494177576
 31
0.0
  0
LINE
  5
469
330
26A
100
AcDbEntity
  8
0
  6
CONTINUOUS
100
AcDbLine
 10
5.139836750010084
 20
-0.8245140494177576
 30
0.0
 11
7.207951216975287
 21
-0.8245140494177576
 31
0.0
  0
LINE
  5
46A
330
26A
100
AcDbEntity
  8
0
  6
CONTINUOUS
100
AcDbLine
 10
5.139836750010084
 20
-0.8245140494177576
 30
0.0
 11
5.139836750010084
 21
-0.3245148987839457
 31
0.0
  0
LINE
  5
46B
330
26A
100
AcDbEntity
  8
0
  6
CONTINUOUS
100
AcDbLine
 10
2.399698539653853
 20
-0.3245148987839457
 30
0.0
 11
2.608419104496078
 21
-0.3245148987839457
 31
0.0
  0
LINE
  5
46C
330
26A
100
AcDbEntity
  8
0
  6
CONTINUOUS
100
AcDbLine
 10
1.584899320283965
 20
-0.8392987952897783
 30
0.0
 11
1.585005491057471
 21
-0.8392987952897783
 31
0.0
  0
LINE
  5
46D
330
26A
100
AcDbEntity
  8
0
  6
CONTINUOUS
100
AcDbLine
 10
1.585005491057471
 20
-0.8392987952897783
 30
0.0
 11
1.612259714881018
 21
-0.8392987952897783
 31
0.0
  0
LINE
  5
46E
330
26A
100
AcDbEntity
  8
0
  6
CONTINUOUS
100
AcDbLine
 10
2.399059652367665
 20
-0.5745135427782772
 30
0.0
 11
2.39907827881916
 21
-0.5745135427782772
 31
0.0
  0
LINE
  5
46F
330
26A
100
AcDbEntity
  8
0
  6
CONTINUOUS
100
AcDbLine
 10
2.399698539653853
 20
-0.5745135427782772
 30
0.0
 11
2.400106458941536
 21
-0.5745135427782772
 31
0.0
  0
LINE
  5
470
330
26A
100
AcDbEntity
  8
0
  6
CONTINUOUS
100
AcDbLine
 10
2.399698539653853
 20
-0.5745135427782772
 30
0.0
 11
2.399698539653853
 21
-0.3245148987839457
 31
0.0
  0
LINE
  5
471
330
26A
100
AcDbEntity
  8
0
  6
CONTINUOUS
100
AcDbLine
 10
2.399698539653853
 20
-0.3245148987839457
 30
0.0
 11
2.39907827881916
 21
-0.3245148987839457
 31
0.0
  0
LINE
  5
472
330
26A
100
AcDbEntity
  8
0
  6
CONTINUOUS
100
AcDbLine
 10
2.39907827881916
 20
-0.3245148987839457
 30
0.0
 11
2.39907827881916
 21
-0.5745135427782772
 31
0.0
  0
LINE
  5
473
330
26A
100
AcDbEntity
  8
0
  6
CONTINUOUS
100
AcDbLine
 10
2.399059652367665
 20
-0.5745135427782772
 30
0.0
 11
2.399059652367665
 21
-0.8392987952897783
 31
0.0
  0
LINE
  5
474
330
26A
100
AcDbEntity
  8
0
  6
CONTINUOUS
100
AcDbLine
 10
1.612259714881018
 20
-0.8392987952897783
 30
0.0
 11
2.404682978073195
 21
-0.8392987952897783
 31
0.0
  0
LINE
  5
475
330
26A
100
AcDbEntity
  8
0
  6
CONTINUOUS
100
AcDbLine
 10
2.608841924944954
 20
-0.3245148987839457
 30
0.0
 11
2.608419104496078
 21
-0.3245148987839457
 31
0.0
  0
LINE
  5
476
330
26A
100
AcDbEntity
  8
0
  6
CONTINUOUS
100
AcDbLine
 10
2.608419104496078
 20
-0.3245148987839457
 30
0.0
 11
2.608419104496078
 21
-0.5745135427782772
 31
0.0
  0
LINE
  5
477
330
26A
100
AcDbEntity
  8
0
  6
CONTINUOUS
100
AcDbLine
 10
2.900146587768631
 20
-0.3245148987839457
 30
0.0
 11
2.608841924944954
 21
-0.3245148987839457
 31
0.0
  0
LINE
  5
478
330
26A
100
AcDbEntity
  8
0
  6
CONTINUOUS
100
AcDbLine
 10
2.608841924944954
 20
-0.3245148987839457
 30
0.0
 11
2.608841924944954
 21
-0.5745135427782772
 31
0.0
  0
LINE
  5
479
330
26A
100
AcDbEntity
  8
0
  6
CONTINUOUS
100
AcDbLine
 10
2.400106458941536
 20
-0.5745135427782772
 30
0.0
 11
2.608841924944954
 21
-0.5745135427782772
 31
0.0
  0
LINE
  5
47A
330
26A
100
AcDbEntity
  8
0
  6
CONTINUOUS
100
AcDbLine
 10
2.400106458941536
 20
-0.5745135427782772
 30
0.0
 11
2.400106458941536
 21
-0.8392987952897783
 31
0.0
  0
ENDBLK
  5
47C
330
26A
100
AcDbEntity
  8
0
100
AcDbBlockEnd
  0
ENDSEC
  0
SECTION
  2
ENTITIES
  0
LINE
  5
625
330
1F
100
AcDbEntity
  8
1
100
AcDbLine
 10
35.50000100926296
 20
175.9738142138351
 30
0.0
 11
50.50000100926308
 21
175.9738142138351
 31
0.0
  0
LINE
  5
626
330
1F
100
AcDbEntity
  8
1
100
AcDbLine
 10
43.00000100926297
 20
168.4738142138344
 30
0.0
 11
43.00000100926297
 21
183.4738142138349
 31
0.0
  0
LINE
  5
627
330
1F
100
AcDbEntity
  8
1
100
AcDbLine
 10
43.00000100926297
 20
352.4738142138343
 30
0.0
 11
43.00000100926297
 21
367.4738142138352
 31
0.0
  0
LINE
  5
628
330
1F
100
AcDbEntity
  8
1
100
AcDbLine
 10
35.50000100926296
 20
359.9738142138352
 30
0.0
 11
50.50000100926308
 21
359.9738142138352
 31
0.0
  0
LINE
  5
62B
330
1F
100
AcDbEntity
  8
0
100
AcDbLine
 10
61.45000100926302
 20
204.0900973564264
 30
0.0
 11
61.45000100926302
 21
219.0575310712438
 31
0.0
  0
LINE
  5
62C
330
1F
100
AcDbEntity
  8
0
100
AcDbLine
 10
55.15000100926306
 20
219.6738142138346
 30
0.0
 11
55.15000100926306
 21
203.4738142138353
 31
0.0
  0
LINE
  5
62D
330
1F
100
AcDbEntity
  8
0
100
AcDbLine
 10
56.70000100926301
 20
220.1738142138356
 30
0.0
 11
56.70000100926301
 21
202.9738142138351
 31
0.0
  0
LINE
  5
62E
330
1F
100
AcDbEntity
  8
0
100
AcDbLine
 10
59.90000100926295
 20
202.9738142138351
 30
0.0
 11
59.90000100926295
 21
220.1738142138356
 31
0.0
  0
LINE
  5
62F
330
1F
100
AcDbEntity
  8
0
100
AcDbLine
 10
53.70000100926302
 20
229.1738142138346
 30
0.0
 11
53.70000100926302
 21
193.9738142138351
 31
0.0
  0
LINE
  5
630
330
1F
100
AcDbEntity
  8
0
100
AcDbLine
 10
62.80000100926304
 20
192.9738142138344
 30
0.0
 11
62.80000100926304
 21
230.1738142138356
 31
0.0
  0
LINE
  5
631
330
1F
100
AcDbEntity
  8
0
100
AcDbLine
 10
64.00000113118108
 20
230.6738140544914
 30
0.0
 11
64.00000113118108
 21
185.1738140544905
 31
0.0
  0
LINE
  5
632
330
1F
100
AcDbEntity
  8
0
100
AcDbLine
 10
52.60000113117996
 20
230.6738140544914
 30
0.0
 11
52.60000113117996
 21
185.1738140544905
 31
0.0
  0
LINE
  5
633
330
1F
100
AcDbEntity
  8
0
100
AcDbLine
 10
63.10000100926298
 20
230.6738140544914
 30
0.0
 11
63.10000100926298
 21
185.1738140544905
 31
0.0
  0
LINE
  5
634
330
1F
100
AcDbEntity
  8
0
100
AcDbLine
 10
37.60000113118008
 20
239.5738140544917
 30
0.0
 11
37.60000113118008
 21
185.1738140544905
 31
0.0
  0
LINE
  5
635
330
1F
100
AcDbEntity
  8
0
100
AcDbLine
 10
36.70000100926211
 20
185.9738142138351
 30
0.0
 11
36.70000100926211
 21
226.6138142138355
 31
0.0
  0
LINE
  5
636
330
1F
100
AcDbEntity
  8
0
100
AcDbLine
 10
28.10000100926208
 20
226.6138142138355
 30
0.0
 11
28.10000100926208
 21
185.9738142138351
 31
0.0
  0
LINE
  5
637
330
1F
100
AcDbEntity
  8
0
100
AcDbLine
 10
27.00000113117994
 20
271.4738140544914
 30
0.0
 11
27.00000113117994
 21
185.1738140544905
 31
0.0
  0
LINE
  5
638
330
1F
100
AcDbEntity
  8
0
100
AcDbLine
 10
28.10000100926298
 20
185.1738140544905
 30
0.0
 11
28.10000100926298
 21
271.4738140544914
 31
0.0
  0
LINE
  5
639
330
1F
100
AcDbEntity
  8
0
100
AcDbLine
 10
19.00000100926297
 20
201.6069946387483
 30
0.0
 11
19.00000100926297
 21
354.9476282922664
 31
0.0
  0
LINE
  5
63A
330
1F
100
AcDbEntity
  8
0
100
AcDbLine
 10
20.00000100926308
 20
354.9738142138352
 30
0.0
 11
20.00000100926194
 21
202.3555946738734
 31
0.0
  0
LINE
  5
63B
330
1F
100
AcDbEntity
  8
0
100
AcDbLine
 10
22.00000100926296
 20
352.9738142138352
 30
0.0
 11
22.00000100926195
 21
203.5595102313386
 31
0.0
  0
LINE
  5
63C
330
1F
100
AcDbEntity
  8
0
100
AcDbLine
 10
19.00000100926297
 20
201.6069946387483
 30
0.0
 11
19.00000100926297
 21
354.4738142138352
 31
0.0
  0
LINE
  5
63D
330
1F
100
AcDbEntity
  8
0
100
AcDbLine
 10
22.10000100926197
 20
352.7738142138355
 30
0.0
 11
22.10000100926197
 21
203.6659140021347
 31
0.0
  0
LINE
  5
63E
330
1F
100
AcDbEntity
  8
0
100
AcDbLine
 10
72.00000100926297
 20
363.9738142138353
 30
0.0
 11
72.00000100926297
 21
171.9738142138351
 31
0.0
  0
LINE
  5
63F
330
1F
100
AcDbEntity
  8
0
100
AcDbLine
 10
70.0000010092631
 20
182.9738142138353
 30
0.0
 11
70.0000010092631
 21
352.9738142138352
 31
0.0
  0
LINE
  5
640
330
1F
100
AcDbEntity
  8
0
100
AcDbLine
 10
72.00000100926297
 20
180.9738142138344
 30
0.0
 11
72.00000100926297
 21
354.9738142138352
 31
0.0
  0
LINE
  5
641
330
1F
100
AcDbEntity
  8
0
100
AcDbLine
 10
69.70000100926211
 20
352.7738142138355
 30
0.0
 11
69.70000100926211
 21
183.1738142138346
 31
0.0
  0
LINE
  5
642
330
1F
100
AcDbEntity
  8
0
100
AcDbLine
 10
0.0000010092630873
 20
363.5283107546673
 30
0.0
 11
0.0000010092630873
 21
172.4193176730023
 31
0.0
  0
ARC
  5
643
330
1F
100
AcDbEntity
  8
0
100
AcDbCircle
 10
43.00000100926297
 20
175.9738142138351
 30
0.0
 40
5.5
100
AcDbArc
 50
0.0
 51
65.38002267134597
  0
LINE
  5
645
330
1F
100
AcDbEntity
  8
0
100
AcDbLine
 10
20.00000100926194
 20
180.9738142138344
 30
0.0
 11
72.00000100926297
 21
180.9738142138344
 31
0.0
  0
LINE
  5
646
330
1F
100
AcDbEntity
  8
0
100
AcDbLine
 10
70.0000010092631
 20
182.9738142138353
 30
0.0
 11
25.00000100925797
 21
182.9738142138353
 31
0.0
  0
LINE
  5
647
330
1F
100
AcDbEntity
  8
0
100
AcDbLine
 10
25.10000100925799
 20
183.1738142138346
 30
0.0
 11
69.70000100926211
 21
183.1738142138346
 31
0.0
  0
LINE
  5
648
330
1F
100
AcDbEntity
  8
0
100
AcDbLine
 10
0.4869125351089
 20
181.4324105750547
 30
0.0
 11
18.00000100926297
 21
180.9738142138344
 31
0.0
  0
LINE
  5
649
330
1F
100
AcDbEntity
  8
0
100
AcDbLine
 10
18.00000100926297
 20
170.9738142138353
 30
0.0
 11
0.9738240609549391
 21
171.4196603480274
 31
0.0
  0
ARC
  5
64A
330
1F
100
AcDbEntity
  8
0
100
AcDbCircle
 10
1.000001009262972
 20
172.4193176730023
 30
0.0
 40
1.0
100
AcDbArc
 50
180.0
 51
268.5000000000036
  0
ARC
  5
64B
330
1F
100
AcDbEntity
  8
0
100
AcDbCircle
 10
0.5000010092630875
 20
181.9322392375424
 30
0.0
 40
0.5
100
AcDbArc
 50
180.0
 51
268.5000000000036
  0
LINE
  5
64C
330
1F
100
AcDbEntity
  8
0
100
AcDbLine
 10
40.90000100926295
 20
175.9738142138351
 30
0.0
 11
40.90000100926295
 21
170.9738142138353
 31
0.0
  0
LINE
  5
64D
330
1F
100
AcDbEntity
  8
0
100
AcDbLine
 10
45.10000100926299
 20
175.9738142138351
 30
0.0
 11
45.10000100926299
 21
170.9738142138353
 31
0.0
  0
LINE
  5
64E
330
1F
100
AcDbEntity
  8
0
100
AcDbLine
 10
37.50000100926309
 20
175.9738142138351
 30
0.0
 11
37.50000100926309
 21
170.9738142138353
 31
0.0
  0
LINE
  5
64F
330
1F
100
AcDbEntity
  8
0
100
AcDbLine
 10
18.00000100926297
 20
170.9738142138353
 30
0.0
 11
40.90000100926295
 21
170.9738142138353
 31
0.0
  0
LINE
  5
650
330
1F
100
AcDbEntity
  8
0
100
AcDbLine
 10
18.00000100926297
 20
170.9738142138353
 30
0.0
 11
40.75000100926295
 21
170.9738142138353
 31
0.0
  0
LINE
  5
651
330
1F
100
AcDbEntity
  8
0
100
AcDbLine
 10
37.60000113118008
 20
185.1738140544905
 30
0.0
 11
27.00000113117994
 21
185.1738140544905
 31
0.0
  0
LINE
  5
652
330
1F
100
AcDbEntity
  8
0
100
AcDbLine
 10
28.10000100926208
 20
185.9738142138351
 30
0.0
 11
36.70000100926211
 21
185.9738142138351
 31
0.0
  0
LINE
  5
653
330
1F
100
AcDbEntity
  8
0
100
AcDbLine
 10
22.00000100925899
 20
197.9738142138351
 30
0.0
 11
22.00000100925807
 21
181.0785579001113
 31
0.0
  0
LINE
  5
654
330
1F
100
AcDbEntity
  8
0
100
AcDbLine
 10
23.00000100925899
 20
197.9738142138351
 30
0.0
 11
23.00000100925797
 21
180.9738142138344
 31
0.0
  0
LINE
  5
655
330
1F
100
AcDbEntity
  8
0
100
AcDbLine
 10
25.00000100925899
 20
197.9738142138351
 30
0.0
 11
25.00000100925797
 21
182.9738142138353
 31
0.0
  0
LINE
  5
656
330
1F
100
AcDbEntity
  8
0
100
AcDbLine
 10
22.00000100925899
 20
197.9738142138351
 30
0.0
 11
22.00000100925807
 21
181.4738142138351
 31
0.0
  0
LINE
  5
657
330
1F
100
AcDbEntity
  8
0
100
AcDbLine
 10
25.1000010092589
 20
197.9738142138351
 30
0.0
 11
25.10000100925799
 21
183.1738142138346
 31
0.0
  0
LINE
  5
658
330
1F
100
AcDbEntity
  8
0
100
AcDbLine
 10
18.00000100926297
 20
180.9738142138344
 30
0.0
 11
22.00000100925807
 21
181.0785579001113
 31
0.0
  0
LINE
  5
659
330
1F
100
AcDbEntity
  8
0
100
AcDbLine
 10
18.00000100926297
 20
180.9738142138344
 30
0.0
 11
22.00000100925899
 21
181.0785579001113
 31
0.0
  0
CIRCLE
  5
65A
330
1F
100
AcDbEntity
  8
0
100
AcDbCircle
 10
18.00000100926297
 20
185.9738142138351
 30
0.0
 40
1.6
  0
CIRCLE
  5
65B
330
1F
100
AcDbEntity
  8
0
100
AcDbCircle
 10
18.00000100926297
 20
185.9738142138351
 30
0.0
 40
2.0
  0
LINE
  5
65C
330
1F
100
AcDbEntity
  8
0
100
AcDbLine
 10
20.00000100926047
 20
181.0261860569744
 30
0.0
 11
20.00000100926194
 21
180.9738142138344
 31
0.0
  0
LINE
  5
65D
330
1F
100
AcDbEntity
  8
0
100
AcDbLine
 10
23.00000100925797
 20
181.4738142138351
 30
0.0
 11
22.00000100925807
 21
181.4738142138344
 31
0.0
  0
ARC
  5
65E
330
1F
100
AcDbEntity
  8
0
100
AcDbCircle
 10
18.30000100926303
 20
197.9738142138351
 30
0.0
 40
3.699999999995998
100
AcDbArc
 50
0.0
 51
79.09453000326401
  0
ARC
  5
65F
330
1F
100
AcDbEntity
  8
0
100
AcDbCircle
 10
18.30000100926303
 20
197.9738142138351
 30
0.0
 40
4.699999999995998
100
AcDbArc
 50
0.0
 51
68.79523363710011
  0
ARC
  5
660
330
1F
100
AcDbEntity
  8
0
100
AcDbCircle
 10
18.30000100926303
 20
197.9738142138351
 30
0.0
 40
3.699999999995998
100
AcDbArc
 50
0.0
 51
79.09453000326401
  0
LINE
  5
661
330
1F
100
AcDbEntity
  8
0
100
AcDbLine
 10
16.35000100926299
 20
203.9738142138351
 30
0.0
 11
16.35000100926299
 21
205.3238142138352
 31
0.0
  0
LINE
  5
662
330
1F
100
AcDbEntity
  8
0
100
AcDbLine
 10
16.65000100926192
 20
203.9738142138351
 30
0.0
 11
16.65000100926192
 21
205.3238142138352
 31
0.0
  0
ARC
  5
663
330
1F
100
AcDbEntity
  8
0
100
AcDbCircle
 10
16.50000100926308
 20
205.3238142138352
 30
0.0
 40
0.15
100
AcDbArc
 50
0.0
 51
180.0
  0
ARC
  5
664
330
1F
100
AcDbEntity
  8
0
100
AcDbCircle
 10
17.85000100926299
 20
203.8238142138343
 30
0.0
 40
0.15
100
AcDbArc
 50
270.0
 51
90.0
  0
LINE
  5
665
330
1F
100
AcDbEntity
  8
0
100
AcDbLine
 10
16.65000100926192
 20
203.9738142138351
 30
0.0
 11
17.85000100926299
 21
203.9738142138351
 31
0.0
  0
LINE
  5
666
330
1F
100
AcDbEntity
  8
0
100
AcDbLine
 10
15.55000100926303
 20
203.3238142138352
 30
0.0
 11
17.45000100926211
 21
203.3238142138352
 31
0.0
  0
LINE
  5
667
330
1F
100
AcDbEntity
  8
0
100
AcDbLine
 10
15.55000100926303
 20
203.0238142138346
 30
0.0
 11
17.45000100926211
 21
203.0238142138346
 31
0.0
  0
LINE
  5
668
330
1F
100
AcDbEntity
  8
0
100
AcDbLine
 10
15.95000100926301
 20
202.6738142138356
 30
0.0
 11
17.0500010092619
 21
202.6738142138356
 31
0.0
  0
LINE
  5
669
330
1F
100
AcDbEntity
  8
0
100
AcDbLine
 10
15.95000100926301
 20
202.3738142138354
 30
0.0
 11
17.0500010092619
 21
202.3738142138354
 31
0.0
  0
ARC
  5
66A
330
1F
100
AcDbEntity
  8
0
100
AcDbCircle
 10
15.95000100926301
 20
202.5238142138346
 30
0.0
 40
0.15
100
AcDbArc
 50
90.0
 51
270.0
  0
ARC
  5
66B
330
1F
100
AcDbEntity
  8
0
100
AcDbCircle
 10
17.0500010092619
 20
202.5238142138346
 30
0.0
 40
0.15
100
AcDbArc
 50
270.0
 51
90.0
  0
ARC
  5
66C
330
1F
100
AcDbEntity
  8
0
100
AcDbCircle
 10
15.55000100926303
 20
203.1738142138346
 30
0.0
 40
0.15
100
AcDbArc
 50
90.0
 51
270.0
  0
ARC
  5
66D
330
1F
100
AcDbEntity
  8
0
100
AcDbCircle
 10
17.45000100926211
 20
203.1738142138346
 30
0.0
 40
0.15
100
AcDbArc
 50
270.0
 51
90.0
  0
ARC
  5
66E
330
1F
100
AcDbEntity
  8
0
100
AcDbCircle
 10
15.15000100926291
 20
203.8238142138343
 30
0.0
 40
0.15
100
AcDbArc
 50
90.0
 51
270.0
  0
CIRCLE
  5
66F
330
1F
100
AcDbEntity
  8
0
100
AcDbCircle
 10
16.50000100926308
 20
203.9738142138351
 30
0.0
 40
2.149999999999999
  0
CIRCLE
  5
670
330
1F
100
AcDbEntity
  8
0
100
AcDbCircle
 10
16.50000100926308
 20
203.9738142138351
 30
0.0
 40
1.85
  0
LINE
  5
671
330
1F
100
AcDbEntity
  8
0
100
AcDbLine
 10
15.15000100926291
 20
203.6738142138346
 30
0.0
 11
17.85000100926299
 21
203.6738142138346
 31
0.0
  0
LINE
  5
672
330
1F
100
AcDbEntity
  8
0
100
AcDbLine
 10
15.15000100926291
 20
203.9738142138351
 30
0.0
 11
16.35000100926299
 21
203.9738142138351
 31
0.0
  0
CIRCLE
  5
673
330
1F
100
AcDbEntity
  8
0
100
AcDbCircle
 10
18.00000100926297
 20
195.9738142138349
 30
0.0
 40
2.0
  0
CIRCLE
  5
674
330
1F
100
AcDbEntity
  8
0
100
AcDbCircle
 10
18.00000100926297
 20
195.9738142138349
 30
0.0
 40
1.6
  0
ARC
  5
675
330
1F
100
AcDbEntity
  8
0
100
AcDbCircle
 10
18.30000100926303
 20
197.9738142138351
 30
0.0
 40
6.699999999996
100
AcDbArc
 50
0.0
 51
56.47925960397667
  0
ARC
  5
676
330
1F
100
AcDbEntity
  8
0
100
AcDbCircle
 10
18.20000100926187
 20
197.9738142138351
 30
0.0
 40
6.899999999996
100
AcDbArc
 50
0.0
 51
55.58261128952961
  0
CIRCLE
  5
677
330
1F
100
AcDbEntity
  8
0
100
AcDbCircle
 10
32.10000100926208
 20
193.5938142138356
 30
0.0
 40
2.0
  0
ARC
  5
678
330
1F
100
AcDbEntity
  8
0
100
AcDbCircle
 10
43.00000100926297
 20
175.9738142138351
 30
0.0
 40
5.5
100
AcDbArc
 50
114.619977328654
 51
180.0
  0
CIRCLE
  5
679
330
1F
100
AcDbEntity
  8
0
100
AcDbCircle
 10
32.10000100926208
 20
188.8438142138356
 30
0.0
 40
1.0
  0
CIRCLE
  5
67A
330
1F
100
AcDbEntity
  8
0
100
AcDbCircle
 10
32.10000100926208
 20
188.8438142138356
 30
0.0
 40
1.5
  0
ARC
  5
67B
330
1F
100
AcDbEntity
  8
0
100
AcDbCircle
 10
43.00000100926297
 20
175.9738142138351
 30
0.0
 40
2.1
100
AcDbArc
 50
0.0
 51
180.0
  0
CIRCLE
  5
67C
330
1F
100
AcDbEntity
  8
0
100
AcDbCircle
 10
32.10000100926208
 20
203.7538142138378
 30
0.0
 40
2.0
  0
CIRCLE
  5
67D
330
1F
100
AcDbEntity
  8
0
100
AcDbCircle
 10
32.10000100926208
 20
203.7538142138378
 30
0.0
 40
2.0
  0
CIRCLE
  5
67E
330
1F
100
AcDbEntity
  8
0
100
AcDbCircle
 10
32.10000100926208
 20
198.6738142138356
 30
0.0
 40
2.0
  0
CIRCLE
  5
67F
330
1F
100
AcDbEntity
  8
0
100
AcDbCircle
 10
32.10000100926208
 20
198.6738142138356
 30
0.0
 40
2.0
  0
CIRCLE
  5
680
330
1F
100
AcDbEntity
  8
0
100
AcDbCircle
 10
32.10000100926208
 20
208.8338142138344
 30
0.0
 40
2.0
  0
LINE
  5
682
330
1F
100
AcDbEntity
  8
0
100
AcDbLine
 10
48.50000100926298
 20
175.9738142138351
 30
0.0
 11
48.50000100926298
 21
170.9738142138353
 31
0.0
  0
LINE
  5
688
330
1F
100
AcDbEntity
  8
0
100
AcDbLine
 10
45.10000100926299
 20
170.9738142138353
 30
0.0
 11
71.00000100926307
 21
170.9738142138353
 31
0.0
  0
ARC
  5
68A
330
1F
100
AcDbEntity
  8
0
100
AcDbCircle
 10
71.00000100926307
 20
171.9738142138351
 30
0.0
 40
1.0
100
AcDbArc
 50
270.0
 51
0.0
  0
LINE
  5
68B
330
1F
100
AcDbEntity
  8
0
100
AcDbLine
 10
63.10000100926197
 20
191.4738142138344
 30
0.0
 11
56.60000100926207
 21
191.4738142138344
 31
0.0
  0
LINE
  5
68C
330
1F
100
AcDbEntity
  8
0
100
AcDbLine
 10
54.50000100926311
 20
192.9738142138344
 30
0.0
 11
62.80000100926304
 21
192.9738142138344
 31
0.0
  0
LINE
  5
68D
330
1F
100
AcDbEntity
  8
0
100
AcDbLine
 10
53.70000100926302
 20
193.9738142138351
 30
0.0
 11
62.80000100926304
 21
193.9738142138351
 31
0.0
  0
LINE
  5
68E
330
1F
100
AcDbEntity
  8
0
100
AcDbLine
 10
56.60000100926207
 20
185.9738142138351
 30
0.0
 11
63.10000100926197
 21
185.9738142138351
 31
0.0
  0
LINE
  5
68F
330
1F
100
AcDbEntity
  8
0
100
AcDbLine
 10
64.00000113118108
 20
185.1738140544905
 30
0.0
 11
52.60000113117996
 21
185.1738140544905
 31
0.0
  0
CIRCLE
  5
691
330
1F
100
AcDbEntity
  8
0
100
AcDbCircle
 10
59.67000100926179
 20
189.9738142138344
 30
0.0
 40
0.32
  0
LINE
  5
692
330
1F
100
AcDbEntity
  8
0
100
AcDbLine
 10
57.60000100926209
 20
189.4738142138351
 30
0.0
 11
56.60000100926207
 21
189.4738142138351
 31
0.0
  0
CIRCLE
  5
693
330
1F
100
AcDbEntity
  8
0
100
AcDbCircle
 10
59.67000100926179
 20
187.4738142138351
 30
0.0
 40
0.32
  0
LINE
  5
694
330
1F
100
AcDbEntity
  8
0
100
AcDbLine
 10
56.60000100926207
 20
187.9738142138351
 30
0.0
 11
57.60000100926209
 21
187.9738142138351
 31
0.0
  0
LINE
  5
695
330
1F
100
AcDbEntity
  8
0
100
AcDbLine
 10
56.60000100926207
 20
185.9738142138351
 30
0.0
 11
57.60000100926209
 21
185.9738142138351
 31
0.0
  0
LINE
  5
696
330
1F
100
AcDbEntity
  8
0
100
AcDbLine
 10
57.60000100926209
 20
187.9738142138351
 30
0.0
 11
57.60000100926209
 21
189.4738142138351
 31
0.0
  0
LINE
  5
697
330
1F
100
AcDbEntity
  8
0
100
AcDbLine
 10
56.60000100926207
 20
189.4738142138351
 30
0.0
 11
56.60000100926207
 21
187.9738142138351
 31
0.0
  0
LINE
  5
698
330
1F
100
AcDbEntity
  8
0
100
AcDbLine
 10
57.60000100926209
 20
185.9738142138351
 30
0.0
 11
57.60000100926209
 21
191.4738142138344
 31
0.0
  0
LINE
  5
699
330
1F
100
AcDbEntity
  8
0
100
AcDbLine
 10
56.60000100926207
 20
191.4738142138344
 30
0.0
 11
56.60000100926207
 21
185.9738142138351
 31
0.0
  0
ARC
  5
69A
330
1F
100
AcDbEntity
  8
0
100
AcDbCircle
 10
54.50000100926311
 20
193.4738142138351
 30
0.0
 40
0.5
100
AcDbArc
 50
180.0
 51
270.0
  0
LINE
  5
69B
330
1F
100
AcDbEntity
  8
0
100
AcDbLine
 10
54.00000100926309
 20
193.9738142138351
 30
0.0
 11
54.00000100926309
 21
193.4738142138351
 31
0.0
  0
ARC
  5
69C
330
1F
100
AcDbEntity
  8
0
100
AcDbCircle
 10
59.45000100926302
 20
204.0900973564264
 30
0.0
 40
2.0
100
AcDbArc
 50
285.0000000000006
 51
0.0
  0
LINE
  5
69D
330
1F
100
AcDbEntity
  8
0
100
AcDbLine
 10
61.45000100926302
 20
197.9738142138351
 30
0.0
 11
61.45000100926302
 21
200.3738142138354
 31
0.0
  0
ARC
  5
69E
330
1F
100
AcDbEntity
  8
0
100
AcDbCircle
 10
57.15000100926295
 20
203.4738142138353
 30
0.0
 40
2.0
100
AcDbArc
 50
180.0
 51
285.0000000000006
  0
LINE
  5
69F
330
1F
100
AcDbEntity
  8
0
100
AcDbLine
 10
55.15000100926306
 20
200.3738142138354
 30
0.0
 11
55.15000100926306
 21
197.9738142138351
 31
0.0
  0
LINE
  5
6A0
330
1F
100
AcDbEntity
  8
0
100
AcDbLine
 10
57.66763909946803
 20
201.5419625612566
 30
0.0
 11
59.96763909946809
 21
202.1582457038475
 31
0.0
  0
LINE
  5
6A1
330
1F
100
AcDbEntity
  8
0
100
AcDbLine
 10
56.70000100926301
 20
202.9738142138351
 30
0.0
 11
59.90000100926295
 21
202.9738142138351
 31
0.0
  0
LINE
  5
6A2
330
1F
100
AcDbEntity
  8
0
100
AcDbLine
 10
55.15000100926306
 20
200.3738142138354
 30
0.0
 11
61.45000100926302
 21
200.3738142138354
 31
0.0
  0
LINE
  5
6A3
330
1F
100
AcDbEntity
  8
0
100
AcDbLine
 10
55.15000100926306
 20
198.4738142138351
 30
0.0
 11
61.45000100926302
 21
198.4738142138351
 31
0.0
  0
LINE
  5
6A4
330
1F
100
AcDbEntity
  8
0
100
AcDbLine
 10
55.15000100926306
 20
197.9738142138351
 30
0.0
 11
61.45000100926302
 21
197.9738142138351
 31
0.0
  0
CIRCLE
  5
6A5
330
1F
100
AcDbEntity
  8
0
100
AcDbCircle
 10
58.30000100926304
 20
195.9438142138344
 30
0.0
 40
1.399999999999999
  0
LINE
  5
6A7
330
1F
100
AcDbEntity
  8
0
100
AcDbLine
 10
63.10000100926197
 20
185.9738142138351
 30
0.0
 11
63.10000100926197
 21
191.4738142138344
 31
0.0
  0
LINE
  5
6A8
330
1F
100
AcDbEntity
  8
0
100
AcDbLine
 10
62.80000100926304
 20
210.3038142138375
 30
0.0
 11
63.10000100926298
 21
210.3038142138375
 31
0.0
  0
LINE
  5
6A9
330
1F
100
AcDbEntity
  8
0
100
AcDbLine
 10
62.80000100926304
 20
209.0338142138365
 30
0.0
 11
63.10000100926298
 21
209.0338142138365
 31
0.0
  0
LINE
  5
6AA
330
1F
100
AcDbEntity
  8
0
100
AcDbLine
 10
62.80000100926304
 20
207.7638142138365
 30
0.0
 11
63.10000100926298
 21
207.7638142138365
 31
0.0
  0
LINE
  5
6AB
330
1F
100
AcDbEntity
  8
0
100
AcDbLine
 10
62.80000100926304
 20
207.7638142138365
 30
0.0
 11
63.10000100926298
 21
207.7638142138365
 31
0.0
  0
LINE
  5
6AC
330
1F
100
AcDbEntity
  8
0
100
AcDbLine
 10
62.80000100926304
 20
206.4938142138366
 30
0.0
 11
63.10000100926298
 21
206.4938142138366
 31
0.0
  0
LINE
  5
6AD
330
1F
100
AcDbEntity
  8
0
100
AcDbLine
 10
62.80000100926304
 20
205.2238142138373
 30
0.0
 11
63.10000100926298
 21
205.2238142138373
 31
0.0
  0
LINE
  5
6AE
330
1F
100
AcDbEntity
  8
0
100
AcDbLine
 10
62.80000100926304
 20
203.9538142138365
 30
0.0
 11
63.10000100926298
 21
203.9538142138365
 31
0.0
  0
LINE
  5
6AF
330
1F
100
AcDbEntity
  8
0
100
AcDbLine
 10
62.80000100926304
 20
200.3738142138354
 30
0.0
 11
63.10000100926298
 21
200.3738142138354
 31
0.0
  0
ARC
  5
6B0
330
1F
100
AcDbEntity
  8
0
100
AcDbCircle
 10
62.80000100926304
 20
193.2738142138346
 30
0.0
 40
0.3
100
AcDbArc
 50
270.0
 51
0.0
  0
LINE
  5
6B1
330
1F
100
AcDbEntity
  8
0
100
AcDbLine
 10
63.10000100926298
 20
200.3738142138354
 30
0.0
 11
63.10000100926298
 21
193.2738142138346
 31
0.0
  0
ARC
  5
6B2
330
1F
100
AcDbEntity
  8
0
100
AcDbCircle
 10
43.00000100926297
 20
359.9738142138352
 30
0.0
 40
5.5
100
AcDbArc
 50
294.619977328654
 51
0.0
  0
LINE
  5
6B3
330
1F
100
AcDbEntity
  8
0
100
AcDbLine
 10
18.00000100926297
 20
364.9738142138352
 30
0.0
 11
71.00000100926307
 21
364.9738142138352
 31
0.0
  0
LINE
  5
6B4
330
1F
100
AcDbEntity
  8
0
100
AcDbLine
 10
20.00000100926308
 20
354.9738142138352
 30
0.0
 11
72.00000100926297
 21
354.9738142138352
 31
0.0
  0
LINE
  5
6B5
330
1F
100
AcDbEntity
  8
0
100
AcDbLine
 10
70.0000010092631
 20
352.9738142138352
 30
0.0
 11
22.00000100926296
 21
352.9738142138352
 31
0.0
  0
LINE
  5
6B6
330
1F
100
AcDbEntity
  8
0
100
AcDbLine
 10
69.70000100926211
 20
352.7738142138355
 30
0.0
 11
22.10000100926197
 21
352.7738142138355
 31
0.0
  0
LINE
  5
6B7
330
1F
100
AcDbEntity
  8
0
100
AcDbLine
 10
18.00000100926297
 20
364.9738142138352
 30
0.0
 11
71.00000100926307
 21
364.9738142138352
 31
0.0
  0
CIRCLE
  5
6B8
330
1F
100
AcDbEntity
  8
0
100
AcDbCircle
 10
43.00000100926297
 20
359.9738142138352
 30
0.0
 40
2.1
  0
LINE
  5
6B9
330
1F
100
AcDbEntity
  8
0
100
AcDbLine
 10
37.50000100926309
 20
359.9738142138352
 30
0.0
 11
37.50000100926309
 21
364.9738142138352
 31
0.0
  0
LINE
  5
6BA
330
1F
100
AcDbEntity
  8
0
100
AcDbLine
 10
38.9450010092621
 20
301.1338142138346
 30
0.0
 11
38.9450010092621
 21
276.9738142138351
 31
0.0
  0
LINE
  5
6BB
330
1F
100
AcDbEntity
  8
0
100
AcDbLine
 10
39.40000113117992
 20
302.1738140544917
 30
0.0
 11
39.40000113117992
 21
275.9738140544914
 31
0.0
  0
LINE
  5
6BC
330
1F
100
AcDbEntity
  8
0
100
AcDbLine
 10
30.60000100926197
 20
301.1338142138346
 30
0.0
 11
30.60000100926197
 21
276.9738142138351
 31
0.0
  0
LINE
  5
6BD
330
1F
100
AcDbEntity
  8
0
100
AcDbLine
 10
37.5850010092621
 20
301.1338142138346
 30
0.0
 11
37.5850010092621
 21
276.9738142138351
 31
0.0
  0
LINE
  5
6BE
330
1F
100
AcDbEntity
  8
0
100
AcDbLine
 10
29.60000100926197
 20
301.1338142138346
 30
0.0
 11
29.60000100926197
 21
276.9738142138351
 31
0.0
  0
LINE
  5
6BF
330
1F
100
AcDbEntity
  8
0
100
AcDbLine
 10
27.00000113117994
 20
302.1738140544917
 30
0.0
 11
27.00000113117994
 21
275.9738140544914
 31
0.0
  0
LINE
  5
6C0
330
1F
100
AcDbEntity
  8
0
100
AcDbLine
 10
28.10000100926298
 20
275.9738140544914
 30
0.0
 11
28.10000100926298
 21
302.1738140544917
 31
0.0
  0
LINE
  5
6C1
330
1F
100
AcDbEntity
  8
0
100
AcDbLine
 10
35.10000100926208
 20
252.5438142138344
 30
0.0
 11
35.10000100926208
 21
247.5438142138346
 31
0.0
  0
LINE
  5
6C2
330
1F
100
AcDbEntity
  8
0
100
AcDbLine
 10
30.10000100926196
 20
251.7538142138354
 30
0.0
 11
30.10000100926196
 21
248.3338142138344
 31
0.0
  0
LINE
  5
6C3
330
1F
100
AcDbEntity
  8
0
100
AcDbLine
 10
37.60000113118008
 20
256.5738140544918
 30
0.0
 11
37.60000113118008
 21
243.1738140544926
 31
0.0
  0
LINE
  5
6C4
330
1F
100
AcDbEntity
  8
0
100
AcDbLine
 10
36.60000100926207
 20
234.6138142138356
 30
0.0
 11
36.60000100926207
 21
265.1138142138356
 31
0.0
  0
LINE
  5
6C5
330
1F
100
AcDbEntity
  8
0
100
AcDbLine
 10
28.10000100926208
 20
270.4738142138351
 30
0.0
 11
28.10000100926208
 21
229.6138142138365
 31
0.0
  0
ARC
  5
6C6
330
1F
100
AcDbEntity
  8
0
100
AcDbCircle
 10
32.10000100926208
 20
238.6138142138356
 30
0.0
 40
2.9
100
AcDbArc
 50
133.602818972703
 51
226.3971810272921
  0
LINE
  5
6C7
330
1F
100
AcDbEntity
  8
0
100
AcDbLine
 10
28.10000100926208
 20
229.6138142138365
 30
0.0
 11
35.10000100926208
 21
229.6138142138365
 31
0.0
  0
LINE
  5
6C8
330
1F
100
AcDbEntity
  8
0
100
AcDbLine
 10
28.10000100926208
 20
229.6138142138365
 30
0.0
 11
35.10000100926208
 21
229.6138142138365
 31
0.0
  0
LINE
  5
6C9
330
1F
100
AcDbEntity
  8
0
100
AcDbLine
 10
36.70000100926211
 20
226.6138142138355
 30
0.0
 11
28.10000100926208
 21
226.6138142138355
 31
0.0
  0
ARC
  5
6CA
330
1F
100
AcDbEntity
  8
0
100
AcDbCircle
 10
32.10000100926208
 20
246.2338142138346
 30
0.0
 40
2.9
100
AcDbArc
 50
133.602818972703
 51
226.3971810272921
  0
LINE
  5
6CB
330
1F
100
AcDbEntity
  8
0
100
AcDbLine
 10
28.10000100926208
 20
234.8538142138344
 30
0.0
 11
28.10000100926208
 21
229.6138142138365
 31
0.0
  0
LINE
  5
6CC
330
1F
100
AcDbEntity
  8
0
100
AcDbLine
 10
35.10000100926208
 20
229.6138142138365
 30
0.0
 11
35.10000100926208
 21
234.6138142138356
 31
0.0
  0
LINE
  5
6CD
330
1F
100
AcDbEntity
  8
0
100
AcDbLine
 10
35.10000100926208
 20
229.6138142138365
 30
0.0
 11
35.10000100926208
 21
234.8538142138344
 31
0.0
  0
CIRCLE
  5
6CE
330
1F
100
AcDbEntity
  8
0
100
AcDbCircle
 10
32.10000100926208
 20
223.7438142138353
 30
0.0
 40
1.0
  0
CIRCLE
  5
6CF
330
1F
100
AcDbEntity
  8
0
100
AcDbCircle
 10
32.10000100926208
 20
223.7438142138353
 30
0.0
 40
1.5
  0
CIRCLE
  5
6D0
330
1F
100
AcDbEntity
  8
0
100
AcDbCircle
 10
32.10000100926208
 20
213.9138142138353
 30
0.0
 40
2.0
  0
CIRCLE
  5
6D1
330
1F
100
AcDbEntity
  8
0
100
AcDbCircle
 10
32.10000100926208
 20
213.9138142138353
 30
0.0
 40
2.0
  0
CIRCLE
  5
6D2
330
1F
100
AcDbEntity
  8
0
100
AcDbCircle
 10
32.10000100926208
 20
218.9938142138351
 30
0.0
 40
2.0
  0
LINE
  5
6D3
330
1F
100
AcDbEntity
  8
0
100
AcDbLine
 10
37.60000113118008
 20
243.1738140544926
 30
0.0
 11
39.20000113117996
 21
243.1738140544926
 31
0.0
  0
LINE
  5
6D4
330
1F
100
AcDbEntity
  8
0
100
AcDbLine
 10
36.60000100926207
 20
242.1638142138354
 30
0.0
 11
38.3000010092619
 21
242.1638142138354
 31
0.0
  0
LINE
  5
6D5
330
1F
100
AcDbEntity
  8
0
100
AcDbLine
 10
38.3000010092619
 20
240.5638142138343
 30
0.0
 11
36.60000100926207
 21
240.5638142138343
 31
0.0
  0
LINE
  5
6D6
330
1F
100
AcDbEntity
  8
0
100
AcDbLine
 10
37.60000113118008
 20
239.5738140544917
 30
0.0
 11
39.20000113117996
 21
239.5738140544917
 31
0.0
  0
LINE
  5
6D7
330
1F
100
AcDbEntity
  8
0
100
AcDbLine
 10
34.30000100926189
 20
247.5438142138346
 30
0.0
 11
35.10000100926208
 21
247.5438142138346
 31
0.0
  0
LINE
  5
6D8
330
1F
100
AcDbEntity
  8
0
100
AcDbLine
 10
34.30000100926189
 20
244.9238142138346
 30
0.0
 11
35.10000100926208
 21
244.9238142138346
 31
0.0
  0
LINE
  5
6D9
330
1F
100
AcDbEntity
  8
0
100
AcDbLine
 10
34.30000100926189
 20
247.5438142138346
 30
0.0
 11
34.30000100926189
 21
244.9238142138346
 31
0.0
  0
CIRCLE
  5
6DA
330
1F
100
AcDbEntity
  8
0
100
AcDbCircle
 10
32.10000100926208
 20
246.2338142138346
 30
0.0
 40
0.75
  0
LINE
  5
6DB
330
1F
100
AcDbEntity
  8
0
100
AcDbLine
 10
34.30000100926189
 20
239.9238142138356
 30
0.0
 11
35.10000100926208
 21
239.9238142138356
 31
0.0
  0
LINE
  5
6DC
330
1F
100
AcDbEntity
  8
0
100
AcDbLine
 10
35.10000100926208
 20
234.6138142138356
 30
0.0
 11
36.60000100926207
 21
234.6138142138356
 31
0.0
  0
LINE
  5
6DD
330
1F
100
AcDbEntity
  8
0
100
AcDbLine
 10
34.30000100926189
 20
237.3038142138351
 30
0.0
 11
35.10000100926208
 21
237.3038142138351
 31
0.0
  0
LINE
  5
6DE
330
1F
100
AcDbEntity
  8
0
100
AcDbLine
 10
35.10000100926208
 20
237.3038142138351
 30
0.0
 11
35.10000100926208
 21
235.6138142138346
 31
0.0
  0
LINE
  5
6DF
330
1F
100
AcDbEntity
  8
0
100
AcDbLine
 10
34.30000100926189
 20
239.9238142138356
 30
0.0
 11
34.30000100926189
 21
237.3038142138351
 31
0.0
  0
LINE
  5
6E0
330
1F
100
AcDbEntity
  8
0
100
AcDbLine
 10
30.10000100926196
 20
244.1338142138345
 30
0.0
 11
30.10000100926196
 21
240.7138142138355
 31
0.0
  0
LINE
  5
6E1
330
1F
100
AcDbEntity
  8
0
100
AcDbLine
 10
30.10000100926196
 20
236.5138142138353
 30
0.0
 11
30.10000100926196
 21
235.6138142138346
 31
0.0
  0
CIRCLE
  5
6E2
330
1F
100
AcDbEntity
  8
0
100
AcDbCircle
 10
32.10000100926208
 20
238.6138142138356
 30
0.0
 40
0.75
  0
CIRCLE
  5
6E3
330
1F
100
AcDbEntity
  8
0
100
AcDbCircle
 10
32.06361494885891
 20
232.5138142138353
 30
0.0
 40
0.9
  0
LINE
  5
6E4
330
1F
100
AcDbEntity
  8
0
100
AcDbLine
 10
30.10000100926196
 20
235.6138142138346
 30
0.0
 11
35.10000100926208
 21
235.6138142138346
 31
0.0
  0
CIRCLE
  5
6E5
330
1F
100
AcDbEntity
  8
0
100
AcDbCircle
 10
32.10000100926208
 20
238.6138142138356
 30
0.0
 40
1.5
  0
CIRCLE
  5
6E6
330
1F
100
AcDbEntity
  8
0
100
AcDbCircle
 10
32.06361494885891
 20
232.5138142138353
 30
0.0
 40
2.0
  0
LINE
  5
6E7
330
1F
100
AcDbEntity
  8
0
100
AcDbLine
 10
35.10000100926208
 20
244.9238142138346
 30
0.0
 11
35.10000100926208
 21
239.9238142138356
 31
0.0
  0
CIRCLE
  5
6E8
330
1F
100
AcDbEntity
  8
0
100
AcDbCircle
 10
32.10000100926208
 20
246.2338142138346
 30
0.0
 40
1.5
  0
LINE
  5
6E9
330
1F
100
AcDbEntity
  8
0
100
AcDbLine
 10
38.3000010092619
 20
242.1638142138354
 30
0.0
 11
38.3000010092619
 21
240.5638142138343
 31
0.0
  0
LINE
  5
6EA
330
1F
100
AcDbEntity
  8
0
100
AcDbLine
 10
39.20000113117996
 20
243.1738140544926
 30
0.0
 11
39.20000113117996
 21
239.5738140544917
 31
0.0
  0
LINE
  5
6EB
330
1F
100
AcDbEntity
  8
0
100
AcDbLine
 10
29.60000100926197
 20
276.9738142138351
 30
0.0
 11
38.9450010092621
 21
276.9738142138351
 31
0.0
  0
LINE
  5
6EC
330
1F
100
AcDbEntity
  8
0
100
AcDbLine
 10
27.00000113117994
 20
271.4738140544914
 30
0.0
 11
37.60000113118008
 21
271.4738140544914
 31
0.0
  0
LINE
  5
6ED
330
1F
100
AcDbEntity
  8
0
100
AcDbLine
 10
28.10000100926208
 20
270.4738142138351
 30
0.0
 11
35.10000100926208
 21
270.4738142138351
 31
0.0
  0
LINE
  5
6EE
330
1F
100
AcDbEntity
  8
0
100
AcDbLine
 10
28.10000100926208
 20
270.4738142138351
 30
0.0
 11
35.10000100926208
 21
270.4738142138351
 31
0.0
  0
ARC
  5
6EF
330
1F
100
AcDbEntity
  8
0
100
AcDbCircle
 10
32.10000100926208
 20
253.8538142138345
 30
0.0
 40
2.9
100
AcDbArc
 50
133.602818972703
 51
226.3971810272921
  0
ARC
  5
6F0
330
1F
100
AcDbEntity
  8
0
100
AcDbCircle
 10
32.10000100926208
 20
261.4738142138353
 30
0.0
 40
2.9
100
AcDbArc
 50
133.602818972703
 51
226.3971810272921
  0
LINE
  5
6F1
330
1F
100
AcDbEntity
  8
0
100
AcDbLine
 10
27.00000113117994
 20
275.9738140544914
 30
0.0
 11
39.40000113117992
 21
275.9738140544914
 31
0.0
  0
LINE
  5
6F2
330
1F
100
AcDbEntity
  8
0
100
AcDbLine
 10
28.10000100926208
 20
265.2338142138344
 30
0.0
 11
28.10000100926208
 21
270.4738142138351
 31
0.0
  0
LINE
  5
6F3
330
1F
100
AcDbEntity
  8
0
100
AcDbLine
 10
29.60000100926197
 20
284.4738142138343
 30
0.0
 11
28.10000100926298
 21
284.4738142138343
 31
0.0
  0
LINE
  5
6F4
330
1F
100
AcDbEntity
  8
0
100
AcDbLine
 10
28.10000100926298
 20
283.4738142138352
 30
0.0
 11
29.60000100926197
 21
283.4738142138352
 31
0.0
  0
LINE
  5
6F5
330
1F
100
AcDbEntity
  8
0
100
AcDbLine
 10
29.60000100926197
 20
283.4738142138352
 30
0.0
 11
29.60000100926197
 21
284.4738142138343
 31
0.0
  0
LINE
  5
6F6
330
1F
100
AcDbEntity
  8
0
100
AcDbLine
 10
29.60000100926197
 20
279.9738142138351
 30
0.0
 11
28.10000100926208
 21
279.9738142138351
 31
0.0
  0
LINE
  5
6F7
330
1F
100
AcDbEntity
  8
0
100
AcDbLine
 10
28.10000100926208
 20
276.9738142138351
 30
0.0
 11
29.60000100926197
 21
276.9738142138351
 31
0.0
  0
LINE
  5
6F8
330
1F
100
AcDbEntity
  8
0
100
AcDbLine
 10
29.60000100926197
 20
276.9738142138351
 30
0.0
 11
29.60000100926197
 21
277.9738142138351
 31
0.0
  0
LINE
  5
6F9
330
1F
100
AcDbEntity
  8
0
100
AcDbLine
 10
29.60000100926197
 20
276.9738142138351
 30
0.0
 11
29.60000100926197
 21
279.9738142138351
 31
0.0
  0
LINE
  5
6FA
330
1F
100
AcDbEntity
  8
0
100
AcDbLine
 10
28.10000100926208
 20
279.9738142138351
 30
0.0
 11
28.10000100926208
 21
276.9738142138351
 31
0.0
  0
LINE
  5
6FB
330
1F
100
AcDbEntity
  8
0
100
AcDbLine
 10
35.10000100926208
 20
265.4738142138351
 30
0.0
 11
35.10000100926208
 21
270.4738142138351
 31
0.0
  0
LINE
  5
6FC
330
1F
100
AcDbEntity
  8
0
100
AcDbLine
 10
35.10000100926208
 20
270.4738142138351
 30
0.0
 11
35.10000100926208
 21
265.2338142138344
 31
0.0
  0
CIRCLE
  5
6FD
330
1F
100
AcDbEntity
  8
0
100
AcDbCircle
 10
32.10000100926208
 20
267.5738142138352
 30
0.0
 40
0.9
  0
CIRCLE
  5
6FE
330
1F
100
AcDbEntity
  8
0
100
AcDbCircle
 10
32.10000100926208
 20
267.5738142138352
 30
0.0
 40
2.0
  0
LINE
  5
6FF
330
1F
100
AcDbEntity
  8
0
100
AcDbLine
 10
37.60000113118008
 20
271.4738140544914
 30
0.0
 11
37.60000113118008
 21
260.1738140544915
 31
0.0
  0
LINE
  5
700
330
1F
100
AcDbEntity
  8
0
100
AcDbLine
 10
37.60000113118008
 20
260.1738140544915
 30
0.0
 11
39.20000113117996
 21
260.1738140544915
 31
0.0
  0
LINE
  5
701
330
1F
100
AcDbEntity
  8
0
100
AcDbLine
 10
38.3000010092619
 20
259.1638142138354
 30
0.0
 11
36.60000100926207
 21
259.1638142138354
 31
0.0
  0
LINE
  5
702
330
1F
100
AcDbEntity
  8
0
100
AcDbLine
 10
37.60000113118008
 20
256.5738140544918
 30
0.0
 11
39.20000113117996
 21
256.5738140544918
 31
0.0
  0
LINE
  5
703
330
1F
100
AcDbEntity
  8
0
100
AcDbLine
 10
38.3000010092619
 20
257.5638142138345
 30
0.0
 11
36.60000100926207
 21
257.5638142138345
 31
0.0
  0
LINE
  5
704
330
1F
100
AcDbEntity
  8
0
100
AcDbLine
 10
35.10000100926208
 20
265.4738142138351
 30
0.0
 11
36.60000100926207
 21
265.4738142138351
 31
0.0
  0
LINE
  5
705
330
1F
100
AcDbEntity
  8
0
100
AcDbLine
 10
36.60000100926207
 20
265.4738142138351
 30
0.0
 11
36.60000100926207
 21
265.1138142138356
 31
0.0
  0
LINE
  5
706
330
1F
100
AcDbEntity
  8
0
100
AcDbLine
 10
30.10000100926196
 20
264.1138142138347
 30
0.0
 11
30.10000100926196
 21
263.5738142138352
 31
0.0
  0
LINE
  5
707
330
1F
100
AcDbEntity
  8
0
100
AcDbLine
 10
35.10000100926208
 20
264.1138142138347
 30
0.0
 11
30.10000100926196
 21
264.1138142138347
 31
0.0
  0
LINE
  5
708
330
1F
100
AcDbEntity
  8
0
100
AcDbLine
 10
34.30000100926189
 20
262.783814213835
 30
0.0
 11
35.10000100926208
 21
262.783814213835
 31
0.0
  0
LINE
  5
709
330
1F
100
AcDbEntity
  8
0
100
AcDbLine
 10
34.30000100926189
 20
260.1638142138351
 30
0.0
 11
35.10000100926208
 21
260.1638142138351
 31
0.0
  0
LINE
  5
70A
330
1F
100
AcDbEntity
  8
0
100
AcDbLine
 10
34.30000100926189
 20
262.783814213835
 30
0.0
 11
34.30000100926189
 21
260.1638142138351
 31
0.0
  0
LINE
  5
70B
330
1F
100
AcDbEntity
  8
0
100
AcDbLine
 10
34.30000100926189
 20
255.1638142138354
 30
0.0
 11
35.10000100926208
 21
255.1638142138354
 31
0.0
  0
LINE
  5
70C
330
1F
100
AcDbEntity
  8
0
100
AcDbLine
 10
34.30000100926189
 20
252.5438142138344
 30
0.0
 11
35.10000100926208
 21
252.5438142138344
 31
0.0
  0
LINE
  5
70D
330
1F
100
AcDbEntity
  8
0
100
AcDbLine
 10
34.30000100926189
 20
255.1638142138354
 30
0.0
 11
34.30000100926189
 21
252.5438142138344
 31
0.0
  0
LINE
  5
70E
330
1F
100
AcDbEntity
  8
0
100
AcDbLine
 10
35.10000100926208
 20
260.1638142138351
 30
0.0
 11
35.10000100926208
 21
255.1638142138354
 31
0.0
  0
CIRCLE
  5
70F
330
1F
100
AcDbEntity
  8
0
100
AcDbCircle
 10
32.10000100926208
 20
261.4738142138353
 30
0.0
 40
0.75
  0
CIRCLE
  5
710
330
1F
100
AcDbEntity
  8
0
100
AcDbCircle
 10
32.10000100926208
 20
253.8538142138345
 30
0.0
 40
0.75
  0
LINE
  5
711
330
1F
100
AcDbEntity
  8
0
100
AcDbLine
 10
30.10000100926196
 20
259.3738142138345
 30
0.0
 11
30.10000100926196
 21
255.9538142138352
 31
0.0
  0
CIRCLE
  5
712
330
1F
100
AcDbEntity
  8
0
100
AcDbCircle
 10
32.10000100926208
 20
261.4738142138353
 30
0.0
 40
1.5
  0
CIRCLE
  5
713
330
1F
100
AcDbEntity
  8
0
100
AcDbCircle
 10
32.10000100926208
 20
253.8538142138345
 30
0.0
 40
1.5
  0
LINE
  5
714
330
1F
100
AcDbEntity
  8
0
100
AcDbLine
 10
35.10000100926208
 20
264.1138142138347
 30
0.0
 11
35.10000100926208
 21
262.783814213835
 31
0.0
  0
LINE
  5
715
330
1F
100
AcDbEntity
  8
0
100
AcDbLine
 10
39.20000113117996
 20
260.1738140544915
 30
0.0
 11
39.20000113117996
 21
256.5738140544918
 31
0.0
  0
LINE
  5
716
330
1F
100
AcDbEntity
  8
0
100
AcDbLine
 10
38.3000010092619
 20
259.1638142138354
 30
0.0
 11
38.3000010092619
 21
257.5638142138345
 31
0.0
  0
LINE
  5
717
330
1F
100
AcDbEntity
  8
0
100
AcDbLine
 10
34.60000100926197
 20
284.9738142138351
 30
0.0
 11
33.60000100926197
 21
284.9738142138351
 31
0.0
  0
LINE
  5
718
330
1F
100
AcDbEntity
  8
0
100
AcDbLine
 10
33.60000100926197
 20
282.9738142138343
 30
0.0
 11
34.60000100926197
 21
282.9738142138343
 31
0.0
  0
LINE
  5
719
330
1F
100
AcDbEntity
  8
0
100
AcDbLine
 10
34.60000100926197
 20
282.9738142138343
 30
0.0
 11
34.60000100926197
 21
284.9738142138351
 31
0.0
  0
LINE
  5
71A
330
1F
100
AcDbEntity
  8
0
100
AcDbLine
 10
33.60000100926197
 20
284.9738142138351
 30
0.0
 11
33.60000100926197
 21
282.9738142138343
 31
0.0
  0
LINE
  5
71B
330
1F
100
AcDbEntity
  8
0
100
AcDbLine
 10
30.60000100926197
 20
277.9738142138351
 30
0.0
 11
37.5850010092621
 21
277.9738142138351
 31
0.0
  0
LINE
  5
71C
330
1F
100
AcDbEntity
  8
0
100
AcDbLine
 10
0.4869125351089
 20
354.5152178526173
 30
0.0
 11
18.00000100926297
 21
354.9738142138352
 31
0.0
  0
ARC
  5
71D
330
1F
100
AcDbEntity
  8
0
100
AcDbCircle
 10
0.5000010092630875
 20
354.0153891901295
 30
0.0
 40
0.5
100
AcDbArc
 50
91.49999999999627
 51
180.0
  0
LINE
  5
71E
330
1F
100
AcDbEntity
  8
0
100
AcDbLine
 10
39.90000113117989
 20
331.0738140544908
 30
0.0
 11
39.90000113117989
 21
322.8738140544915
 31
0.0
  0
LINE
  5
71F
330
1F
100
AcDbEntity
  8
0
100
AcDbLine
 10
38.30000100926304
 20
323.4138142138354
 30
0.0
 11
38.30000100926304
 21
330.0538142138352
 31
0.0
  0
LINE
  5
720
330
1F
100
AcDbEntity
  8
0
100
AcDbLine
 10
28.10000100926298
 20
323.4138142138354
 30
0.0
 11
28.10000100926298
 21
330.0538142138352
 31
0.0
  0
LINE
  5
721
330
1F
100
AcDbEntity
  8
0
100
AcDbLine
 10
27.00000113117994
 20
339.0738140544907
 30
0.0
 11
27.00000113117994
 21
306.0738140544916
 31
0.0
  0
LINE
  5
722
330
1F
100
AcDbEntity
  8
0
100
AcDbLine
 10
28.10000100926298
 20
306.0738140544916
 30
0.0
 11
28.10000100926298
 21
339.0738140544907
 31
0.0
  0
LINE
  5
723
330
1F
100
AcDbEntity
  8
0
100
AcDbLine
 10
35.35000100926299
 20
322.4138142138353
 30
0.0
 11
28.10000100926208
 21
322.4138142138353
 31
0.0
  0
LINE
  5
724
330
1F
100
AcDbEntity
  8
0
100
AcDbLine
 10
38.30000100926304
 20
323.4138142138354
 30
0.0
 11
28.10000100926298
 21
323.4138142138354
 31
0.0
  0
LINE
  5
725
330
1F
100
AcDbEntity
  8
0
100
AcDbLine
 10
29.60000100926197
 20
301.1338142138346
 30
0.0
 11
30.60000100926197
 21
301.1338142138346
 31
0.0
  0
LINE
  5
726
330
1F
100
AcDbEntity
  8
0
100
AcDbLine
 10
28.10000100926208
 20
307.0138142138353
 30
0.0
 11
35.35000100926299
 21
307.0138142138353
 31
0.0
  0
LINE
  5
727
330
1F
100
AcDbEntity
  8
0
100
AcDbLine
 10
27.00000113117994
 20
306.0738140544916
 30
0.0
 11
36.30000113118011
 21
306.0738140544916
 31
0.0
  0
LINE
  5
728
330
1F
100
AcDbEntity
  8
0
100
AcDbLine
 10
38.9450010092621
 20
301.1338142138346
 30
0.0
 11
29.60000100926197
 21
301.1338142138346
 31
0.0
  0
LINE
  5
729
330
1F
100
AcDbEntity
  8
0
100
AcDbLine
 10
27.00000113117994
 20
302.1738140544917
 30
0.0
 11
39.40000113117992
 21
302.1738140544917
 31
0.0
  0
LINE
  5
72A
330
1F
100
AcDbEntity
  8
0
100
AcDbLine
 10
29.60000100926197
 20
301.1338142138346
 30
0.0
 11
28.10000100926208
 21
301.1338142138346
 31
0.0
  0
LINE
  5
72B
330
1F
100
AcDbEntity
  8
0
100
AcDbLine
 10
28.10000100926208
 20
298.1338142138356
 30
0.0
 11
29.60000100926197
 21
298.1338142138356
 31
0.0
  0
LINE
  5
72C
330
1F
100
AcDbEntity
  8
0
100
AcDbLine
 10
29.60000100926197
 20
293.6338142138346
 30
0.0
 11
29.60000100926197
 21
294.6338142138356
 31
0.0
  0
LINE
  5
72D
330
1F
100
AcDbEntity
  8
0
100
AcDbLine
 10
28.10000100926298
 20
293.6338142138346
 30
0.0
 11
29.60000100926197
 21
293.6338142138346
 31
0.0
  0
LINE
  5
72E
330
1F
100
AcDbEntity
  8
0
100
AcDbLine
 10
29.60000100926197
 20
294.6338142138356
 30
0.0
 11
28.10000100926298
 21
294.6338142138356
 31
0.0
  0
LINE
  5
72F
330
1F
100
AcDbEntity
  8
0
100
AcDbLine
 10
29.60000100926197
 20
288.5538142138343
 30
0.0
 11
29.60000100926197
 21
289.5538142138343
 31
0.0
  0
LINE
  5
730
330
1F
100
AcDbEntity
  8
0
100
AcDbLine
 10
28.10000100926298
 20
288.5538142138343
 30
0.0
 11
29.60000100926197
 21
288.5538142138343
 31
0.0
  0
LINE
  5
731
330
1F
100
AcDbEntity
  8
0
100
AcDbLine
 10
29.60000100926197
 20
289.5538142138343
 30
0.0
 11
28.10000100926298
 21
289.5538142138343
 31
0.0
  0
LINE
  5
732
330
1F
100
AcDbEntity
  8
0
100
AcDbLine
 10
29.60000100926197
 20
301.1338142138346
 30
0.0
 11
29.60000100926197
 21
300.1338142138356
 31
0.0
  0
LINE
  5
733
330
1F
100
AcDbEntity
  8
0
100
AcDbLine
 10
29.60000100926197
 20
298.1338142138356
 30
0.0
 11
29.60000100926197
 21
301.1338142138346
 31
0.0
  0
LINE
  5
734
330
1F
100
AcDbEntity
  8
0
100
AcDbLine
 10
28.10000100926208
 20
301.1338142138346
 30
0.0
 11
28.10000100926208
 21
298.1338142138356
 31
0.0
  0
LINE
  5
735
330
1F
100
AcDbEntity
  8
0
100
AcDbLine
 10
28.10000100926208
 20
322.4138142138353
 30
0.0
 11
28.10000100926208
 21
307.0138142138353
 31
0.0
  0
LINE
  5
736
330
1F
100
AcDbEntity
  8
0
100
AcDbLine
 10
38.0850010092621
 20
301.1338142138346
 30
0.0
 11
37.5850010092621
 21
301.1338142138346
 31
0.0
  0
LINE
  5
737
330
1F
100
AcDbEntity
  8
0
100
AcDbLine
 10
33.60000100926197
 20
293.1338142138356
 30
0.0
 11
34.60000100926197
 21
293.1338142138356
 31
0.0
  0
LINE
  5
738
330
1F
100
AcDbEntity
  8
0
100
AcDbLine
 10
34.60000100926197
 20
293.1338142138356
 30
0.0
 11
34.60000100926197
 21
295.1338142138346
 31
0.0
  0
LINE
  5
739
330
1F
100
AcDbEntity
  8
0
100
AcDbLine
 10
34.60000100926197
 20
295.1338142138346
 30
0.0
 11
33.60000100926197
 21
295.1338142138346
 31
0.0
  0
LINE
  5
73A
330
1F
100
AcDbEntity
  8
0
100
AcDbLine
 10
33.60000100926197
 20
295.1338142138346
 30
0.0
 11
33.60000100926197
 21
293.1338142138356
 31
0.0
  0
LINE
  5
73B
330
1F
100
AcDbEntity
  8
0
100
AcDbLine
 10
34.60000100926197
 20
290.0538142138352
 30
0.0
 11
33.60000100926197
 21
290.0538142138352
 31
0.0
  0
LINE
  5
73C
330
1F
100
AcDbEntity
  8
0
100
AcDbLine
 10
33.60000100926197
 20
288.0538142138352
 30
0.0
 11
34.60000100926197
 21
288.0538142138352
 31
0.0
  0
LINE
  5
73D
330
1F
100
AcDbEntity
  8
0
100
AcDbLine
 10
34.60000100926197
 20
288.0538142138352
 30
0.0
 11
34.60000100926197
 21
290.0538142138352
 31
0.0
  0
LINE
  5
73E
330
1F
100
AcDbEntity
  8
0
100
AcDbLine
 10
33.60000100926197
 20
290.0538142138352
 30
0.0
 11
33.60000100926197
 21
288.0538142138352
 31
0.0
  0
LINE
  5
73F
330
1F
100
AcDbEntity
  8
0
100
AcDbLine
 10
30.60000100926197
 20
300.1338142138356
 30
0.0
 11
37.5850010092621
 21
300.1338142138356
 31
0.0
  0
LINE
  5
740
330
1F
100
AcDbEntity
  8
0
100
AcDbLine
 10
36.30000113118011
 20
322.8738140544915
 30
0.0
 11
39.90000113117989
 21
322.8738140544915
 31
0.0
  0
CIRCLE
  5
741
330
1F
100
AcDbEntity
  8
0
100
AcDbCircle
 10
31.60000100926207
 20
312.9638142138353
 30
0.0
 40
1.0
  0
CIRCLE
  5
742
330
1F
100
AcDbEntity
  8
0
100
AcDbCircle
 10
31.60000100926207
 20
316.4638142138353
 30
0.0
 40
1.0
  0
CIRCLE
  5
743
330
1F
100
AcDbEntity
  8
0
100
AcDbCircle
 10
31.60000100926207
 20
309.4638142138351
 30
0.0
 40
1.0
  0
CIRCLE
  5
744
330
1F
100
AcDbEntity
  8
0
100
AcDbCircle
 10
31.60000100926207
 20
319.9638142138363
 30
0.0
 40
1.0
  0
LINE
  5
745
330
1F
100
AcDbEntity
  8
0
100
AcDbLine
 10
35.35000100926299
 20
307.0138142138353
 30
0.0
 11
35.35000100926299
 21
322.4138142138353
 31
0.0
  0
LINE
  5
746
330
1F
100
AcDbEntity
  8
0
100
AcDbLine
 10
36.30000113118011
 20
322.8738140544915
 30
0.0
 11
36.30000113118011
 21
306.0738140544916
 31
0.0
  0
CIRCLE
  5
747
330
1F
100
AcDbEntity
  8
0
100
AcDbCircle
 10
30.60000113117996
 20
347.7738140544925
 30
0.0
 40
1.399999999999999
  0
CIRCLE
  5
748
330
1F
100
AcDbEntity
  8
0
100
AcDbCircle
 10
30.60000113117996
 20
342.9738140544914
 30
0.0
 40
1.399999999999999
  0
LINE
  5
749
330
1F
100
AcDbEntity
  8
0
100
AcDbLine
 10
36.90000113117992
 20
339.0738140544907
 30
0.0
 11
27.00000113117994
 21
339.0738140544907
 31
0.0
  0
LINE
  5
74A
330
1F
100
AcDbEntity
  8
0
100
AcDbLine
 10
36.00000100926195
 20
338.5538142138352
 30
0.0
 11
28.10000100926208
 21
338.5538142138352
 31
0.0
  0
LINE
  5
74B
330
1F
100
AcDbEntity
  8
0
100
AcDbLine
 10
36.00000100926195
 20
331.0538142138351
 30
0.0
 11
28.10000100926208
 21
331.0538142138351
 31
0.0
  0
LINE
  5
74C
330
1F
100
AcDbEntity
  8
0
100
AcDbLine
 10
38.30000100926304
 20
330.0538142138352
 30
0.0
 11
28.10000100926298
 21
330.0538142138352
 31
0.0
  0
LINE
  5
74D
330
1F
100
AcDbEntity
  8
0
100
AcDbLine
 10
28.10000100926298
 20
337.6438142138368
 30
0.0
 11
28.50000100926195
 21
337.6438142138368
 31
0.0
  0
LINE
  5
74E
330
1F
100
AcDbEntity
  8
0
100
AcDbLine
 10
28.10000100926298
 20
337.0438142138354
 30
0.0
 11
28.50000100926195
 21
337.0438142138354
 31
0.0
  0
LINE
  5
74F
330
1F
100
AcDbEntity
  8
0
100
AcDbLine
 10
28.10000100926298
 20
335.1038142138377
 30
0.0
 11
28.50000100926195
 21
335.1038142138377
 31
0.0
  0
LINE
  5
750
330
1F
100
AcDbEntity
  8
0
100
AcDbLine
 10
28.10000100926298
 20
334.5038142138355
 30
0.0
 11
28.50000100926195
 21
334.5038142138355
 31
0.0
  0
LINE
  5
751
330
1F
100
AcDbEntity
  8
0
100
AcDbLine
 10
28.10000100926298
 20
331.9638142138363
 30
0.0
 11
28.50000100926195
 21
331.9638142138363
 31
0.0
  0
LINE
  5
752
330
1F
100
AcDbEntity
  8
0
100
AcDbLine
 10
28.10000100926298
 20
332.5638142138368
 30
0.0
 11
28.50000100926195
 21
332.5638142138368
 31
0.0
  0
LINE
  5
753
330
1F
100
AcDbEntity
  8
0
100
AcDbLine
 10
28.10000100926208
 20
331.0538142138351
 30
0.0
 11
28.10000100926208
 21
331.9638142138363
 31
0.0
  0
LINE
  5
754
330
1F
100
AcDbEntity
  8
0
100
AcDbLine
 10
28.10000100926208
 20
337.6438142138352
 30
0.0
 11
28.10000100926208
 21
338.5538142138352
 31
0.0
  0
LINE
  5
755
330
1F
100
AcDbEntity
  8
0
100
AcDbLine
 10
28.50000100926195
 20
331.0538142138351
 30
0.0
 11
28.50000100926195
 21
338.5538142138352
 31
0.0
  0
LINE
  5
756
330
1F
100
AcDbEntity
  8
0
100
AcDbLine
 10
18.00000100926297
 20
354.9738142138352
 30
0.0
 11
19.00000100926297
 21
354.9476282922664
 31
0.0
  0
LINE
  5
757
330
1F
100
AcDbEntity
  8
0
100
AcDbLine
 10
19.00000100926297
 20
350.9738142138353
 30
0.0
 11
19.01308948341601
 21
350.9741569475945
 31
0.0
  0
LINE
  5
758
330
1F
100
AcDbEntity
  8
0
100
AcDbLine
 10
20.00000100926308
 20
354.4738142138352
 30
0.0
 11
19.00000100926297
 21
354.4738142138352
 31
0.0
  0
CIRCLE
  5
759
330
1F
100
AcDbEntity
  8
0
100
AcDbCircle
 10
35.70000113117997
 20
342.9738140544914
 30
0.0
 40
1.399999999999999
  0
LINE
  5
75A
330
1F
100
AcDbEntity
  8
0
100
AcDbLine
 10
38.30000100926304
 20
324.8638142138356
 30
0.0
 11
33.52450608027094
 21
324.8638142138356
 31
0.0
  0
LINE
  5
75B
330
1F
100
AcDbEntity
  8
0
100
AcDbLine
 10
38.30000100926304
 20
328.6038142138345
 30
0.0
 11
33.52450608027094
 21
328.6038142138345
 31
0.0
  0
LINE
  5
75C
330
1F
100
AcDbEntity
  8
0
100
AcDbLine
 10
38.30000100926304
 20
327.4038142138356
 30
0.0
 11
35.30000100926304
 21
327.4038142138356
 31
0.0
  0
LINE
  5
75D
330
1F
100
AcDbEntity
  8
0
100
AcDbLine
 10
38.30000100926304
 20
326.0638142138345
 30
0.0
 11
35.30000100926304
 21
326.0638142138345
 31
0.0
  0
LINE
  5
75E
330
1F
100
AcDbEntity
  8
0
100
AcDbLine
 10
38.30000100926304
 20
324.8638142138356
 30
0.0
 11
35.30000100926304
 21
324.8638142138356
 31
0.0
  0
LINE
  5
75F
330
1F
100
AcDbEntity
  8
0
100
AcDbLine
 10
36.90000113117992
 20
331.0738140544908
 30
0.0
 11
39.90000113117989
 21
331.0738140544908
 31
0.0
  0
LINE
  5
760
330
1F
100
AcDbEntity
  8
0
100
AcDbLine
 10
35.30000100926304
 20
327.4038142138356
 30
0.0
 11
35.30000100926304
 21
328.6038142138345
 31
0.0
  0
LINE
  5
761
330
1F
100
AcDbEntity
  8
0
100
AcDbLine
 10
35.30000100926304
 20
324.8638142138356
 30
0.0
 11
35.30000100926304
 21
326.0638142138345
 31
0.0
  0
LINE
  5
762
330
1F
100
AcDbEntity
  8
0
100
AcDbLine
 10
36.80000100926304
 20
326.0638142138345
 30
0.0
 11
36.80000100926304
 21
327.4038142138356
 31
0.0
  0
LINE
  5
763
330
1F
100
AcDbEntity
  8
0
100
AcDbLine
 10
37.30000100926304
 20
327.4038142138356
 30
0.0
 11
37.30000100926304
 21
328.6038142138345
 31
0.0
  0
LINE
  5
764
330
1F
100
AcDbEntity
  8
0
100
AcDbLine
 10
37.30000100926304
 20
324.8638142138356
 30
0.0
 11
37.30000100926304
 21
326.0638142138345
 31
0.0
  0
LINE
  5
765
330
1F
100
AcDbEntity
  8
0
100
AcDbLine
 10
33.52450608027094
 20
328.6038142138345
 30
0.0
 11
33.52450608027094
 21
324.8638142138356
 31
0.0
  0
CIRCLE
  5
766
330
1F
100
AcDbEntity
  8
0
100
AcDbCircle
 10
32.25000100926195
 20
334.8038142138352
 30
0.0
 40
1.290290050200999
  0
LINE
  5
767
330
1F
100
AcDbEntity
  8
0
100
AcDbLine
 10
36.90000113117992
 20
339.0738140544907
 30
0.0
 11
36.90000113117992
 21
331.0738140544908
 31
0.0
  0
LINE
  5
768
330
1F
100
AcDbEntity
  8
0
100
AcDbLine
 10
36.00000100926195
 20
331.0538142138351
 30
0.0
 11
36.00000100926195
 21
338.5538142138352
 31
0.0
  0
ARC
  5
769
330
1F
100
AcDbEntity
  8
0
100
AcDbCircle
 10
43.00000100926297
 20
359.9738142138352
 30
0.0
 40
5.5
100
AcDbArc
 50
180.0
 51
245.3800226713459
  0
CIRCLE
  5
76A
330
1F
100
AcDbEntity
  8
0
100
AcDbCircle
 10
35.70000113117997
 20
347.7738140544925
 30
0.0
 40
1.399999999999999
  0
LINE
  5
76B
330
1F
100
AcDbEntity
  8
0
100
AcDbLine
 10
18.00000100926297
 20
364.9738142138352
 30
0.0
 11
0.9738240609549391
 21
364.5279680796443
 31
0.0
  0
ARC
  5
76C
330
1F
100
AcDbEntity
  8
0
100
AcDbCircle
 10
1.000001009262972
 20
363.5283107546673
 30
0.0
 40
1.0
100
AcDbArc
 50
91.49999999999627
 51
180.0
  0
LINE
  5
76D
330
1F
100
AcDbEntity
  8
0
100
AcDbLine
 10
48.50000100926298
 20
359.9738142138352
 30
0.0
 11
48.50000100926298
 21
364.9738142138352
 31
0.0
  0
LINE
  5
76E
330
1F
100
AcDbEntity
  8
0
100
AcDbLine
 10
63.10000100926298
 20
247.5738142138351
 30
0.0
 11
63.10000100926298
 21
253.4738142138353
 31
0.0
  0
LINE
  5
76F
330
1F
100
AcDbEntity
  8
0
100
AcDbLine
 10
64.00000113118108
 20
267.5738140544914
 30
0.0
 11
64.00000113118108
 21
232.6738140544926
 31
0.0
  0
LINE
  5
770
330
1F
100
AcDbEntity
  8
0
100
AcDbLine
 10
63.10000100926298
 20
267.5738140544914
 30
0.0
 11
63.10000100926298
 21
232.6738140544926
 31
0.0
  0
LINE
  5
771
330
1F
100
AcDbEntity
  8
0
100
AcDbLine
 10
49.20000113117999
 20
263.0738140544908
 30
0.0
 11
49.20000113117999
 21
247.0738140544908
 31
0.0
  0
LINE
  5
772
330
1F
100
AcDbEntity
  8
0
100
AcDbLine
 10
50.30000100926191
 20
247.5738142138351
 30
0.0
 11
50.30000100926191
 21
261.573814213834
 31
0.0
  0
LINE
  5
773
330
1F
100
AcDbEntity
  8
0
100
AcDbLine
 10
63.10000100926197
 20
247.0738142138352
 30
0.0
 11
55.20000100926188
 21
247.0738142138352
 31
0.0
  0
LINE
  5
774
330
1F
100
AcDbEntity
  8
0
100
AcDbLine
 10
63.10000100926197
 20
241.5738142138351
 30
0.0
 11
55.85000100926198
 21
241.5738142138351
 31
0.0
  0
LINE
  5
775
330
1F
100
AcDbEntity
  8
0
100
AcDbLine
 10
55.20000100926188
 20
242.073814213835
 30
0.0
 11
63.10000100926197
 21
242.073814213835
 31
0.0
  0
LINE
  5
776
330
1F
100
AcDbEntity
  8
0
100
AcDbLine
 10
55.85000100926198
 20
233.1738142138346
 30
0.0
 11
63.10000100926197
 21
233.1738142138346
 31
0.0
  0
LINE
  5
777
330
1F
100
AcDbEntity
  8
0
100
AcDbLine
 10
64.00000113118108
 20
232.6738140544926
 30
0.0
 11
52.60000113117996
 21
232.6738140544926
 31
0.0
  0
LINE
  5
778
330
1F
100
AcDbEntity
  8
0
100
AcDbLine
 10
64.00000113118108
 20
230.6738140544914
 30
0.0
 11
52.60000113117996
 21
230.6738140544914
 31
0.0
  0
LINE
  5
779
330
1F
100
AcDbEntity
  8
0
100
AcDbLine
 10
54.50000100926311
 20
230.1738142138356
 30
0.0
 11
62.80000100926304
 21
230.1738142138356
 31
0.0
  0
LINE
  5
77A
330
1F
100
AcDbEntity
  8
0
100
AcDbLine
 10
53.70000100926302
 20
229.1738142138346
 30
0.0
 11
62.80000100926304
 21
229.1738142138346
 31
0.0
  0
LINE
  5
77B
330
1F
100
AcDbEntity
  8
0
100
AcDbLine
 10
63.10000100926298
 20
247.5738142138351
 30
0.0
 11
50.30000100926191
 21
247.5738142138351
 31
0.0
  0
ARC
  5
77C
330
1F
100
AcDbEntity
  8
0
100
AcDbCircle
 10
54.50000100926311
 20
229.6738142138346
 30
0.0
 40
0.5
100
AcDbArc
 50
90.0
 51
180.0
  0
LINE
  5
77D
330
1F
100
AcDbEntity
  8
0
100
AcDbLine
 10
54.00000100926309
 20
229.6738142138346
 30
0.0
 11
54.00000100926309
 21
229.1738142138346
 31
0.0
  0
LINE
  5
77E
330
1F
100
AcDbEntity
  8
0
100
AcDbLine
 10
61.45000100926302
 20
222.7738142138345
 30
0.0
 11
61.45000100926302
 21
225.1738142138356
 31
0.0
  0
ARC
  5
77F
330
1F
100
AcDbEntity
  8
0
100
AcDbCircle
 10
59.45000100926302
 20
219.0575310712438
 30
0.0
 40
2.0
100
AcDbArc
 50
0.0
 51
74.99999999999926
  0
LINE
  5
780
330
1F
100
AcDbEntity
  8
0
100
AcDbLine
 10
55.15000100926306
 20
225.1738142138356
 30
0.0
 11
55.15000100926306
 21
222.7738142138345
 31
0.0
  0
ARC
  5
781
330
1F
100
AcDbEntity
  8
0
100
AcDbCircle
 10
57.15000100926295
 20
219.6738142138346
 30
0.0
 40
2.0
100
AcDbArc
 50
74.99999999999926
 51
180.0
  0
LINE
  5
782
330
1F
100
AcDbEntity
  8
0
100
AcDbLine
 10
57.66763909946803
 20
221.6056658664137
 30
0.0
 11
59.96763909946809
 21
220.9893827238214
 31
0.0
  0
LINE
  5
783
330
1F
100
AcDbEntity
  8
0
100
AcDbLine
 10
55.15000100926306
 20
222.7738142138345
 30
0.0
 11
61.45000100926302
 21
222.7738142138345
 31
0.0
  0
LINE
  5
784
330
1F
100
AcDbEntity
  8
0
100
AcDbLine
 10
55.15000100926306
 20
224.6738142138356
 30
0.0
 11
61.45000100926302
 21
224.6738142138356
 31
0.0
  0
LINE
  5
785
330
1F
100
AcDbEntity
  8
0
100
AcDbLine
 10
55.15000100926306
 20
225.1738142138346
 30
0.0
 11
61.45000100926302
 21
225.1738142138346
 31
0.0
  0
LINE
  5
786
330
1F
100
AcDbEntity
  8
0
100
AcDbLine
 10
59.90000100926295
 20
220.1738142138356
 30
0.0
 11
56.70000100926301
 21
220.1738142138356
 31
0.0
  0
CIRCLE
  5
787
330
1F
100
AcDbEntity
  8
0
100
AcDbCircle
 10
58.30000100926304
 20
227.2038142138351
 30
0.0
 40
1.399999999999999
  0
LINE
  5
788
330
1F
100
AcDbEntity
  8
0
100
AcDbLine
 10
52.60000113117996
 20
247.0738140544908
 30
0.0
 11
52.60000113117996
 21
232.6738140544926
 31
0.0
  0
LINE
  5
789
330
1F
100
AcDbEntity
  8
0
100
AcDbLine
 10
52.60000113117996
 20
247.0738140544908
 30
0.0
 11
49.20000113117999
 21
247.0738140544908
 31
0.0
  0
LINE
  5
78A
330
1F
100
AcDbEntity
  8
0
100
AcDbLine
 10
58.15000100926194
 20
246.073814213835
 30
0.0
 11
57.15000100926193
 21
246.073814213835
 31
0.0
  0
LINE
  5
78B
330
1F
100
AcDbEntity
  8
0
100
AcDbLine
 10
62.15000100926193
 20
246.073814213835
 30
0.0
 11
56.15000100926192
 21
246.073814213835
 31
0.0
  0
CIRCLE
  5
78C
330
1F
100
AcDbEntity
  8
0
100
AcDbCircle
 10
59.60000100926198
 20
235.6238142138354
 30
0.0
 40
1.0
  0
CIRCLE
  5
78D
330
1F
100
AcDbEntity
  8
0
100
AcDbCircle
 10
59.60000100926198
 20
239.1238142138353
 30
0.0
 40
1.0
  0
LINE
  5
78E
330
1F
100
AcDbEntity
  8
0
100
AcDbLine
 10
57.15000100926193
 20
243.0738142138352
 30
0.0
 11
58.15000100926194
 21
243.0738142138352
 31
0.0
  0
LINE
  5
78F
330
1F
100
AcDbEntity
  8
0
100
AcDbLine
 10
55.85000100926198
 20
241.5738142138351
 30
0.0
 11
55.85000100926198
 21
233.1738142138346
 31
0.0
  0
LINE
  5
790
330
1F
100
AcDbEntity
  8
0
100
AcDbLine
 10
56.15000100926192
 20
243.0738142138352
 30
0.0
 11
62.15000100926193
 21
243.0738142138352
 31
0.0
  0
LINE
  5
791
330
1F
100
AcDbEntity
  8
0
100
AcDbLine
 10
58.9500010092621
 20
243.0738142138352
 30
0.0
 11
58.9500010092621
 21
246.073814213835
 31
0.0
  0
LINE
  5
792
330
1F
100
AcDbEntity
  8
0
100
AcDbLine
 10
62.15000100926193
 20
243.0738142138352
 30
0.0
 11
62.15000100926193
 21
246.073814213835
 31
0.0
  0
LINE
  5
793
330
1F
100
AcDbEntity
  8
0
100
AcDbLine
 10
56.15000100926192
 20
246.073814213835
 30
0.0
 11
56.15000100926192
 21
243.0738142138352
 31
0.0
  0
LINE
  5
794
330
1F
100
AcDbEntity
  8
0
100
AcDbLine
 10
58.15000100926194
 20
243.0738142138352
 30
0.0
 11
58.15000100926194
 21
246.073814213835
 31
0.0
  0
LINE
  5
795
330
1F
100
AcDbEntity
  8
0
100
AcDbLine
 10
57.15000100926193
 20
246.073814213835
 30
0.0
 11
57.15000100926193
 21
243.0738142138352
 31
0.0
  0
LINE
  5
796
330
1F
100
AcDbEntity
  8
0
100
AcDbLine
 10
55.20000100926188
 20
247.0738142138352
 30
0.0
 11
55.20000100926188
 21
242.073814213835
 31
0.0
  0
LINE
  5
797
330
1F
100
AcDbEntity
  8
0
100
AcDbLine
 10
63.10000100926298
 20
229.8738142138377
 30
0.0
 11
63.10000100926298
 21
222.7738142138345
 31
0.0
  0
LINE
  5
798
330
1F
100
AcDbEntity
  8
0
100
AcDbLine
 10
62.80000100926304
 20
222.7738142138345
 30
0.0
 11
63.10000100926298
 21
222.7738142138345
 31
0.0
  0
LINE
  5
799
330
1F
100
AcDbEntity
  8
0
100
AcDbLine
 10
62.80000100926304
 20
215.3838142138356
 30
0.0
 11
63.10000100926298
 21
215.3838142138356
 31
0.0
  0
LINE
  5
79A
330
1F
100
AcDbEntity
  8
0
100
AcDbLine
 10
62.80000100926304
 20
214.1138142138355
 30
0.0
 11
63.10000100926298
 21
214.1138142138355
 31
0.0
  0
LINE
  5
79B
330
1F
100
AcDbEntity
  8
0
100
AcDbLine
 10
62.80000100926304
 20
217.9238142138355
 30
0.0
 11
63.10000100926298
 21
217.9238142138355
 31
0.0
  0
LINE
  5
79C
330
1F
100
AcDbEntity
  8
0
100
AcDbLine
 10
62.80000100926304
 20
216.6538142138365
 30
0.0
 11
63.10000100926298
 21
216.6538142138365
 31
0.0
  0
LINE
  5
79D
330
1F
100
AcDbEntity
  8
0
100
AcDbLine
 10
62.80000100926304
 20
215.3838142138356
 30
0.0
 11
63.10000100926298
 21
215.3838142138356
 31
0.0
  0
LINE
  5
79E
330
1F
100
AcDbEntity
  8
0
100
AcDbLine
 10
62.80000100926304
 20
219.1938142138356
 30
0.0
 11
63.10000100926298
 21
219.1938142138356
 31
0.0
  0
LINE
  5
79F
330
1F
100
AcDbEntity
  8
0
100
AcDbLine
 10
62.80000100926304
 20
217.9238142138355
 30
0.0
 11
63.10000100926298
 21
217.9238142138355
 31
0.0
  0
LINE
  5
7A0
330
1F
100
AcDbEntity
  8
0
100
AcDbLine
 10
62.80000100926304
 20
212.8438142138356
 30
0.0
 11
63.10000100926298
 21
212.8438142138356
 31
0.0
  0
LINE
  5
7A1
330
1F
100
AcDbEntity
  8
0
100
AcDbLine
 10
62.80000100926304
 20
211.5738142138365
 30
0.0
 11
63.10000100926298
 21
211.5738142138365
 31
0.0
  0
ARC
  5
7A2
330
1F
100
AcDbEntity
  8
0
100
AcDbCircle
 10
62.80000100926304
 20
229.8738142138377
 30
0.0
 40
0.3
100
AcDbArc
 50
0.0
 51
90.0
  0
LINE
  5
7A3
330
1F
100
AcDbEntity
  8
0
100
AcDbLine
 10
63.10000100926197
 20
233.1738142138346
 30
0.0
 11
63.10000100926197
 21
241.5738142138351
 31
0.0
  0
LINE
  5
7A4
330
1F
100
AcDbEntity
  8
0
100
AcDbLine
 10
63.10000100926197
 20
242.073814213835
 30
0.0
 11
63.10000100926197
 21
247.0738142138352
 31
0.0
  0
LINE
  5
7A5
330
1F
100
AcDbEntity
  8
0
100
AcDbLine
 10
64.00000113118108
 20
267.5738140544914
 30
0.0
 11
52.60000113117996
 21
267.5738140544914
 31
0.0
  0
LINE
  5
7A6
330
1F
100
AcDbEntity
  8
0
100
AcDbLine
 10
63.10000100926197
 20
267.0738142138349
 30
0.0
 11
55.20000100926188
 21
267.0738142138349
 31
0.0
  0
LINE
  5
7A7
330
1F
100
AcDbEntity
  8
0
100
AcDbLine
 10
55.20000100926188
 20
262.0738142138349
 30
0.0
 11
63.10000100926197
 21
262.0738142138349
 31
0.0
  0
LINE
  5
7A8
330
1F
100
AcDbEntity
  8
0
100
AcDbLine
 10
63.10000100926298
 20
261.573814213834
 30
0.0
 11
50.30000100926191
 21
261.573814213834
 31
0.0
  0
LINE
  5
7A9
330
1F
100
AcDbEntity
  8
0
100
AcDbLine
 10
52.60000113117996
 20
263.0738140544908
 30
0.0
 11
52.60000113117996
 21
267.5738140544914
 31
0.0
  0
CIRCLE
  5
7AA
330
1F
100
AcDbEntity
  8
0
100
AcDbCircle
 10
56.600001009263
 20
254.573814213835
 30
0.0
 40
5.5
  0
LINE
  5
7AB
330
1F
100
AcDbEntity
  8
0
100
AcDbLine
 10
52.60000113117996
 20
263.0738140544908
 30
0.0
 11
49.20000113117999
 21
263.0738140544908
 31
0.0
  0
LINE
  5
7AC
330
1F
100
AcDbEntity
  8
0
100
AcDbLine
 10
58.15000100926194
 20
266.0738142138352
 30
0.0
 11
57.15000100926193
 21
266.0738142138352
 31
0.0
  0
LINE
  5
7AD
330
1F
100
AcDbEntity
  8
0
100
AcDbLine
 10
62.15000100926193
 20
266.0738142138352
 30
0.0
 11
56.15000100926192
 21
266.0738142138352
 31
0.0
  0
LINE
  5
7AE
330
1F
100
AcDbEntity
  8
0
100
AcDbLine
 10
57.15000100926193
 20
263.0738142138349
 30
0.0
 11
58.15000100926194
 21
263.0738142138349
 31
0.0
  0
LINE
  5
7AF
330
1F
100
AcDbEntity
  8
0
100
AcDbLine
 10
56.15000100926192
 20
263.0738142138349
 30
0.0
 11
62.15000100926193
 21
263.0738142138349
 31
0.0
  0
LINE
  5
7B0
330
1F
100
AcDbEntity
  8
0
100
AcDbLine
 10
62.15000100926193
 20
263.0738142138349
 30
0.0
 11
62.15000100926193
 21
266.0738142138352
 31
0.0
  0
LINE
  5
7B1
330
1F
100
AcDbEntity
  8
0
100
AcDbLine
 10
58.9500010092621
 20
263.0738142138349
 30
0.0
 11
58.9500010092621
 21
266.0738142138352
 31
0.0
  0
LINE
  5
7B2
330
1F
100
AcDbEntity
  8
0
100
AcDbLine
 10
58.15000100926194
 20
263.0738142138349
 30
0.0
 11
58.15000100926194
 21
266.0738142138352
 31
0.0
  0
LINE
  5
7B3
330
1F
100
AcDbEntity
  8
0
100
AcDbLine
 10
57.15000100926193
 20
266.0738142138352
 30
0.0
 11
57.15000100926193
 21
263.0738142138349
 31
0.0
  0
LINE
  5
7B4
330
1F
100
AcDbEntity
  8
0
100
AcDbLine
 10
56.15000100926192
 20
266.0738142138352
 30
0.0
 11
56.15000100926192
 21
263.0738142138349
 31
0.0
  0
LINE
  5
7B5
330
1F
100
AcDbEntity
  8
0
100
AcDbLine
 10
55.20000100926188
 20
267.0738142138349
 30
0.0
 11
55.20000100926188
 21
262.0738142138349
 31
0.0
  0
LINE
  5
7B6
330
1F
100
AcDbEntity
  8
0
100
AcDbLine
 10
63.10000100926298
 20
255.6738142138346
 30
0.0
 11
63.10000100926298
 21
261.573814213834
 31
0.0
  0
LINE
  5
7B7
330
1F
100
AcDbEntity
  8
0
100
AcDbLine
 10
63.10000100926197
 20
262.0738142138349
 30
0.0
 11
63.10000100926197
 21
267.0738142138349
 31
0.0
  0
ARC
  5
7B8
330
1F
100
AcDbEntity
  8
0
100
AcDbCircle
 10
71.00000100926307
 20
363.9738142138353
 30
0.0
 40
1.0
100
AcDbArc
 50
0.0
 51
90.0
  0
ARC
  5
7B9
330
1F
100
AcDbEntity
  8
0
100
AcDbCircle
 10
71.00000100926307
 20
363.9738142138353
 30
0.0
 40
1.0
100
AcDbArc
 50
0.0
 51
90.0
  0
LINE
  5
7BA
330
1F
100
AcDbEntity
  8
0
100
AcDbLine
 10
64.00000113118108
 20
267.5738140544914
 30
0.0
 11
52.6000011311811
 21
267.5738140544914
 31
0.0
  0
LINE
  5
7BB
330
1F
100
AcDbEntity
  8
0
  6
BYBLOCK
 62
     0
100
AcDbLine
 10
45.10014963435992
 20
308.2989495185366
 30
0.0
 11
60.000075321812
 21
308.2989495185373
 31
0.0
  0
LINE
  5
7BC
330
1F
100
AcDbEntity
  8
0
  6
BYBLOCK
 62
     0
100
AcDbLine
 10
60.00007532181394
 20
275.4989459185373
 30
0.0
 11
60.000075321812
 21
308.2989495185373
 31
0.0
  0
LINE
  5
7BD
330
1F
100
AcDbEntity
  8
0
  6
BYBLOCK
 62
     0
100
AcDbLine
 10
45.10014963435992
 20
275.4989459185373
 30
0.0
 11
60.00007532181394
 21
275.4989459185373
 31
0.0
  0
INSERT
  5
7BE
330
1F
100
AcDbEntity
  8
0
 62
     0
 48
5.0
100
AcDbBlockReference
  2
A$C5CFD6E8C
 10
61.5000037982429
 20
315.7488124678816
 30
0.0
  0
INSERT
  5
7BF
330
1F
100
AcDbEntity
  8
0
 62
     0
 48
5.0
100
AcDbBlockReference
  2
A$C5CFD6E8C
 10
61.5000037982429
 20
310.2488124678816
 30
0.0
  0
LINE
  5
7C0
330
1F
100
AcDbEntity
  8
0
 62
     0
 48
5.0
100
AcDbLine
 10
45.10014963435992
 20
308.2989495185366
 30
0.0
 11
45.10014963435992
 21
275.4989459185373
 31
0.0
  0
LWPOLYLINE
  5
7C1
330
1F
100
AcDbEntity
  8
0
 62
     0
100
AcDbPolyline
 90
        4
 70
     1
 43
0.0
 10
61.50000100926286
 20
318.4488149475264
 10
63.10000100926322
 20
318.4488149475264
 10
63.10000100926322
 20
315.7488149475266
 10
61.50000100926286
 20
315.7488149475266
  0
LWPOLYLINE
  5
7C2
330
1F
100
AcDbEntity
  8
0
 62
     0
100
AcDbPolyline
 90
        4
 70
     1
 43
0.0
 10
61.50000100926286
 20
312.9488149475263
 10
63.10000100926322
 20
312.9488149475263
 10
63.10000100926322
 20
310.2488149475266
 10
61.50000100926286
 20
310.2488149475266
  0
INSERT
  5
7C3
330
1F
100
AcDbEntity
  8
0
100
AcDbBlockReference
  2
A$C5D8F2B47
 10
45.10014963435992
 20
308.2989495185366
 30
0.0
  0
LINE
  5
7F4
330
1F
100
AcDbEntity
  8
0
100
AcDbLine
 10
293.0000010092621
 20
364.8428846059895
 30
0.0
 11
293.0000010092621
 21
171.1047438216818
 31
0.0
  0
LINE
  5
7F5
330
1F
100
AcDbEntity
  8
0
100
AcDbLine
 10
288.0000010092621
 20
170.9738142138355
 30
0.0
 11
288.0000010092621
 21
180.9738142138358
 31
0.0
  0
LINE
  5
7F6
330
1F
100
AcDbEntity
  8
0
100
AcDbLine
 10
172.000001009263
 20
180.9738142138358
 30
0.0
 11
172.000001009263
 21
354.9738142138356
 31
0.0
  0
LINE
  5
7F7
330
1F
100
AcDbEntity
  8
0
100
AcDbLine
 10
172.000001009263
 20
354.9738142138356
 30
0.0
 11
288.0000010092621
 21
354.9738142138356
 31
0.0
  0
LINE
  5
7F8
330
1F
100
AcDbEntity
  8
0
100
AcDbLine
 10
172.000001009263
 20
180.9738142138358
 30
0.0
 11
288.0000010092621
 21
180.9738142138358
 31
0.0
  0
LINE
  5
7F9
330
1F
100
AcDbEntity
  8
0
100
AcDbLine
 10
288.0000010092621
 20
364.9738142138356
 30
0.0
 11
293.0000010092621
 21
364.8428846059895
 31
0.0
  0
LINE
  5
7FA
330
1F
100
AcDbEntity
  8
0
100
AcDbLine
 10
289.4140407739988
 20
364.9367862794605
 30
0.0
 11
289.414040773998
 21
171.0108421482106
 31
0.0
  0
LINE
  5
7FB
330
1F
100
AcDbEntity
  8
0
100
AcDbLine
 10
288.0000010092621
 20
170.9738142138355
 30
0.0
 11
293.0000010092621
 21
171.1047438216818
 31
0.0
  0
LINE
  5
7FC
330
1F
100
AcDbEntity
  8
0
100
AcDbLine
 10
172.000001009263
 20
180.9738142138358
 30
0.0
 11
172.000001009263
 21
354.9738142138356
 31
0.0
  0
LINE
  5
7FD
330
1F
100
AcDbEntity
  8
0
100
AcDbLine
 10
172.000001009263
 20
354.9738142138356
 30
0.0
 11
289.387854852431
 21
354.9738142138356
 31
0.0
  0
LINE
  5
7FE
330
1F
100
AcDbEntity
  8
0
100
AcDbLine
 10
189.0000010092629
 20
180.9738142138358
 30
0.0
 11
189.0000010092629
 21
354.9738142138356
 31
0.0
  0
LINE
  5
7FF
330
1F
100
AcDbEntity
  8
0
100
AcDbLine
 10
271.0000010092629
 20
180.9738142138358
 30
0.0
 11
271.0000010092629
 21
354.9738142138356
 31
0.0
  0
LINE
  5
800
330
1F
100
AcDbEntity
  8
0
100
AcDbLine
 10
189.0000010092629
 20
353.9738142138356
 30
0.0
 11
271.0000010092629
 21
353.9738142138356
 31
0.0
  0
LINE
  5
801
330
1F
100
AcDbEntity
  8
0
100
AcDbLine
 10
194.000001009263
 20
351.9738142138356
 30
0.0
 11
196.0000010092629
 21
351.9738142138356
 31
0.0
  0
LINE
  5
802
330
1F
100
AcDbEntity
  8
0
100
AcDbLine
 10
194.000001009263
 20
181.9738142138358
 30
0.0
 11
194.000001009263
 21
235.2238142138356
 31
0.0
  0
LINE
  5
803
330
1F
100
AcDbEntity
  8
0
100
AcDbLine
 10
196.0000010092629
 20
181.9738142138358
 30
0.0
 11
196.0000010092629
 21
235.2238142138356
 31
0.0
  0
LINE
  5
804
330
1F
100
AcDbEntity
  8
0
100
AcDbLine
 10
194.000001009263
 20
300.7238142138356
 30
0.0
 11
196.0000010092629
 21
300.7238142138356
 31
0.0
  0
LINE
  5
805
330
1F
100
AcDbEntity
  8
0
100
AcDbLine
 10
194.000001009263
 20
235.2238142138356
 30
0.0
 11
196.0000010092629
 21
235.2238142138356
 31
0.0
  0
LINE
  5
806
330
1F
100
AcDbEntity
  8
0
100
AcDbLine
 10
189.0000010092629
 20
181.9738142138358
 30
0.0
 11
271.0000010092629
 21
181.9738142138358
 31
0.0
  0
LINE
  5
807
330
1F
100
AcDbEntity
  8
0
100
AcDbLine
 10
194.000001009263
 20
183.9738142138358
 30
0.0
 11
196.0000010092629
 21
183.9738142138358
 31
0.0
  0
LINE
  5
808
330
1F
100
AcDbEntity
  8
0
100
AcDbLine
 10
194.000001009263
 20
300.7238142138356
 30
0.0
 11
194.000001009263
 21
353.9738142138356
 31
0.0
  0
LINE
  5
809
330
1F
100
AcDbEntity
  8
0
100
AcDbLine
 10
196.0000010092629
 20
300.7238142138356
 30
0.0
 11
196.0000010092629
 21
353.9738142138356
 31
0.0
  0
LINE
  5
80A
330
1F
100
AcDbEntity
  8
0
100
AcDbLine
 10
201.000001009263
 20
351.9738142138356
 30
0.0
 11
203.000001009263
 21
351.9738142138356
 31
0.0
  0
LINE
  5
80B
330
1F
100
AcDbEntity
  8
0
100
AcDbLine
 10
201.000001009263
 20
181.9738142138358
 30
0.0
 11
201.000001009263
 21
235.2238142138356
 31
0.0
  0
LINE
  5
80C
330
1F
100
AcDbEntity
  8
0
100
AcDbLine
 10
203.000001009263
 20
181.9738142138358
 30
0.0
 11
203.000001009263
 21
235.2238142138356
 31
0.0
  0
LINE
  5
80D
330
1F
100
AcDbEntity
  8
0
100
AcDbLine
 10
201.000001009263
 20
300.7238142138356
 30
0.0
 11
203.000001009263
 21
300.7238142138356
 31
0.0
  0
LINE
  5
80E
330
1F
100
AcDbEntity
  8
0
100
AcDbLine
 10
201.000001009263
 20
235.2238142138356
 30
0.0
 11
203.000001009263
 21
235.2238142138356
 31
0.0
  0
LINE
  5
80F
330
1F
100
AcDbEntity
  8
0
100
AcDbLine
 10
201.000001009263
 20
183.9738142138358
 30
0.0
 11
203.000001009263
 21
183.9738142138358
 31
0.0
  0
LINE
  5
810
330
1F
100
AcDbEntity
  8
0
100
AcDbLine
 10
201.000001009263
 20
300.7238142138356
 30
0.0
 11
201.000001009263
 21
353.9738142138356
 31
0.0
  0
LINE
  5
811
330
1F
100
AcDbEntity
  8
0
100
AcDbLine
 10
203.000001009263
 20
300.7238142138356
 30
0.0
 11
203.000001009263
 21
353.9738142138356
 31
0.0
  0
LINE
  5
812
330
1F
100
AcDbEntity
  8
0
100
AcDbLine
 10
208.0000010092629
 20
351.9738142138356
 30
0.0
 11
210.0000010092629
 21
351.9738142138356
 31
0.0
  0
LINE
  5
813
330
1F
100
AcDbEntity
  8
0
100
AcDbLine
 10
208.0000010092629
 20
181.9738142138358
 30
0.0
 11
208.0000010092629
 21
235.2238142138356
 31
0.0
  0
LINE
  5
814
330
1F
100
AcDbEntity
  8
0
100
AcDbLine
 10
210.0000010092629
 20
181.9738142138358
 30
0.0
 11
210.0000010092629
 21
235.2238142138356
 31
0.0
  0
LINE
  5
815
330
1F
100
AcDbEntity
  8
0
100
AcDbLine
 10
208.0000010092629
 20
300.7238142138356
 30
0.0
 11
210.0000010092629
 21
300.7238142138356
 31
0.0
  0
LINE
  5
816
330
1F
100
AcDbEntity
  8
0
100
AcDbLine
 10
208.0000010092629
 20
235.2238142138356
 30
0.0
 11
210.0000010092629
 21
235.2238142138356
 31
0.0
  0
LINE
  5
817
330
1F
100
AcDbEntity
  8
0
100
AcDbLine
 10
208.0000010092629
 20
183.9738142138358
 30
0.0
 11
210.0000010092629
 21
183.9738142138358
 31
0.0
  0
LINE
  5
818
330
1F
100
AcDbEntity
  8
0
100
AcDbLine
 10
208.0000010092629
 20
300.7238142138356
 30
0.0
 11
208.0000010092629
 21
353.9738142138356
 31
0.0
  0
LINE
  5
819
330
1F
100
AcDbEntity
  8
0
100
AcDbLine
 10
210.0000010092629
 20
300.7238142138356
 30
0.0
 11
210.0000010092629
 21
353.9738142138356
 31
0.0
  0
LINE
  5
81A
330
1F
100
AcDbEntity
  8
0
100
AcDbLine
 10
215.0000010092631
 20
181.9738142138358
 30
0.0
 11
215.0000010092631
 21
235.2238142138356
 31
0.0
  0
LINE
  5
81B
330
1F
100
AcDbEntity
  8
0
100
AcDbLine
 10
217.0000010092631
 20
181.9738142138358
 30
0.0
 11
217.0000010092631
 21
235.2238142138356
 31
0.0
  0
LINE
  5
81C
330
1F
100
AcDbEntity
  8
0
100
AcDbLine
 10
215.0000010092631
 20
300.7238142138356
 30
0.0
 11
217.0000010092631
 21
300.7238142138356
 31
0.0
  0
LINE
  5
81D
330
1F
100
AcDbEntity
  8
0
100
AcDbLine
 10
215.0000010092631
 20
235.2238142138356
 30
0.0
 11
217.0000010092631
 21
235.2238142138356
 31
0.0
  0
LINE
  5
81E
330
1F
100
AcDbEntity
  8
0
100
AcDbLine
 10
215.0000010092631
 20
183.9738142138358
 30
0.0
 11
217.0000010092631
 21
183.9738142138358
 31
0.0
  0
LINE
  5
81F
330
1F
100
AcDbEntity
  8
0
100
AcDbLine
 10
215.0000010092631
 20
300.7238142138356
 30
0.0
 11
215.0000010092631
 21
353.9738142138356
 31
0.0
  0
LINE
  5
820
330
1F
100
AcDbEntity
  8
0
100
AcDbLine
 10
217.0000010092631
 20
300.7238142138356
 30
0.0
 11
217.0000010092631
 21
353.9738142138356
 31
0.0
  0
LINE
  5
821
330
1F
100
AcDbEntity
  8
0
100
AcDbLine
 10
222.000001009263
 20
351.9738142138356
 30
0.0
 11
224.000001009263
 21
351.9738142138356
 31
0.0
  0
LINE
  5
822
330
1F
100
AcDbEntity
  8
0
100
AcDbLine
 10
222.000001009263
 20
181.9738142138358
 30
0.0
 11
222.000001009263
 21
235.2238142138356
 31
0.0
  0
LINE
  5
823
330
1F
100
AcDbEntity
  8
0
100
AcDbLine
 10
224.000001009263
 20
181.9738142138358
 30
0.0
 11
224.000001009263
 21
235.2238142138356
 31
0.0
  0
LINE
  5
824
330
1F
100
AcDbEntity
  8
0
100
AcDbLine
 10
222.000001009263
 20
300.7238142138356
 30
0.0
 11
224.000001009263
 21
300.7238142138356
 31
0.0
  0
LINE
  5
825
330
1F
100
AcDbEntity
  8
0
100
AcDbLine
 10
222.000001009263
 20
235.2238142138356
 30
0.0
 11
224.000001009263
 21
235.2238142138356
 31
0.0
  0
LINE
  5
826
330
1F
100
AcDbEntity
  8
0
100
AcDbLine
 10
222.000001009263
 20
183.9738142138358
 30
0.0
 11
224.000001009263
 21
183.9738142138358
 31
0.0
  0
LINE
  5
827
330
1F
100
AcDbEntity
  8
0
100
AcDbLine
 10
222.000001009263
 20
300.7238142138356
 30
0.0
 11
222.000001009263
 21
353.9738142138356
 31
0.0
  0
LINE
  5
828
330
1F
100
AcDbEntity
  8
0
100
AcDbLine
 10
224.000001009263
 20
300.7238142138356
 30
0.0
 11
224.000001009263
 21
353.9738142138356
 31
0.0
  0
LINE
  5
829
330
1F
100
AcDbEntity
  8
0
100
AcDbLine
 10
229.0000010092629
 20
351.9738142138356
 30
0.0
 11
231.0000010092629
 21
351.9738142138356
 31
0.0
  0
LINE
  5
82A
330
1F
100
AcDbEntity
  8
0
100
AcDbLine
 10
229.0000010092629
 20
181.9738142138358
 30
0.0
 11
229.0000010092629
 21
235.2238142138356
 31
0.0
  0
LINE
  5
82B
330
1F
100
AcDbEntity
  8
0
100
AcDbLine
 10
231.0000010092629
 20
181.9738142138358
 30
0.0
 11
231.0000010092629
 21
235.2238142138356
 31
0.0
  0
LINE
  5
82C
330
1F
100
AcDbEntity
  8
0
100
AcDbLine
 10
229.0000010092629
 20
300.7238142138356
 30
0.0
 11
231.0000010092629
 21
300.7238142138356
 31
0.0
  0
LINE
  5
82D
330
1F
100
AcDbEntity
  8
0
100
AcDbLine
 10
229.0000010092629
 20
235.2238142138356
 30
0.0
 11
231.0000010092629
 21
235.2238142138356
 31
0.0
  0
LINE
  5
82E
330
1F
100
AcDbEntity
  8
0
100
AcDbLine
 10
229.0000010092629
 20
183.9738142138358
 30
0.0
 11
231.0000010092629
 21
183.9738142138358
 31
0.0
  0
LINE
  5
82F
330
1F
100
AcDbEntity
  8
0
100
AcDbLine
 10
229.0000010092629
 20
300.7238142138356
 30
0.0
 11
229.0000010092629
 21
353.9738142138356
 31
0.0
  0
LINE
  5
830
330
1F
100
AcDbEntity
  8
0
100
AcDbLine
 10
231.0000010092629
 20
300.7238142138356
 30
0.0
 11
231.0000010092629
 21
353.9738142138356
 31
0.0
  0
LINE
  5
831
330
1F
100
AcDbEntity
  8
0
100
AcDbLine
 10
236.0000010092631
 20
351.9738142138356
 30
0.0
 11
238.0000010092631
 21
351.9738142138356
 31
0.0
  0
LINE
  5
832
330
1F
100
AcDbEntity
  8
0
100
AcDbLine
 10
236.0000010092631
 20
181.9738142138358
 30
0.0
 11
236.0000010092631
 21
235.2238142138356
 31
0.0
  0
LINE
  5
833
330
1F
100
AcDbEntity
  8
0
100
AcDbLine
 10
238.0000010092631
 20
181.9738142138358
 30
0.0
 11
238.0000010092631
 21
235.2238142138356
 31
0.0
  0
LINE
  5
834
330
1F
100
AcDbEntity
  8
0
100
AcDbLine
 10
236.0000010092631
 20
300.7238142138356
 30
0.0
 11
238.0000010092631
 21
300.7238142138356
 31
0.0
  0
LINE
  5
835
330
1F
100
AcDbEntity
  8
0
100
AcDbLine
 10
236.0000010092631
 20
235.2238142138356
 30
0.0
 11
238.0000010092631
 21
235.2238142138356
 31
0.0
  0
LINE
  5
836
330
1F
100
AcDbEntity
  8
0
100
AcDbLine
 10
236.0000010092631
 20
183.9738142138358
 30
0.0
 11
238.0000010092631
 21
183.9738142138358
 31
0.0
  0
LINE
  5
837
330
1F
100
AcDbEntity
  8
0
100
AcDbLine
 10
236.0000010092631
 20
300.7238142138356
 30
0.0
 11
236.0000010092631
 21
353.9738142138356
 31
0.0
  0
LINE
  5
838
330
1F
100
AcDbEntity
  8
0
100
AcDbLine
 10
238.0000010092631
 20
300.7238142138356
 30
0.0
 11
238.0000010092631
 21
353.9738142138356
 31
0.0
  0
LINE
  5
839
330
1F
100
AcDbEntity
  8
0
100
AcDbLine
 10
243.000001009263
 20
351.9738142138356
 30
0.0
 11
245.000001009263
 21
351.9738142138356
 31
0.0
  0
LINE
  5
83A
330
1F
100
AcDbEntity
  8
0
100
AcDbLine
 10
243.000001009263
 20
181.9738142138358
 30
0.0
 11
243.000001009263
 21
235.2238142138356
 31
0.0
  0
LINE
  5
83B
330
1F
100
AcDbEntity
  8
0
100
AcDbLine
 10
245.000001009263
 20
181.9738142138358
 30
0.0
 11
245.000001009263
 21
235.2238142138356
 31
0.0
  0
LINE
  5
83C
330
1F
100
AcDbEntity
  8
0
100
AcDbLine
 10
243.000001009263
 20
300.7238142138356
 30
0.0
 11
245.000001009263
 21
300.7238142138356
 31
0.0
  0
LINE
  5
83D
330
1F
100
AcDbEntity
  8
0
100
AcDbLine
 10
243.000001009263
 20
235.2238142138356
 30
0.0
 11
245.000001009263
 21
235.2238142138356
 31
0.0
  0
LINE
  5
83E
330
1F
100
AcDbEntity
  8
0
100
AcDbLine
 10
243.000001009263
 20
183.9738142138358
 30
0.0
 11
245.000001009263
 21
183.9738142138358
 31
0.0
  0
LINE
  5
83F
330
1F
100
AcDbEntity
  8
0
100
AcDbLine
 10
243.000001009263
 20
300.7238142138356
 30
0.0
 11
243.000001009263
 21
353.9738142138356
 31
0.0
  0
LINE
  5
840
330
1F
100
AcDbEntity
  8
0
100
AcDbLine
 10
245.000001009263
 20
300.7238142138356
 30
0.0
 11
245.000001009263
 21
353.9738142138356
 31
0.0
  0
LINE
  5
841
330
1F
100
AcDbEntity
  8
0
100
AcDbLine
 10
250.000001009263
 20
351.9738142138356
 30
0.0
 11
252.0000010092629
 21
351.9738142138356
 31
0.0
  0
LINE
  5
842
330
1F
100
AcDbEntity
  8
0
100
AcDbLine
 10
250.000001009263
 20
181.9738142138358
 30
0.0
 11
250.000001009263
 21
235.2238142138356
 31
0.0
  0
LINE
  5
843
330
1F
100
AcDbEntity
  8
0
100
AcDbLine
 10
252.0000010092629
 20
181.9738142138358
 30
0.0
 11
252.0000010092629
 21
235.2238142138356
 31
0.0
  0
LINE
  5
844
330
1F
100
AcDbEntity
  8
0
100
AcDbLine
 10
250.000001009263
 20
300.7238142138356
 30
0.0
 11
252.0000010092629
 21
300.7238142138356
 31
0.0
  0
LINE
  5
845
330
1F
100
AcDbEntity
  8
0
100
AcDbLine
 10
250.000001009263
 20
235.2238142138356
 30
0.0
 11
252.0000010092629
 21
235.2238142138356
 31
0.0
  0
LINE
  5
846
330
1F
100
AcDbEntity
  8
0
100
AcDbLine
 10
250.000001009263
 20
183.9738142138358
 30
0.0
 11
252.0000010092629
 21
183.9738142138358
 31
0.0
  0
LINE
  5
847
330
1F
100
AcDbEntity
  8
0
100
AcDbLine
 10
250.000001009263
 20
300.7238142138356
 30
0.0
 11
250.000001009263
 21
353.9738142138356
 31
0.0
  0
LINE
  5
848
330
1F
100
AcDbEntity
  8
0
100
AcDbLine
 10
252.0000010092629
 20
300.7238142138356
 30
0.0
 11
252.0000010092629
 21
353.9738142138356
 31
0.0
  0
LINE
  5
849
330
1F
100
AcDbEntity
  8
0
100
AcDbLine
 10
257.0000010092631
 20
351.9738142138356
 30
0.0
 11
259.0000010092631
 21
351.9738142138356
 31
0.0
  0
LINE
  5
84A
330
1F
100
AcDbEntity
  8
0
100
AcDbLine
 10
257.0000010092631
 20
181.9738142138358
 30
0.0
 11
257.0000010092631
 21
235.2238142138356
 31
0.0
  0
LINE
  5
84B
330
1F
100
AcDbEntity
  8
0
100
AcDbLine
 10
259.0000010092631
 20
181.9738142138358
 30
0.0
 11
259.0000010092631
 21
235.2238142138356
 31
0.0
  0
LINE
  5
84C
330
1F
100
AcDbEntity
  8
0
100
AcDbLine
 10
257.0000010092631
 20
300.7238142138356
 30
0.0
 11
259.0000010092631
 21
300.7238142138356
 31
0.0
  0
LINE
  5
84D
330
1F
100
AcDbEntity
  8
0
100
AcDbLine
 10
257.0000010092631
 20
235.2238142138356
 30
0.0
 11
259.0000010092631
 21
235.2238142138356
 31
0.0
  0
LINE
  5
84E
330
1F
100
AcDbEntity
  8
0
100
AcDbLine
 10
257.0000010092631
 20
183.9738142138358
 30
0.0
 11
259.0000010092631
 21
183.9738142138358
 31
0.0
  0
LINE
  5
84F
330
1F
100
AcDbEntity
  8
0
100
AcDbLine
 10
257.0000010092631
 20
300.7238142138356
 30
0.0
 11
257.0000010092631
 21
353.9738142138356
 31
0.0
  0
LINE
  5
850
330
1F
100
AcDbEntity
  8
0
100
AcDbLine
 10
259.0000010092631
 20
300.7238142138356
 30
0.0
 11
259.0000010092631
 21
353.9738142138356
 31
0.0
  0
LINE
  5
851
330
1F
100
AcDbEntity
  8
0
100
AcDbLine
 10
264.0000010092629
 20
351.9738142138356
 30
0.0
 11
266.0000010092629
 21
351.9738142138356
 31
0.0
  0
LINE
  5
852
330
1F
100
AcDbEntity
  8
0
100
AcDbLine
 10
264.0000010092629
 20
181.9738142138358
 30
0.0
 11
264.0000010092629
 21
235.2238142138356
 31
0.0
  0
LINE
  5
853
330
1F
100
AcDbEntity
  8
0
100
AcDbLine
 10
266.0000010092629
 20
181.9738142138358
 30
0.0
 11
266.0000010092629
 21
235.2238142138356
 31
0.0
  0
LINE
  5
854
330
1F
100
AcDbEntity
  8
0
100
AcDbLine
 10
264.0000010092629
 20
300.7238142138356
 30
0.0
 11
266.0000010092629
 21
300.7238142138356
 31
0.0
  0
LINE
  5
855
330
1F
100
AcDbEntity
  8
0
100
AcDbLine
 10
264.0000010092629
 20
235.2238142138356
 30
0.0
 11
266.0000010092629
 21
235.2238142138356
 31
0.0
  0
LINE
  5
856
330
1F
100
AcDbEntity
  8
0
100
AcDbLine
 10
264.0000010092629
 20
183.9738142138358
 30
0.0
 11
266.0000010092629
 21
183.9738142138358
 31
0.0
  0
LINE
  5
857
330
1F
100
AcDbEntity
  8
0
100
AcDbLine
 10
264.0000010092629
 20
300.7238142138356
 30
0.0
 11
264.0000010092629
 21
353.9738142138356
 31
0.0
  0
LINE
  5
858
330
1F
100
AcDbEntity
  8
0
100
AcDbLine
 10
266.0000010092629
 20
300.7238142138356
 30
0.0
 11
266.0000010092629
 21
353.9738142138356
 31
0.0
  0
LINE
  5
859
330
1F
100
AcDbEntity
  8
0
100
AcDbLine
 10
194.000001009263
 20
329.4738142138356
 30
0.0
 11
196.0000010092629
 21
329.4738142138356
 31
0.0
  0
LINE
  5
85A
330
1F
100
AcDbEntity
  8
0
100
AcDbLine
 10
194.000001009263
 20
326.4738142138357
 30
0.0
 11
196.0000010092629
 21
326.4738142138357
 31
0.0
  0
LINE
  5
85B
330
1F
100
AcDbEntity
  8
0
100
AcDbLine
 10
194.000001009263
 20
209.4738142138356
 30
0.0
 11
196.0000010092629
 21
209.4738142138356
 31
0.0
  0
LINE
  5
85C
330
1F
100
AcDbEntity
  8
0
100
AcDbLine
 10
194.000001009263
 20
206.4738142138358
 30
0.0
 11
196.0000010092629
 21
206.4738142138358
 31
0.0
  0
LINE
  5
85D
330
1F
100
AcDbEntity
  8
0
100
AcDbLine
 10
201.000001009263
 20
329.4738142138356
 30
0.0
 11
203.000001009263
 21
329.4738142138356
 31
0.0
  0
LINE
  5
85E
330
1F
100
AcDbEntity
  8
0
100
AcDbLine
 10
201.000001009263
 20
326.4738142138357
 30
0.0
 11
203.000001009263
 21
326.4738142138357
 31
0.0
  0
LINE
  5
85F
330
1F
100
AcDbEntity
  8
0
100
AcDbLine
 10
201.000001009263
 20
209.4738142138356
 30
0.0
 11
203.000001009263
 21
209.4738142138356
 31
0.0
  0
LINE
  5
860
330
1F
100
AcDbEntity
  8
0
100
AcDbLine
 10
201.000001009263
 20
206.4738142138358
 30
0.0
 11
203.000001009263
 21
206.4738142138358
 31
0.0
  0
LINE
  5
861
330
1F
100
AcDbEntity
  8
0
100
AcDbLine
 10
208.0000010092629
 20
329.4738142138356
 30
0.0
 11
210.0000010092629
 21
329.4738142138356
 31
0.0
  0
LINE
  5
862
330
1F
100
AcDbEntity
  8
0
100
AcDbLine
 10
208.0000010092629
 20
326.4738142138357
 30
0.0
 11
210.0000010092629
 21
326.4738142138357
 31
0.0
  0
LINE
  5
863
330
1F
100
AcDbEntity
  8
0
100
AcDbLine
 10
208.0000010092629
 20
209.4738142138356
 30
0.0
 11
210.0000010092629
 21
209.4738142138356
 31
0.0
  0
LINE
  5
864
330
1F
100
AcDbEntity
  8
0
100
AcDbLine
 10
208.0000010092629
 20
206.4738142138358
 30
0.0
 11
210.0000010092629
 21
206.4738142138358
 31
0.0
  0
LINE
  5
865
330
1F
100
AcDbEntity
  8
0
100
AcDbLine
 10
215.0000010092631
 20
329.4738142138356
 30
0.0
 11
217.0000010092631
 21
329.4738142138356
 31
0.0
  0
LINE
  5
866
330
1F
100
AcDbEntity
  8
0
100
AcDbLine
 10
215.0000010092631
 20
326.4738142138357
 30
0.0
 11
217.0000010092631
 21
326.4738142138357
 31
0.0
  0
LINE
  5
867
330
1F
100
AcDbEntity
  8
0
100
AcDbLine
 10
215.0000010092631
 20
209.4738142138356
 30
0.0
 11
217.0000010092631
 21
209.4738142138356
 31
0.0
  0
LINE
  5
868
330
1F
100
AcDbEntity
  8
0
100
AcDbLine
 10
215.0000010092631
 20
206.4738142138358
 30
0.0
 11
217.0000010092631
 21
206.4738142138358
 31
0.0
  0
LINE
  5
869
330
1F
100
AcDbEntity
  8
0
100
AcDbLine
 10
222.000001009263
 20
329.4738142138356
 30
0.0
 11
224.000001009263
 21
329.4738142138356
 31
0.0
  0
LINE
  5
86A
330
1F
100
AcDbEntity
  8
0
100
AcDbLine
 10
222.000001009263
 20
326.4738142138357
 30
0.0
 11
224.000001009263
 21
326.4738142138357
 31
0.0
  0
LINE
  5
86B
330
1F
100
AcDbEntity
  8
0
100
AcDbLine
 10
222.000001009263
 20
209.4738142138356
 30
0.0
 11
224.000001009263
 21
209.4738142138356
 31
0.0
  0
LINE
  5
86C
330
1F
100
AcDbEntity
  8
0
100
AcDbLine
 10
222.000001009263
 20
206.4738142138358
 30
0.0
 11
224.000001009263
 21
206.4738142138358
 31
0.0
  0
LINE
  5
86D
330
1F
100
AcDbEntity
  8
0
100
AcDbLine
 10
229.0000010092629
 20
329.4738142138356
 30
0.0
 11
231.0000010092629
 21
329.4738142138356
 31
0.0
  0
LINE
  5
86E
330
1F
100
AcDbEntity
  8
0
100
AcDbLine
 10
229.0000010092629
 20
326.4738142138357
 30
0.0
 11
231.0000010092629
 21
326.4738142138357
 31
0.0
  0
LINE
  5
86F
330
1F
100
AcDbEntity
  8
0
100
AcDbLine
 10
229.0000010092629
 20
209.4738142138356
 30
0.0
 11
231.0000010092629
 21
209.4738142138356
 31
0.0
  0
LINE
  5
870
330
1F
100
AcDbEntity
  8
0
100
AcDbLine
 10
229.0000010092629
 20
206.4738142138358
 30
0.0
 11
231.0000010092629
 21
206.4738142138358
 31
0.0
  0
LINE
  5
871
330
1F
100
AcDbEntity
  8
0
100
AcDbLine
 10
236.0000010092631
 20
329.4738142138356
 30
0.0
 11
238.0000010092631
 21
329.4738142138356
 31
0.0
  0
LINE
  5
872
330
1F
100
AcDbEntity
  8
0
100
AcDbLine
 10
236.0000010092631
 20
326.4738142138357
 30
0.0
 11
238.0000010092631
 21
326.4738142138357
 31
0.0
  0
LINE
  5
873
330
1F
100
AcDbEntity
  8
0
100
AcDbLine
 10
236.0000010092631
 20
209.4738142138356
 30
0.0
 11
238.0000010092631
 21
209.4738142138356
 31
0.0
  0
LINE
  5
874
330
1F
100
AcDbEntity
  8
0
100
AcDbLine
 10
236.0000010092631
 20
206.4738142138358
 30
0.0
 11
238.0000010092631
 21
206.4738142138358
 31
0.0
  0
LINE
  5
875
330
1F
100
AcDbEntity
  8
0
100
AcDbLine
 10
243.000001009263
 20
329.4738142138356
 30
0.0
 11
245.000001009263
 21
329.4738142138356
 31
0.0
  0
LINE
  5
876
330
1F
100
AcDbEntity
  8
0
100
AcDbLine
 10
243.000001009263
 20
326.4738142138357
 30
0.0
 11
245.000001009263
 21
326.4738142138357
 31
0.0
  0
LINE
  5
877
330
1F
100
AcDbEntity
  8
0
100
AcDbLine
 10
243.000001009263
 20
209.4738142138356
 30
0.0
 11
245.000001009263
 21
209.4738142138356
 31
0.0
  0
LINE
  5
878
330
1F
100
AcDbEntity
  8
0
100
AcDbLine
 10
243.000001009263
 20
206.4738142138358
 30
0.0
 11
245.000001009263
 21
206.4738142138358
 31
0.0
  0
LINE
  5
879
330
1F
100
AcDbEntity
  8
0
100
AcDbLine
 10
250.000001009263
 20
329.4738142138356
 30
0.0
 11
252.0000010092629
 21
329.4738142138356
 31
0.0
  0
LINE
  5
87A
330
1F
100
AcDbEntity
  8
0
100
AcDbLine
 10
250.000001009263
 20
326.4738142138357
 30
0.0
 11
252.0000010092629
 21
326.4738142138357
 31
0.0
  0
LINE
  5
87B
330
1F
100
AcDbEntity
  8
0
100
AcDbLine
 10
250.000001009263
 20
209.4738142138356
 30
0.0
 11
252.0000010092629
 21
209.4738142138356
 31
0.0
  0
LINE
  5
87C
330
1F
100
AcDbEntity
  8
0
100
AcDbLine
 10
250.000001009263
 20
206.4738142138358
 30
0.0
 11
252.0000010092629
 21
206.4738142138358
 31
0.0
  0
LINE
  5
87D
330
1F
100
AcDbEntity
  8
0
100
AcDbLine
 10
257.0000010092631
 20
329.4738142138356
 30
0.0
 11
259.0000010092631
 21
329.4738142138356
 31
0.0
  0
LINE
  5
87E
330
1F
100
AcDbEntity
  8
0
100
AcDbLine
 10
257.0000010092631
 20
326.4738142138357
 30
0.0
 11
259.0000010092631
 21
326.4738142138357
 31
0.0
  0
LINE
  5
87F
330
1F
100
AcDbEntity
  8
0
100
AcDbLine
 10
257.0000010092631
 20
209.4738142138356
 30
0.0
 11
259.0000010092631
 21
209.4738142138356
 31
0.0
  0
LINE
  5
880
330
1F
100
AcDbEntity
  8
0
100
AcDbLine
 10
257.0000010092631
 20
206.4738142138358
 30
0.0
 11
259.0000010092631
 21
206.4738142138358
 31
0.0
  0
LINE
  5
881
330
1F
100
AcDbEntity
  8
0
100
AcDbLine
 10
264.0000010092629
 20
329.4738142138356
 30
0.0
 11
266.0000010092629
 21
329.4738142138356
 31
0.0
  0
LINE
  5
882
330
1F
100
AcDbEntity
  8
0
100
AcDbLine
 10
264.0000010092629
 20
326.4738142138357
 30
0.0
 11
266.0000010092629
 21
326.4738142138357
 31
0.0
  0
LINE
  5
883
330
1F
100
AcDbEntity
  8
0
100
AcDbLine
 10
264.0000010092629
 20
209.4738142138356
 30
0.0
 11
266.0000010092629
 21
209.4738142138356
 31
0.0
  0
LINE
  5
884
330
1F
100
AcDbEntity
  8
0
100
AcDbLine
 10
264.0000010092629
 20
206.4738142138358
 30
0.0
 11
266.0000010092629
 21
206.4738142138358
 31
0.0
  0
LINE
  5
885
330
1F
100
AcDbEntity
  8
0
100
AcDbLine
 10
244.0000010092631
 20
181.9738142138358
 30
0.0
 11
244.000001009262
 21
181.4738142138356
 31
0.0
  0
LINE
  5
886
330
1F
100
AcDbEntity
  8
0
100
AcDbLine
 10
189.0000010092629
 20
181.4738142138356
 30
0.0
 11
244.0000010092631
 21
181.4738142138356
 31
0.0
  0
LINE
  5
887
330
1F
100
AcDbEntity
  8
0
100
AcDbLine
 10
289.3878548524298
 20
180.9738142138358
 30
0.0
 11
289.387854852431
 21
354.9738142138356
 31
0.0
  0
LINE
  5
888
330
1F
100
AcDbEntity
  8
0
100
AcDbLine
 10
168.6000010092632
 20
221.673814947526
 30
0.0
 11
168.6000010092632
 21
201.473814947526
 31
0.0
  0
LINE
  5
889
330
1F
100
AcDbEntity
  8
0
100
AcDbLine
 10
169.5000010092631
 20
197.973814947526
 30
0.0
 11
169.000001009263
 21
198.473814947526
 31
0.0
  0
LINE
  5
88A
330
1F
100
AcDbEntity
  8
0
100
AcDbLine
 10
169.0000010092632
 20
199.373814947526
 30
0.0
 11
169.000001009263
 21
198.473814947526
 31
0.0
  0
LINE
  5
88B
330
1F
100
AcDbEntity
  8
0
100
AcDbLine
 10
170.3000010092631
 20
197.973814947526
 30
0.0
 11
169.5000010092631
 21
197.973814947526
 31
0.0
  0
ARC
  5
88C
330
1F
100
AcDbEntity
  8
0
100
AcDbCircle
 10
170.000001009263
 20
199.373814947526
 30
0.0
 40
1.0
100
AcDbArc
 50
90.0
 51
180.0
  0
LINE
  5
88D
330
1F
100
AcDbEntity
  8
0
100
AcDbLine
 10
172.000001009263
 20
200.373814947526
 30
0.0
 11
170.000001009263
 21
200.373814947526
 31
0.0
  0
LINE
  5
88E
330
1F
100
AcDbEntity
  8
0
100
AcDbLine
 10
172.000001009263
 20
199.1738149475261
 30
0.0
 11
170.3000010092631
 21
199.1738149475261
 31
0.0
  0
LINE
  5
88F
330
1F
100
AcDbEntity
  8
0
100
AcDbLine
 10
172.000001009263
 20
201.473814947526
 30
0.0
 11
168.6000010092632
 21
201.473814947526
 31
0.0
  0
LINE
  5
890
330
1F
100
AcDbEntity
  8
0
100
AcDbLine
 10
170.3000010092631
 20
197.973814947526
 30
0.0
 11
170.3000010092631
 21
199.1738149475261
 31
0.0
  0
LINE
  5
891
330
1F
100
AcDbEntity
  8
0
100
AcDbLine
 10
169.5000010092633
 20
225.1738149475261
 30
0.0
 11
169.0000010092633
 21
224.6738149475261
 31
0.0
  0
LINE
  5
892
330
1F
100
AcDbEntity
  8
0
100
AcDbLine
 10
169.0000010092633
 20
224.6738149475261
 30
0.0
 11
169.0000010092633
 21
223.7738149475259
 31
0.0
  0
LINE
  5
893
330
1F
100
AcDbEntity
  8
0
100
AcDbLine
 10
170.3000010092631
 20
225.1738149475261
 30
0.0
 11
169.5000010092633
 21
225.1738149475261
 31
0.0
  0
ARC
  5
894
330
1F
100
AcDbEntity
  8
0
100
AcDbCircle
 10
170.0000010092633
 20
223.7738149475259
 30
0.0
 40
1.0
100
AcDbArc
 50
180.0
 51
270.0
  0
LINE
  5
895
330
1F
100
AcDbEntity
  8
0
100
AcDbLine
 10
172.000001009263
 20
222.7738149475261
 30
0.0
 11
170.0000010092633
 21
222.7738149475261
 31
0.0
  0
LINE
  5
896
330
1F
100
AcDbEntity
  8
0
100
AcDbLine
 10
168.6000010092632
 20
221.673814947526
 30
0.0
 11
172.000001009263
 21
221.673814947526
 31
0.0
  0
LINE
  5
897
330
1F
100
AcDbEntity
  8
0
100
AcDbLine
 10
172.000001009263
 20
223.9738149475261
 30
0.0
 11
170.3000010092631
 21
223.9738149475261
 31
0.0
  0
LINE
  5
898
330
1F
100
AcDbEntity
  8
0
100
AcDbLine
 10
170.3000010092631
 20
223.9738149475261
 30
0.0
 11
170.3000010092631
 21
225.1738149475261
 31
0.0
  0
LINE
  5
899
330
1F
100
AcDbEntity
  8
0
100
AcDbLine
 10
172.000001009263
 20
185.973814947526
 30
0.0
 11
169.5000010092629
 21
185.973814947526
 31
0.0
  0
LINE
  5
89A
330
1F
100
AcDbEntity
  8
0
100
AcDbLine
 10
169.5000010092629
 20
185.973814947526
 30
0.0
 11
169.5000010092629
 21
191.473814947526
 31
0.0
  0
LINE
  5
89B
330
1F
100
AcDbEntity
  8
0
100
AcDbLine
 10
169.5000010092629
 20
191.473814947526
 30
0.0
 11
172.000001009263
 21
191.473814947526
 31
0.0
  0
LINE
  5
89C
330
1F
100
AcDbEntity
  8
0
100
AcDbLine
 10
172.000001009263
 20
226.6138142138359
 30
0.0
 11
171.0000010092629
 21
226.6138142138359
 31
0.0
  0
LINE
  5
89D
330
1F
100
AcDbEntity
  8
0
100
AcDbLine
 10
171.0000010092629
 20
226.6138142138359
 30
0.0
 11
171.0000010092629
 21
223.9738149475261
 31
0.0
  0
LINE
  5
89E
330
1F
100
AcDbEntity
  8
0
100
AcDbLine
 10
165.400001009263
 20
276.9738142138356
 30
0.0
 11
172.000001009263
 21
276.9738142138356
 31
0.0
  0
LINE
  5
89F
330
1F
100
AcDbEntity
  8
0
100
AcDbLine
 10
172.000001009263
 20
301.1338142138356
 30
0.0
 11
165.400001009263
 21
301.1338142138356
 31
0.0
  0
LINE
  5
8A0
330
1F
100
AcDbEntity
  8
0
100
AcDbLine
 10
165.400001009263
 20
301.1338142138356
 30
0.0
 11
165.400001009263
 21
276.9738142138356
 31
0.0
  0
LINE
  5
8A1
330
1F
100
AcDbEntity
  8
0
100
AcDbLine
 10
166.7000010092628
 20
235.8138142138358
 30
0.0
 11
166.7000010092628
 21
264.2738142138358
 31
0.0
  0
LINE
  5
8A2
330
1F
100
AcDbEntity
  8
0
100
AcDbLine
 10
166.7000010092628
 20
239.9238142138358
 30
0.0
 11
171.0000010092629
 21
239.9238142138358
 31
0.0
  0
LINE
  5
8A3
330
1F
100
AcDbEntity
  8
0
100
AcDbLine
 10
171.0000010092629
 20
235.8138142138358
 30
0.0
 11
166.7000010092628
 21
235.8138142138358
 31
0.0
  0
LINE
  5
8A4
330
1F
100
AcDbEntity
  8
0
100
AcDbLine
 10
166.7000010092628
 20
260.1638142138358
 30
0.0
 11
172.000001009263
 21
260.1638142138358
 31
0.0
  0
LINE
  5
8A5
330
1F
100
AcDbEntity
  8
0
100
AcDbLine
 10
166.7000010092628
 20
255.1638142138358
 30
0.0
 11
172.000001009263
 21
255.1638142138358
 31
0.0
  0
LINE
  5
8A6
330
1F
100
AcDbEntity
  8
0
100
AcDbLine
 10
166.7000010092628
 20
247.5438142138358
 30
0.0
 11
172.000001009263
 21
247.5438142138358
 31
0.0
  0
LINE
  5
8A7
330
1F
100
AcDbEntity
  8
0
100
AcDbLine
 10
166.7000010092628
 20
252.5438142138358
 30
0.0
 11
172.000001009263
 21
252.5438142138358
 31
0.0
  0
LINE
  5
8A8
330
1F
100
AcDbEntity
  8
0
100
AcDbLine
 10
166.7000010092628
 20
244.9238142138358
 30
0.0
 11
171.2000010092633
 21
244.9238142138358
 31
0.0
  0
LINE
  5
8A9
330
1F
100
AcDbEntity
  8
0
100
AcDbLine
 10
171.2000010092633
 20
264.2738142138358
 30
0.0
 11
166.7000010092628
 21
264.2738142138358
 31
0.0
  0
LINE
  5
8AA
330
1F
100
AcDbEntity
  8
0
100
AcDbLine
 10
215.0000010092631
 20
351.9738142138356
 30
0.0
 11
217.0000010092631
 21
351.9738142138356
 31
0.0
  0
LINE
  5
8AB
330
1F
100
AcDbEntity
  8
0
100
AcDbLine
 10
288.0000010092621
 20
354.9738142138356
 30
0.0
 11
288.0000010092621
 21
364.9738142138356
 31
0.0
  0
LINE
  5
8AC
330
1F
100
AcDbEntity
  8
0
100
AcDbLine
 10
172.000001009263
 20
180.9738142138358
 30
0.0
 11
289.387854852431
 21
180.9738142138358
 31
0.0
  0
LINE
  5
8B4
330
1F
100
AcDbEntity
  8
0
100
AcDbLine
 10
171.0000010092629
 20
222.7738149475261
 30
0.0
 11
171.0000010092629
 21
221.673814947526
 31
0.0
  0
LINE
  5
8B5
330
1F
100
AcDbEntity
  8
0
100
AcDbLine
 10
171.0000010092629
 20
201.473814947526
 30
0.0
 11
171.0000010092629
 21
200.373814947526
 31
0.0
  0
LINE
  5
8B6
330
1F
100
AcDbEntity
  8
0
100
AcDbLine
 10
171.0000010092629
 20
199.1738149475261
 30
0.0
 11
171.0000010092629
 21
191.473814947526
 31
0.0
  0
LINE
  5
8B7
330
1F
100
AcDbEntity
  8
0
100
AcDbLine
 10
172.000001009263
 20
322.4138142138358
 30
0.0
 11
170.9956390684116
 21
322.4138142138358
 31
0.0
  0
LINE
  5
8B8
330
1F
100
AcDbEntity
  8
0
100
AcDbLine
 10
172.000001009263
 20
233.1738149475261
 30
0.0
 11
171.0000010092629
 21
233.1738149475261
 31
0.0
  0
LINE
  5
8B9
330
1F
100
AcDbEntity
  8
0
100
AcDbLine
 10
171.0000010092629
 20
233.1738149475261
 30
0.0
 11
171.0000010092629
 21
241.5738149475261
 31
0.0
  0
LINE
  5
8BA
330
1F
100
AcDbEntity
  8
0
100
AcDbLine
 10
171.0000010092629
 20
241.5738149475261
 30
0.0
 11
172.000001009263
 21
241.5738149475261
 31
0.0
  0
LINE
  5
8BB
330
1F
100
AcDbEntity
  8
0
100
AcDbLine
 10
172.000001009263
 20
243.073814947526
 30
0.0
 11
171.2000010092633
 21
243.073814947526
 31
0.0
  0
LINE
  5
8BC
330
1F
100
AcDbEntity
  8
0
100
AcDbLine
 10
171.2000010092633
 20
243.073814947526
 30
0.0
 11
171.2000010092633
 21
246.0738149475261
 31
0.0
  0
LINE
  5
8BD
330
1F
100
AcDbEntity
  8
0
100
AcDbLine
 10
171.2000010092633
 20
246.0738149475261
 30
0.0
 11
172.000001009263
 21
246.0738149475261
 31
0.0
  0
LINE
  5
8BE
330
1F
100
AcDbEntity
  8
0
100
AcDbLine
 10
172.000001009263
 20
263.0738149475261
 30
0.0
 11
171.2000010092633
 21
263.0738149475261
 31
0.0
  0
LINE
  5
8BF
330
1F
100
AcDbEntity
  8
0
100
AcDbLine
 10
171.2000010092633
 20
263.0738149475261
 30
0.0
 11
171.2000010092633
 21
266.0738149475258
 31
0.0
  0
LINE
  5
8C0
330
1F
100
AcDbEntity
  8
0
100
AcDbLine
 10
171.2000010092633
 20
266.0738149475258
 30
0.0
 11
172.000001009263
 21
266.0738149475258
 31
0.0
  0
LINE
  5
8C1
330
1F
100
AcDbEntity
  8
0
  6
CONTINUOUS
100
AcDbLine
 10
170.9956390684116
 20
322.4138142138358
 30
0.0
 11
170.9956390684116
 21
307.0138142138357
 31
0.0
  0
LINE
  5
8C2
330
1F
100
AcDbEntity
  8
0
  6
CONTINUOUS
100
AcDbLine
 10
170.9956390684116
 20
307.0138142138357
 30
0.0
 11
172.000001009263
 21
307.0138142138357
 31
0.0
  0
LINE
  5
8C8
330
1F
100
AcDbEntity
  8
0
100
AcDbLine
 10
18.00000100926319
 20
5.000000135404318
 30
0.0
 11
72.0000010092632
 21
3.585960370667292
 31
0.0
  0
LINE
  5
8C9
330
1F
100
AcDbEntity
  8
0
100
AcDbLine
 10
72.0000010092632
 20
3.585960370667292
 30
0.0
 11
19.00000100926319
 21
4.973814213835336
 31
0.0
  0
LINE
  5
8CB
330
1F
100
AcDbEntity
  8
0
100
AcDbLine
 10
30.0000010092632
 20
21.97381421383532
 30
0.0
 11
72.0000010092632
 21
21.97381421383532
 31
0.0
  0
LINE
  5
8CC
330
1F
100
AcDbEntity
  8
0
100
AcDbLine
 10
71.0000010092632
 20
42.97381421383533
 30
0.0
 11
30.0000010092632
 21
42.97381421383533
 31
0.0
  0
LINE
  5
8CD
330
1F
100
AcDbEntity
  8
0
100
AcDbLine
 10
71.0000010092632
 20
40.97381421383532
 30
0.0
 11
30.0000010092632
 21
40.97381421383532
 31
0.0
  0
LINE
  5
8CE
330
1F
100
AcDbEntity
  8
0
100
AcDbLine
 10
71.0000010092632
 20
35.97381421383532
 30
0.0
 11
30.0000010092632
 21
35.97381421383532
 31
0.0
  0
LINE
  5
8CF
330
1F
100
AcDbEntity
  8
0
100
AcDbLine
 10
71.0000010092632
 20
33.97381421383534
 30
0.0
 11
30.0000010092632
 21
33.97381421383534
 31
0.0
  0
LINE
  5
8D0
330
1F
100
AcDbEntity
  8
0
100
AcDbLine
 10
71.0000010092632
 20
28.97381421383533
 30
0.0
 11
30.0000010092632
 21
28.97381421383533
 31
0.0
  0
LINE
  5
8D1
330
1F
100
AcDbEntity
  8
0
100
AcDbLine
 10
71.0000010092632
 20
26.97381421383532
 30
0.0
 11
30.0000010092632
 21
26.97381421383532
 31
0.0
  0
LINE
  5
8D2
330
1F
100
AcDbEntity
  8
0
100
AcDbLine
 10
20.00000100926319
 20
120.9738142138353
 30
0.0
 11
72.0000010092632
 21
120.9738142138353
 31
0.0
  0
LINE
  5
8D4
330
1F
100
AcDbEntity
  8
0
100
AcDbLine
 10
0.000001009263201
 20
0.0000001354043349
 30
0.0
 11
72.0000010092632
 21
0.0000001354043206
 31
0.0
  0
LINE
  5
8D5
330
1F
100
AcDbEntity
  8
0
100
AcDbLine
 10
0.000001009263201
 20
79.00000013540434
 30
0.0
 11
0.000001009263201
 21
54.00000013540432
 31
0.0
  0
LINE
  5
8D7
330
1F
100
AcDbEntity
  8
0
100
AcDbLine
 10
19.00000100926319
 20
71.0000001354043
 30
0.0
 11
19.00000100926319
 21
33.00000013540429
 31
0.0
  0
LINE
  5
8D8
330
1F
100
AcDbEntity
  8
0
100
AcDbLine
 10
20.00000100926319
 20
32.9738142138363
 30
0.0
 11
20.00000100926319
 21
70.97381421383534
 31
0.0
  0
LINE
  5
8D9
330
1F
100
AcDbEntity
  8
0
100
AcDbLine
 10
30.0000010092632
 20
103.973814213835
 30
0.0
 11
30.0000010092632
 21
21.97381421383532
 31
0.0
  0
ARC
  5
8DA
330
1F
100
AcDbEntity
  8
0
100
AcDbCircle
 10
1.0000010092632
 20
56.05154090835629
 30
0.0
 40
1.0
100
AcDbArc
 50
93.030476845861
 51
180.0
  0
LINE
  5
8DB
330
1F
100
AcDbEntity
  8
0
100
AcDbLine
 10
18.00000100926319
 20
5.000000135404318
 30
0.0
 11
0.000001009263201
 21
4.528653547158356
 31
0.0
  0
LINE
  5
8DC
330
1F
100
AcDbEntity
  8
0
100
AcDbLine
 10
0.000001009263201
 20
21.17551785204635
 30
0.0
 11
0.000001009263201
 21
0.0000001354043349
 31
0.0
  0
LINE
  5
8DD
330
1F
100
AcDbEntity
  8
0
100
AcDbLine
 10
0.1464476186698675
 20
53.64644674481104
 30
0.0
 11
4.000001009263201
 21
52.00000013540432
 31
0.0
  0
LINE
  5
8DE
330
1F
100
AcDbEntity
  8
0
100
AcDbLine
 10
0.4738330311421353
 20
21.67483261942437
 30
0.0
 11
11.57850494362821
 21
22.25680381402433
 31
0.0
  0
LINE
  5
8DF
330
1F
100
AcDbEntity
  8
0
100
AcDbLine
 10
0.94713386812316
 20
29.05014246322537
 30
0.0
 11
11.57930172097427
 21
29.61302193778829
 31
0.0
  0
LINE
  5
8E0
330
1F
100
AcDbEntity
  8
0
100
AcDbLine
 10
0.94713386812316
 20
26.94985780758237
 30
0.0
 11
11.57930172097427
 21
26.38697833301931
 31
0.0
  0
LINE
  5
8E1
330
1F
100
AcDbEntity
  8
0
100
AcDbLine
 10
0.94713386812316
 20
54.94985780758236
 30
0.0
 11
11.57930172097427
 21
54.38697833301933
 31
0.0
  0
LINE
  5
8E2
330
1F
100
AcDbEntity
  8
0
100
AcDbLine
 10
0.94713386812316
 20
50.05014246322535
 30
0.0
 11
11.57930172097427
 21
50.61302193778828
 31
0.0
  0
LINE
  5
8E3
330
1F
100
AcDbEntity
  8
0
100
AcDbLine
 10
0.94713386812316
 20
47.94985780758236
 30
0.0
 11
11.57930172097427
 21
47.38697833301933
 31
0.0
  0
LINE
  5
8E4
330
1F
100
AcDbEntity
  8
0
100
AcDbLine
 10
0.94713386812316
 20
43.05014246322535
 30
0.0
 11
11.57930172097427
 21
43.61302193778827
 31
0.0
  0
LINE
  5
8E5
330
1F
100
AcDbEntity
  8
0
100
AcDbLine
 10
0.94713386812316
 20
40.94985780758237
 30
0.0
 11
11.57930172097427
 21
40.38697833301933
 31
0.0
  0
LINE
  5
8E6
330
1F
100
AcDbEntity
  8
0
100
AcDbLine
 10
0.94713386812316
 20
36.05014246322534
 30
0.0
 11
11.57930172097427
 21
36.61302193778829
 31
0.0
  0
LINE
  5
8E7
330
1F
100
AcDbEntity
  8
0
100
AcDbLine
 10
0.94713386812316
 20
33.94985780758236
 30
0.0
 11
11.57930172097427
 21
33.38697833301933
 31
0.0
  0
POINT
  5
8E8
330
1F
100
AcDbEntity
  8
0
100
AcDbPoint
 10
0.000001009263201
 20
21.65000013540431
 30
0.0
  0
ARC
  5
8E9
330
1F
100
AcDbEntity
  8
0
100
AcDbCircle
 10
0.5000010092632011
 20
21.17551785204635
 30
0.0
 40
0.5
100
AcDbArc
 50
92.9999999999991
 51
180.0
  0
LINE
  5
8EA
330
1F
100
AcDbEntity
  8
0
100
AcDbLine
 10
0.000001009263201
 20
28.0515409083563
 30
0.0
 11
0.000001009263201
 21
27.94845936245133
 31
0.0
  0
ARC
  5
8EB
330
1F
100
AcDbEntity
  8
0
100
AcDbCircle
 10
1.0000010092632
 20
28.0515409083563
 30
0.0
 40
1.0
100
AcDbArc
 50
93.030476845861
 51
180.0
  0
ARC
  5
8EC
330
1F
100
AcDbEntity
  8
0
100
AcDbCircle
 10
1.0000010092632
 20
27.94845936245133
 30
0.0
 40
1.0
100
AcDbArc
 50
180.0
 51
266.9695231541389
  0
LINE
  5
8ED
330
1F
100
AcDbEntity
  8
0
100
AcDbLine
 10
0.000001009263201
 20
35.05154090835628
 30
0.0
 11
0.000001009263201
 21
34.9484593624513
 31
0.0
  0
ARC
  5
8EE
330
1F
100
AcDbEntity
  8
0
100
AcDbCircle
 10
1.0000010092632
 20
35.05154090835628
 30
0.0
 40
1.0
100
AcDbArc
 50
93.030476845861
 51
180.0
  0
ARC
  5
8EF
330
1F
100
AcDbEntity
  8
0
100
AcDbCircle
 10
1.0000010092632
 20
34.94845936245134
 30
0.0
 40
1.0
100
AcDbArc
 50
180.0
 51
266.9695231541389
  0
ARC
  5
8F0
330
1F
100
AcDbEntity
  8
0
100
AcDbCircle
 10
0.5000010092632011
 20
54.00000013540432
 30
0.0
 40
0.5
100
AcDbArc
 50
180.0
 51
224.9999999999904
  0
LINE
  5
8F1
330
1F
100
AcDbEntity
  8
0
100
AcDbLine
 10
0.000001009263201
 20
42.05154090835629
 30
0.0
 11
0.000001009263201
 21
41.94845936245132
 31
0.0
  0
ARC
  5
8F2
330
1F
100
AcDbEntity
  8
0
100
AcDbCircle
 10
1.0000010092632
 20
42.05154090835629
 30
0.0
 40
1.0
100
AcDbArc
 50
93.030476845861
 51
180.0
  0
ARC
  5
8F3
330
1F
100
AcDbEntity
  8
0
100
AcDbCircle
 10
1.0000010092632
 20
41.94845936245132
 30
0.0
 40
1.0
100
AcDbArc
 50
180.0
 51
266.9695231541389
  0
LINE
  5
8F4
330
1F
100
AcDbEntity
  8
0
100
AcDbLine
 10
0.000001009263201
 20
56.05154090835629
 30
0.0
 11
0.000001009263201
 21
55.94845936245135
 31
0.0
  0
ARC
  5
8F5
330
1F
100
AcDbEntity
  8
0
100
AcDbCircle
 10
1.0000010092632
 20
55.94845936245135
 30
0.0
 40
1.0
100
AcDbArc
 50
180.0
 51
266.9695231541389
  0
LINE
  5
8F6
330
1F
100
AcDbEntity
  8
0
100
AcDbLine
 10
0.000001009263201
 20
49.05154090835629
 30
0.0
 11
0.000001009263201
 21
48.94845936245133
 31
0.0
  0
ARC
  5
8F7
330
1F
100
AcDbEntity
  8
0
100
AcDbCircle
 10
1.0000010092632
 20
49.05154090835629
 30
0.0
 40
1.0
100
AcDbArc
 50
93.030476845861
 51
180.0
  0
ARC
  5
8F8
330
1F
100
AcDbEntity
  8
0
100
AcDbCircle
 10
1.0000010092632
 20
48.94845936245133
 30
0.0
 40
1.0
100
AcDbArc
 50
180.0
 51
266.9695231541389
  0
ARC
  5
8F9
330
1F
100
AcDbEntity
  8
0
100
AcDbCircle
 10
11.50000100926318
 20
38.11092427009239
 30
0.0
 40
1.5
100
AcDbArc
 50
273.030476845861
 51
0.0
  0
LINE
  5
8FA
330
1F
100
AcDbEntity
  8
0
100
AcDbLine
 10
13.0000010092632
 20
31.88907600071535
 30
0.0
 11
13.0000010092632
 21
31.11092427009236
 31
0.0
  0
ARC
  5
8FB
330
1F
100
AcDbEntity
  8
0
100
AcDbCircle
 10
11.50000100926318
 20
31.11092427009236
 30
0.0
 40
1.5
100
AcDbArc
 50
273.030476845861
 51
0.0
  0
LINE
  5
8FC
330
1F
100
AcDbEntity
  8
0
100
AcDbLine
 10
13.0000010092632
 20
24.88907600071536
 30
0.0
 11
13.0000010092632
 21
23.75474811615628
 31
0.0
  0
ARC
  5
8FD
330
1F
100
AcDbEntity
  8
0
100
AcDbCircle
 10
11.50000100926318
 20
24.88907600071537
 30
0.0
 40
1.5
100
AcDbArc
 50
0.0
 51
86.96952315413897
  0
ARC
  5
8FE
330
1F
100
AcDbEntity
  8
0
100
AcDbCircle
 10
11.50000100926318
 20
23.75474811615628
 30
0.0
 40
1.5
100
AcDbArc
 50
273.0000000000056
 51
0.0
  0
ARC
  5
8FF
330
1F
100
AcDbEntity
  8
0
100
AcDbCircle
 10
11.50000100926318
 20
31.88907600071537
 30
0.0
 40
1.5
100
AcDbArc
 50
0.0
 51
86.96952315413897
  0
LINE
  5
900
330
1F
100
AcDbEntity
  8
0
  6
CONTINUOUS
100
AcDbLine
 10
6.000001009263199
 20
46.50000013540432
 30
0.0
 11
12.8699541842493
 21
46.50000013540432
 31
0.0
  0
LINE
  5
901
330
1F
100
AcDbEntity
  8
0
  6
CONTINUOUS
100
AcDbLine
 10
4.000001009263086
 20
54.78823542952192
 30
0.0
 11
4.000001009263201
 21
54.00000013540432
 31
0.0
  0
LINE
  5
902
330
1F
100
AcDbEntity
  8
0
  6
CONTINUOUS
100
AcDbLine
 10
6.000001009263199
 20
54.68235307658066
 30
0.0
 11
6.000001009263199
 21
50.31764719422699
 31
0.0
  0
LINE
  5
903
330
1F
100
AcDbEntity
  8
0
100
AcDbLine
 10
2.000001009263198
 20
54.89411778246314
 30
0.0
 11
2.000001009263198
 21
54.85450839960846
 31
0.0
  0
LINE
  5
904
330
1F
100
AcDbEntity
  8
0
100
AcDbLine
 10
4.000001009263201
 20
47.78823542952192
 30
0.0
 11
4.000001009263201
 21
47.00000013540432
 31
0.0
  0
LINE
  5
905
330
1F
100
AcDbEntity
  8
0
100
AcDbLine
 10
6.000001009263199
 20
50.31764719422699
 30
0.0
 11
6.000001009263199
 21
54.00000013540432
 31
0.0
  0
LINE
  5
906
330
1F
100
AcDbEntity
  8
0
  6
CONTINUOUS
100
AcDbLine
 10
6.000001009263199
 20
47.68235307658065
 30
0.0
 11
6.000001009263199
 21
46.50000013540432
 31
0.0
  0
LINE
  5
907
330
1F
100
AcDbEntity
  8
0
100
AcDbLine
 10
2.000001009263198
 20
52.8545083996084
 30
0.0
 11
2.000001009263198
 21
52.00000013540432
 31
0.0
  0
LINE
  5
908
330
1F
100
AcDbEntity
  8
0
100
AcDbLine
 10
2.000001009263198
 20
54.85450839960846
 30
0.0
 11
4.000001009263201
 21
54.00000013540432
 31
0.0
  0
LINE
  5
909
330
1F
100
AcDbEntity
  8
0
100
AcDbLine
 10
2.000001009263198
 20
54.8545083996084
 30
0.0
 11
2.000001009263198
 21
54.89411778246314
 31
0.0
  0
ARC
  5
90A
330
1F
100
AcDbEntity
  8
0
100
AcDbCircle
 10
2.5000010092632
 20
52.00000013540432
 30
0.0
 40
0.5
100
AcDbArc
 50
180.0
 51
270.0
  0
ARC
  5
90B
330
1F
100
AcDbEntity
  8
0
100
AcDbCircle
 10
3.5000010092632
 20
52.00000013540432
 30
0.0
 40
0.5
100
AcDbArc
 50
270.0
 51
0.0
  0
LINE
  5
90C
330
1F
100
AcDbEntity
  8
0
100
AcDbLine
 10
2.5000010092632
 20
51.50000013540432
 30
0.0
 11
3.5000010092632
 21
51.50000013540432
 31
0.0
  0
ARC
  5
90D
330
1F
100
AcDbEntity
  8
0
100
AcDbCircle
 10
4.5000010092632
 20
47.00000013540432
 30
0.0
 40
0.5
100
AcDbArc
 50
180.0
 51
270.0
  0
ARC
  5
90E
330
1F
100
AcDbEntity
  8
0
100
AcDbCircle
 10
5.500001009263422
 20
47.00000013540432
 30
0.0
 40
0.5
100
AcDbArc
 50
270.0
 51
0.0
  0
ARC
  5
90F
330
1F
100
AcDbEntity
  8
0
100
AcDbCircle
 10
5.500001009263199
 20
54.00000013540432
 30
0.0
 40
0.5
100
AcDbArc
 50
0.0
 51
90.0
  0
ARC
  5
910
330
1F
100
AcDbEntity
  8
0
100
AcDbCircle
 10
4.5000010092632
 20
54.00000013540432
 30
0.0
 40
0.5
100
AcDbArc
 50
90.0
 51
180.0
  0
LINE
  5
911
330
1F
100
AcDbEntity
  8
0
100
AcDbLine
 10
4.000001009263201
 20
52.00000013540446
 30
0.0
 11
4.000001009263201
 21
50.21176484128578
 31
0.0
  0
LINE
  5
912
330
1F
100
AcDbEntity
  8
0
100
AcDbLine
 10
5.500001009263199
 20
54.50000013540432
 30
0.0
 11
4.5000010092632
 21
54.50000013540432
 31
0.0
  0
LINE
  5
913
330
1F
100
AcDbEntity
  8
0
100
AcDbLine
 10
6.000001009263427
 20
47.00000013540432
 30
0.0
 11
6.000001009263427
 21
47.68235307658065
 31
0.0
  0
LINE
  5
914
330
1F
100
AcDbEntity
  8
0
100
AcDbLine
 10
4.5000010092632
 20
46.50000013540432
 30
0.0
 11
5.500001009263422
 21
46.50000013540432
 31
0.0
  0
LINE
  5
915
330
1F
100
AcDbEntity
  8
0
100
AcDbLine
 10
13.0000010092632
 20
38.88907600071536
 30
0.0
 11
13.0000010092632
 21
38.11092427009237
 31
0.0
  0
LINE
  5
916
330
1F
100
AcDbEntity
  8
0
100
AcDbLine
 10
12.00000100926319
 20
43.69671070771935
 30
0.0
 11
12.00000100926319
 21
46.50000013540432
 31
0.0
  0
LINE
  5
917
330
1F
100
AcDbEntity
  8
0
100
AcDbLine
 10
13.0000010092632
 20
45.88907600071536
 30
0.0
 11
13.0000010092632
 21
45.11092427009236
 31
0.0
  0
ARC
  5
918
330
1F
100
AcDbEntity
  8
0
100
AcDbCircle
 10
11.50000100926318
 20
45.88907600071536
 30
0.0
 40
1.5
100
AcDbArc
 50
0.0
 51
86.96952315413897
  0
ARC
  5
919
330
1F
100
AcDbEntity
  8
0
100
AcDbCircle
 10
11.50000100926318
 20
45.11092427009236
 30
0.0
 40
1.5
100
AcDbArc
 50
273.030476845861
 51
0.0
  0
ARC
  5
91A
330
1F
100
AcDbEntity
  8
0
100
AcDbCircle
 10
11.50000100926318
 20
38.88907600071536
 30
0.0
 40
1.5
100
AcDbArc
 50
0.0
 51
86.96952315413897
  0
LINE
  5
91B
330
1F
100
AcDbEntity
  8
0
100
AcDbLine
 10
13.0000010092632
 20
52.88907600071536
 30
0.0
 11
13.0000010092632
 21
52.11092427009236
 31
0.0
  0
ARC
  5
91C
330
1F
100
AcDbEntity
  8
0
100
AcDbCircle
 10
11.50000100926318
 20
52.88907600071536
 30
0.0
 40
1.5
100
AcDbArc
 50
0.0
 51
86.96952315413897
  0
ARC
  5
91D
330
1F
100
AcDbEntity
  8
0
100
AcDbCircle
 10
11.50000100926318
 20
52.11092427009236
 30
0.0
 40
1.5
100
AcDbArc
 50
273.030476845861
 51
0.0
  0
LINE
  5
91E
330
1F
100
AcDbEntity
  8
0
100
AcDbLine
 10
19.00000100926319
 20
21.0000001354043
 30
0.0
 11
19.00000100926319
 21
4.973814213834313
 31
0.0
  0
LINE
  5
91F
330
1F
100
AcDbEntity
  8
0
100
AcDbLine
 10
20.00000100926319
 20
4.921442370697318
 30
0.0
 11
20.00000100926319
 21
20.97381421383532
 31
0.0
  0
LINE
  5
920
330
1F
100
AcDbEntity
  8
0
100
AcDbLine
 10
45.29128885674015
 20
4.259166690739331
 30
0.0
 11
45.29128885674015
 21
21.97381421383532
 31
0.0
  0
LINE
  5
921
330
1F
100
AcDbEntity
  8
0
100
AcDbLine
 10
40.70871316178511
 20
4.379165658472286
 30
0.0
 11
40.70871316178511
 21
21.97381421383635
 31
0.0
  0
LINE
  5
922
330
1F
100
AcDbEntity
  8
0
100
AcDbLine
 10
40.90000100926213
 20
3.800000135403305
 30
0.0
 11
40.90000100926213
 21
0.0000001354043206
 31
0.0
  0
LINE
  5
923
330
1F
100
AcDbEntity
  8
0
100
AcDbLine
 10
45.1000010092631
 20
3.800000135403305
 30
0.0
 11
45.1000010092631
 21
0.0000001354043206
 31
0.0
  0
LINE
  5
924
330
1F
100
AcDbEntity
  8
0
100
AcDbLine
 10
37.50000100926317
 20
3.800000135403305
 30
0.0
 11
48.50000100926319
 21
3.800000135403305
 31
0.0
  0
LINE
  5
925
330
1F
100
AcDbEntity
  8
0
100
AcDbLine
 10
37.50000100926317
 20
4.489374664804357
 30
0.0
 11
37.50000100926317
 21
3.800000135403305
 31
0.0
  0
LINE
  5
926
330
1F
100
AcDbEntity
  8
0
100
AcDbLine
 10
48.50000100926319
 20
4.201329527544316
 30
0.0
 11
48.50000100926319
 21
3.800000135403305
 31
0.0
  0
LINE
  5
92A
330
1F
100
AcDbEntity
  8
0
100
AcDbLine
 10
23.5000010092632
 20
23.00000013540431
 30
0.0
 11
22.00000100926217
 21
23.00000013540431
 31
0.0
  0
LINE
  5
92B
330
1F
100
AcDbEntity
  8
0
100
AcDbLine
 10
23.7000010092621
 20
22.47381421383532
 30
0.0
 11
22.00000100926217
 21
22.47381421383532
 31
0.0
  0
LINE
  5
92C
330
1F
100
AcDbEntity
  8
0
100
AcDbLine
 10
19.00000100926319
 20
21.0000001354043
 30
0.0
 11
17.70000100926321
 21
21.0000001354043
 31
0.0
  0
LINE
  5
92D
330
1F
100
AcDbEntity
  8
0
100
AcDbLine
 10
20.00000100926319
 20
20.97381421383532
 30
0.0
 11
19.00000100926319
 21
20.97381421383532
 31
0.0
  0
LINE
  5
92E
330
1F
100
AcDbEntity
  8
0
100
AcDbLine
 10
23.5000010092632
 20
31.00000013540431
 30
0.0
 11
22.00000100926217
 21
31.00000013540431
 31
0.0
  0
LINE
  5
92F
330
1F
100
AcDbEntity
  8
0
100
AcDbLine
 10
19.00000100926319
 20
33.00000013540429
 30
0.0
 11
17.70000100926321
 21
33.00000013540429
 31
0.0
  0
LINE
  5
930
330
1F
100
AcDbEntity
  8
0
100
AcDbLine
 10
23.7000010092621
 20
31.47381421383533
 30
0.0
 11
22.00000100926217
 21
31.47381421383533
 31
0.0
  0
LINE
  5
931
330
1F
100
AcDbEntity
  8
0
100
AcDbLine
 10
20.00000100926319
 20
32.9738142138363
 30
0.0
 11
19.00000100926319
 21
32.9738142138363
 31
0.0
  0
LINE
  5
932
330
1F
100
AcDbEntity
  8
0
100
AcDbLine
 10
22.10000100926311
 20
31.00000013540431
 30
0.0
 11
22.10000100926311
 21
23.00000013540431
 31
0.0
  0
LINE
  5
933
330
1F
100
AcDbEntity
  8
0
100
AcDbLine
 10
22.70000100926324
 20
31.00000013540431
 30
0.0
 11
22.70000100926324
 21
23.00000013540431
 31
0.0
  0
LINE
  5
934
330
1F
100
AcDbEntity
  8
0
100
AcDbLine
 10
23.5000010092632
 20
31.00000013540431
 30
0.0
 11
23.5000010092632
 21
23.00000013540431
 31
0.0
  0
LINE
  5
935
330
1F
100
AcDbEntity
  8
0
100
AcDbLine
 10
17.70000100926321
 20
33.00000013540429
 30
0.0
 11
17.70000100926321
 21
21.1000001354033
 31
0.0
  0
LINE
  5
936
330
1F
100
AcDbEntity
  8
0
100
AcDbLine
 10
18.50000100926319
 20
33.00000013540429
 30
0.0
 11
18.50000100926319
 21
21.0000001354043
 31
0.0
  0
LINE
  5
937
330
1F
100
AcDbEntity
  8
0
100
AcDbLine
 10
19.00000100926319
 20
33.00000013540429
 30
0.0
 11
19.00000100926319
 21
21.00000013540328
 31
0.0
  0
LINE
  5
938
330
1F
100
AcDbEntity
  8
0
100
AcDbLine
 10
22.00000100926217
 20
31.47381421383533
 30
0.0
 11
22.00000100926217
 21
22.47381421383532
 31
0.0
  0
LINE
  5
939
330
1F
100
AcDbEntity
  8
0
100
AcDbLine
 10
23.7000010092621
 20
31.47381421383533
 30
0.0
 11
23.7000010092621
 21
22.47381421383532
 31
0.0
  0
LINE
  5
93C
330
1F
100
AcDbEntity
  8
0
100
AcDbLine
 10
0.000001009263201
 20
120.5286535471578
 30
0.0
 11
18.00000100926612
 21
121.0000001354031
 31
0.0
  0
LINE
  5
93D
330
1F
100
AcDbEntity
  8
0
100
AcDbLine
 10
10.80000100926415
 20
96.42823542952136
 30
0.0
 11
10.80000100926415
 21
92.57176484128635
 31
0.0
  0
LINE
  5
93E
330
1F
100
AcDbEntity
  8
0
100
AcDbLine
 10
13.0000010092632
 20
94.88907600071534
 30
0.0
 11
13.0000010092632
 21
94.11092427009235
 31
0.0
  0
LINE
  5
93F
330
1F
100
AcDbEntity
  8
0
100
AcDbLine
 10
0.1464476186698675
 20
79.35355352599761
 30
0.0
 11
4.000001009263201
 21
81.00000013540435
 31
0.0
  0
LINE
  5
940
330
1F
100
AcDbEntity
  8
0
100
AcDbLine
 10
0.94713386812316
 20
64.05014246322537
 30
0.0
 11
11.57930172097427
 21
64.61302193778829
 31
0.0
  0
LINE
  5
941
330
1F
100
AcDbEntity
  8
0
100
AcDbLine
 10
0.94713386812316
 20
61.94985780758236
 30
0.0
 11
11.57930172097427
 21
61.38697833301932
 31
0.0
  0
LINE
  5
942
330
1F
100
AcDbEntity
  8
0
100
AcDbLine
 10
0.94713386812316
 20
57.05014246322535
 30
0.0
 11
11.57930172097427
 21
57.6130219377883
 31
0.0
  0
LINE
  5
943
330
1F
100
AcDbEntity
  8
0
100
AcDbLine
 10
0.94713386812316
 20
92.05014246322537
 30
0.0
 11
11.57930172097427
 21
92.6130219377883
 31
0.0
  0
LINE
  5
944
330
1F
100
AcDbEntity
  8
0
100
AcDbLine
 10
0.94713386812316
 20
89.94985780758232
 30
0.0
 11
11.57930172097427
 21
89.38697833301933
 31
0.0
  0
LINE
  5
945
330
1F
100
AcDbEntity
  8
0
100
AcDbLine
 10
0.94713386812316
 20
85.05014246322536
 30
0.0
 11
11.57930172097427
 21
85.61302193778827
 31
0.0
  0
LINE
  5
946
330
1F
100
AcDbEntity
  8
0
100
AcDbLine
 10
0.94713386812316
 20
82.94985780758237
 30
0.0
 11
11.57930172097427
 21
82.38697833301932
 31
0.0
  0
LINE
  5
947
330
1F
100
AcDbEntity
  8
0
100
AcDbLine
 10
0.94713386812316
 20
78.05014246322537
 30
0.0
 11
11.57930172097427
 21
78.61302193778829
 31
0.0
  0
LINE
  5
948
330
1F
100
AcDbEntity
  8
0
100
AcDbLine
 10
0.94713386812316
 20
75.94985780758236
 30
0.0
 11
11.57930172097427
 21
75.38697833301933
 31
0.0
  0
LINE
  5
949
330
1F
100
AcDbEntity
  8
0
100
AcDbLine
 10
0.94713386812316
 20
71.05014246322537
 30
0.0
 11
11.57930172097427
 21
71.61302193778829
 31
0.0
  0
LINE
  5
94A
330
1F
100
AcDbEntity
  8
0
100
AcDbLine
 10
0.94713386812316
 20
68.94985780758236
 30
0.0
 11
11.57930172097427
 21
68.38697833301933
 31
0.0
  0
LINE
  5
94B
330
1F
100
AcDbEntity
  8
0
100
AcDbLine
 10
0.000001009263201
 20
63.05154090835628
 30
0.0
 11
0.000001009263201
 21
62.94845936245132
 31
0.0
  0
ARC
  5
94C
330
1F
100
AcDbEntity
  8
0
100
AcDbCircle
 10
1.0000010092632
 20
63.05154090835628
 30
0.0
 40
1.0
100
AcDbArc
 50
93.030476845861
 51
180.0
  0
ARC
  5
94D
330
1F
100
AcDbEntity
  8
0
100
AcDbCircle
 10
1.0000010092632
 20
62.94845936245132
 30
0.0
 40
1.0
100
AcDbArc
 50
180.0
 51
266.9695231541389
  0
LINE
  5
94E
330
1F
100
AcDbEntity
  8
0
100
AcDbLine
 10
0.000001009263201
 20
70.05154090835628
 30
0.0
 11
0.000001009263201
 21
69.94845936245133
 31
0.0
  0
ARC
  5
94F
330
1F
100
AcDbEntity
  8
0
100
AcDbCircle
 10
1.0000010092632
 20
70.05154090835628
 30
0.0
 40
1.0
100
AcDbArc
 50
93.030476845861
 51
180.0
  0
ARC
  5
950
330
1F
100
AcDbEntity
  8
0
100
AcDbCircle
 10
1.0000010092632
 20
69.94845936245133
 30
0.0
 40
1.0
100
AcDbArc
 50
180.0
 51
266.9695231541389
  0
ARC
  5
951
330
1F
100
AcDbEntity
  8
0
100
AcDbCircle
 10
0.5000010092632011
 20
79.00000013540434
 30
0.0
 40
0.5
100
AcDbArc
 50
134.9999999999726
 51
180.0
  0
LINE
  5
952
330
1F
100
AcDbEntity
  8
0
100
AcDbLine
 10
0.000001009263201
 20
77.0515409083563
 30
0.0
 11
0.000001009263201
 21
76.94845936245133
 31
0.0
  0
ARC
  5
953
330
1F
100
AcDbEntity
  8
0
100
AcDbCircle
 10
1.0000010092632
 20
77.0515409083563
 30
0.0
 40
1.0
100
AcDbArc
 50
93.030476845861
 51
180.0
  0
ARC
  5
954
330
1F
100
AcDbEntity
  8
0
100
AcDbCircle
 10
1.0000010092632
 20
76.94845936245133
 30
0.0
 40
1.0
100
AcDbArc
 50
180.0
 51
266.9695231541389
  0
LINE
  5
955
330
1F
100
AcDbEntity
  8
0
100
AcDbLine
 10
0.000001009263201
 20
84.0515409083563
 30
0.0
 11
0.000001009263201
 21
83.94845936245133
 31
0.0
  0
ARC
  5
956
330
1F
100
AcDbEntity
  8
0
100
AcDbCircle
 10
1.0000010092632
 20
84.0515409083563
 30
0.0
 40
1.0
100
AcDbArc
 50
93.030476845861
 51
180.0
  0
ARC
  5
957
330
1F
100
AcDbEntity
  8
0
100
AcDbCircle
 10
1.0000010092632
 20
83.94845936245133
 30
0.0
 40
1.0
100
AcDbArc
 50
180.0
 51
266.9695231541389
  0
LINE
  5
958
330
1F
100
AcDbEntity
  8
0
100
AcDbLine
 10
0.000001009263201
 20
91.05154090835629
 30
0.0
 11
0.000001009263201
 21
90.94845936245134
 31
0.0
  0
ARC
  5
959
330
1F
100
AcDbEntity
  8
0
100
AcDbCircle
 10
1.0000010092632
 20
91.05154090835629
 30
0.0
 40
1.0
100
AcDbArc
 50
93.030476845861
 51
180.0
  0
ARC
  5
95A
330
1F
100
AcDbEntity
  8
0
100
AcDbCircle
 10
1.0000010092632
 20
90.94845936245134
 30
0.0
 40
1.0
100
AcDbArc
 50
180.0
 51
266.9695231541389
  0
LINE
  5
95B
330
1F
100
AcDbEntity
  8
0
  6
CONTINUOUS
100
AcDbLine
 10
4.000001009263201
 20
75.78823542952192
 30
0.0
 11
4.000001009263201
 21
71.21176484128575
 31
0.0
  0
LINE
  5
95C
330
1F
100
AcDbEntity
  8
0
  6
CONTINUOUS
100
AcDbLine
 10
6.000001009263199
 20
75.68235307658068
 30
0.0
 11
6.000001009263199
 21
71.31764719422695
 31
0.0
  0
LINE
  5
95D
330
1F
100
AcDbEntity
  8
0
100
AcDbLine
 10
2.000001009263198
 20
71.10588248834456
 30
0.0
 11
2.000001009263198
 21
75.89411778246315
 31
0.0
  0
LINE
  5
95E
330
1F
100
AcDbEntity
  8
0
100
AcDbLine
 10
2.000001009263538
 20
75.89411778246312
 30
0.0
 11
2.000001009263426
 21
71.10588248834459
 31
0.0
  0
ARC
  5
95F
330
1F
100
AcDbEntity
  8
0
100
AcDbCircle
 10
11.50000100926318
 20
73.88907600071537
 30
0.0
 40
1.5
100
AcDbArc
 50
0.0
 51
86.96952315413897
  0
LINE
  5
960
330
1F
100
AcDbEntity
  8
0
  6
CONTINUOUS
100
AcDbLine
 10
4.000001009263201
 20
61.78823542952192
 30
0.0
 11
4.000001009263201
 21
57.21176484128577
 31
0.0
  0
LINE
  5
961
330
1F
100
AcDbEntity
  8
0
  6
CONTINUOUS
100
AcDbLine
 10
4.000001009263201
 20
68.78823542952194
 30
0.0
 11
4.000001009263201
 21
64.21176484128578
 31
0.0
  0
LINE
  5
962
330
1F
100
AcDbEntity
  8
0
  6
CONTINUOUS
100
AcDbLine
 10
6.000001009263199
 20
68.68235307658068
 30
0.0
 11
6.000001009263199
 21
64.31764719422701
 31
0.0
  0
LINE
  5
963
330
1F
100
AcDbEntity
  8
0
100
AcDbLine
 10
2.000001009263198
 20
61.89411778246316
 30
0.0
 11
2.000001009263198
 21
57.10588248834458
 31
0.0
  0
LINE
  5
964
330
1F
100
AcDbEntity
  8
0
100
AcDbLine
 10
2.000001009263198
 20
64.10588248834457
 30
0.0
 11
2.000001009263198
 21
68.89411778246316
 31
0.0
  0
LINE
  5
965
330
1F
100
AcDbEntity
  8
0
  6
CONTINUOUS
100
AcDbLine
 10
6.000001009263199
 20
61.68235307658068
 30
0.0
 11
6.000001009263199
 21
57.317647194227
 31
0.0
  0
LINE
  5
966
330
1F
100
AcDbEntity
  8
0
100
AcDbLine
 10
2.000001009263198
 20
57.10588248834458
 30
0.0
 11
2.000001009263198
 21
61.89411778246316
 31
0.0
  0
LINE
  5
967
330
1F
100
AcDbEntity
  8
0
100
AcDbLine
 10
2.000001009263426
 20
68.89411778246316
 30
0.0
 11
2.000001009263198
 21
64.10588248834457
 31
0.0
  0
LINE
  5
968
330
1F
100
AcDbEntity
  8
0
100
AcDbLine
 10
13.0000010092632
 20
59.88907600071534
 30
0.0
 11
13.0000010092632
 21
59.11092427009236
 31
0.0
  0
ARC
  5
969
330
1F
100
AcDbEntity
  8
0
100
AcDbCircle
 10
11.50000100926318
 20
59.88907600071534
 30
0.0
 40
1.5
100
AcDbArc
 50
0.0
 51
86.96952315413897
  0
ARC
  5
96A
330
1F
100
AcDbEntity
  8
0
100
AcDbCircle
 10
11.50000100926318
 20
59.11092427009236
 30
0.0
 40
1.5
100
AcDbArc
 50
273.030476845861
 51
0.0
  0
LINE
  5
96B
330
1F
100
AcDbEntity
  8
0
100
AcDbLine
 10
13.0000010092632
 20
66.88907600071535
 30
0.0
 11
13.0000010092632
 21
66.11092427009237
 31
0.0
  0
ARC
  5
96C
330
1F
100
AcDbEntity
  8
0
100
AcDbCircle
 10
11.50000100926318
 20
66.88907600071535
 30
0.0
 40
1.5
100
AcDbArc
 50
0.0
 51
86.96952315413897
  0
LINE
  5
96D
330
1F
100
AcDbEntity
  8
0
100
AcDbLine
 10
13.0000010092632
 20
73.88907600071537
 30
0.0
 11
13.0000010092632
 21
73.11092427009237
 31
0.0
  0
ARC
  5
96E
330
1F
100
AcDbEntity
  8
0
100
AcDbCircle
 10
11.50000100926318
 20
73.11092427009237
 30
0.0
 40
1.5
100
AcDbArc
 50
273.030476845861
 51
0.0
  0
ARC
  5
96F
330
1F
100
AcDbEntity
  8
0
100
AcDbCircle
 10
11.50000100926318
 20
66.11092427009237
 30
0.0
 40
1.5
100
AcDbArc
 50
273.030476845861
 51
0.0
  0
LWPOLYLINE
  5
970
330
1F
100
AcDbEntity
  8
0
100
AcDbPolyline
 90
        3
 70
     0
 43
0.0
 10
12.86995418424973
 20
86.50000013540433
 10
6.000001009263199
 20
86.50000013540433
 10
6.000001009263199
 20
85.31764719422701
  0
LINE
  5
971
330
1F
100
AcDbEntity
  8
0
  6
CONTINUOUS
100
AcDbLine
 10
4.000001009263201
 20
79.00000013540434
 30
0.0
 11
4.000001009263201
 21
78.21176484128578
 31
0.0
  0
LINE
  5
972
330
1F
100
AcDbEntity
  8
0
  6
CONTINUOUS
100
AcDbLine
 10
6.000001009263199
 20
82.68235307658068
 30
0.0
 11
6.000001009263199
 21
78.31764719422698
 31
0.0
  0
LINE
  5
973
330
1F
100
AcDbEntity
  8
0
100
AcDbLine
 10
2.000001009263198
 20
78.10588248834456
 30
0.0
 11
2.000001009263198
 21
78.14549187120026
 31
0.0
  0
LINE
  5
974
330
1F
100
AcDbEntity
  8
0
100
AcDbLine
 10
4.000001009263201
 20
82.78823542952192
 30
0.0
 11
4.000001009263201
 21
81.00000013540435
 31
0.0
  0
LINE
  5
975
330
1F
100
AcDbEntity
  8
0
100
AcDbLine
 10
6.000001009263199
 20
85.31764719422698
 30
0.0
 11
6.000001009263199
 21
86.00000013540434
 31
0.0
  0
LINE
  5
976
330
1F
100
AcDbEntity
  8
0
100
AcDbLine
 10
2.000001009263653
 20
78.14549187120049
 30
0.0
 11
2.000001009263538
 21
78.10588248834459
 31
0.0
  0
LINE
  5
977
330
1F
100
AcDbEntity
  8
0
100
AcDbLine
 10
2.000001009263653
 20
78.14549187120049
 30
0.0
 11
4.000001009263201
 21
79.00000013540434
 31
0.0
  0
ARC
  5
978
330
1F
100
AcDbEntity
  8
0
100
AcDbCircle
 10
3.500001009263426
 20
81.00000013540435
 30
0.0
 40
0.5
100
AcDbArc
 50
0.0
 51
90.0
  0
ARC
  5
979
330
1F
100
AcDbEntity
  8
0
100
AcDbCircle
 10
2.500001009263423
 20
81.00000013540435
 30
0.0
 40
0.5
100
AcDbArc
 50
90.0
 51
180.0
  0
LINE
  5
97A
330
1F
100
AcDbEntity
  8
0
100
AcDbLine
 10
2.000001009263426
 20
81.00000013540435
 30
0.0
 11
2.000001009263653
 21
80.14549187120049
 31
0.0
  0
LINE
  5
97B
330
1F
100
AcDbEntity
  8
0
100
AcDbLine
 10
3.500001009263426
 20
81.50000013540433
 30
0.0
 11
2.500001009263423
 21
81.50000013540433
 31
0.0
  0
ARC
  5
97C
330
1F
100
AcDbEntity
  8
0
100
AcDbCircle
 10
4.5000010092632
 20
79.00000013540434
 30
0.0
 40
0.5
100
AcDbArc
 50
180.0
 51
270.0
  0
ARC
  5
97D
330
1F
100
AcDbEntity
  8
0
100
AcDbCircle
 10
5.500001009263422
 20
79.00000013540434
 30
0.0
 40
0.5
100
AcDbArc
 50
270.0
 51
0.0
  0
ARC
  5
97E
330
1F
100
AcDbEntity
  8
0
100
AcDbCircle
 10
5.500001009263199
 20
86.00000013540434
 30
0.0
 40
0.5
100
AcDbArc
 50
0.0
 51
90.0
  0
ARC
  5
97F
330
1F
100
AcDbEntity
  8
0
100
AcDbCircle
 10
4.5000010092632
 20
86.00000013540434
 30
0.0
 40
0.5
100
AcDbArc
 50
90.0
 51
180.0
  0
LINE
  5
980
330
1F
100
AcDbEntity
  8
0
100
AcDbLine
 10
4.000001009263201
 20
86.00000013540434
 30
0.0
 11
4.000001009263201
 21
85.21176484128579
 31
0.0
  0
LINE
  5
981
330
1F
100
AcDbEntity
  8
0
100
AcDbLine
 10
5.500001009263199
 20
86.50000013540433
 30
0.0
 11
4.5000010092632
 21
86.50000013540433
 31
0.0
  0
LINE
  5
982
330
1F
100
AcDbEntity
  8
0
100
AcDbLine
 10
6.000001009263427
 20
79.00000013540434
 30
0.0
 11
6.000001009263199
 21
82.68235307658065
 31
0.0
  0
LINE
  5
983
330
1F
100
AcDbEntity
  8
0
100
AcDbLine
 10
4.5000010092632
 20
78.50000013540435
 30
0.0
 11
5.500001009263422
 21
78.50000013540435
 31
0.0
  0
LINE
  5
984
330
1F
100
AcDbEntity
  8
0
  6
CONTINUOUS
100
AcDbLine
 10
6.000001009263199
 20
86.50000013540433
 30
0.0
 11
6.000001009263199
 21
85.31764719422701
 31
0.0
  0
LINE
  5
985
330
1F
100
AcDbEntity
  8
0
100
AcDbLine
 10
13.0000010092632
 20
80.88907600071534
 30
0.0
 11
13.0000010092632
 21
80.11092427009236
 31
0.0
  0
ARC
  5
986
330
1F
100
AcDbEntity
  8
0
100
AcDbCircle
 10
11.50000100926318
 20
80.11092427009236
 30
0.0
 40
1.5
100
AcDbArc
 50
273.030476845861
 51
0.0
  0
LINE
  5
987
330
1F
100
AcDbEntity
  8
0
100
AcDbLine
 10
12.00000100926319
 20
86.50000013540433
 30
0.0
 11
12.00000100926319
 21
89.30328956308834
 31
0.0
  0
LINE
  5
988
330
1F
100
AcDbEntity
  8
0
100
AcDbLine
 10
10.80000100926415
 20
89.04896260972533
 30
0.0
 11
12.00000100926319
 21
89.01753950384238
 31
0.0
  0
LINE
  5
989
330
1F
100
AcDbEntity
  8
0
100
AcDbLine
 10
13.0000010092632
 20
87.88907600071537
 30
0.0
 11
13.0000010092632
 21
87.11092427009237
 31
0.0
  0
ARC
  5
98A
330
1F
100
AcDbEntity
  8
0
100
AcDbCircle
 10
11.50000100926318
 20
87.11092427009237
 30
0.0
 40
1.5
100
AcDbArc
 50
273.030476845861
 51
0.0
  0
ARC
  5
98B
330
1F
100
AcDbEntity
  8
0
100
AcDbCircle
 10
11.50000100926318
 20
94.11092427009235
 30
0.0
 40
1.5
100
AcDbArc
 50
273.030476845861
 51
0.0
  0
LINE
  5
98C
330
1F
100
AcDbEntity
  8
0
100
AcDbLine
 10
10.80000100926415
 20
89.42823542952131
 30
0.0
 11
10.80000100926415
 21
89.04896260972533
 31
0.0
  0
ARC
  5
98D
330
1F
100
AcDbEntity
  8
0
100
AcDbCircle
 10
11.50000100926318
 20
87.88907600071537
 30
0.0
 40
1.5
100
AcDbArc
 50
0.0
 51
86.96952315413897
  0
ARC
  5
98E
330
1F
100
AcDbEntity
  8
0
100
AcDbCircle
 10
11.50000100926318
 20
80.88907600071534
 30
0.0
 40
1.5
100
AcDbArc
 50
0.0
 51
86.96952315413897
  0
LINE
  5
98F
330
1F
100
AcDbEntity
  8
0
100
AcDbLine
 10
0.94713386812316
 20
96.94985780758241
 30
0.0
 11
11.57930172097427
 21
96.38697833301932
 31
0.0
  0
LINE
  5
990
330
1F
100
AcDbEntity
  8
0
100
AcDbLine
 10
0.4738330311421353
 20
104.3251676513839
 30
0.0
 11
11.57850494362821
 21
103.743196456784
 31
0.0
  0
LINE
  5
991
330
1F
100
AcDbEntity
  8
0
100
AcDbLine
 10
0.94713386812316
 20
99.05014246322537
 30
0.0
 11
11.57930172097427
 21
99.61302193778827
 31
0.0
  0
LINE
  5
992
330
1F
100
AcDbEntity
  8
0
100
AcDbLine
 10
0.000001009263201
 20
104.8244824187611
 30
0.0
 11
0.000001009263201
 21
120.5286535471578
 31
0.0
  0
LINE
  5
993
330
1F
100
AcDbEntity
  8
0
100
AcDbLine
 10
0.000001009263201
 20
98.05154090835628
 30
0.0
 11
0.000001009263201
 21
97.94845936245131
 31
0.0
  0
POINT
  5
994
330
1F
100
AcDbEntity
  8
0
100
AcDbPoint
 10
0.000001009263201
 20
104.350000135403
 30
0.0
  0
ARC
  5
995
330
1F
100
AcDbEntity
  8
0
100
AcDbCircle
 10
0.5000010092632011
 20
104.8244824187611
 30
0.0
 40
0.5
100
AcDbArc
 50
180.0
 51
266.9999999999942
  0
ARC
  5
996
330
1F
100
AcDbEntity
  8
0
100
AcDbCircle
 10
1.0000010092632
 20
98.05154090835628
 30
0.0
 40
1.0
100
AcDbArc
 50
93.030476845861
 51
180.0
  0
ARC
  5
997
330
1F
100
AcDbEntity
  8
0
100
AcDbCircle
 10
1.0000010092632
 20
97.94845936245131
 30
0.0
 40
1.0
100
AcDbArc
 50
180.0
 51
266.9695231541389
  0
ARC
  5
998
330
1F
100
AcDbEntity
  8
0
100
AcDbCircle
 10
11.50000100926318
 20
94.88907600071534
 30
0.0
 40
1.5
100
AcDbArc
 50
0.0
 51
86.96952315413897
  0
LINE
  5
999
330
1F
100
AcDbEntity
  8
0
100
AcDbLine
 10
10.80000100926415
 20
103.7839961191469
 30
0.0
 11
10.80000100926415
 21
99.56600415166029
 31
0.0
  0
LINE
  5
99A
330
1F
100
AcDbEntity
  8
0
100
AcDbLine
 10
13.0000010092632
 20
102.245252154652
 30
0.0
 11
13.0000010092632
 21
101.1109242700922
 31
0.0
  0
ARC
  5
99B
330
1F
100
AcDbEntity
  8
0
100
AcDbCircle
 10
11.50000100926318
 20
102.245252154652
 30
0.0
 40
1.5
100
AcDbArc
 50
0.0
 51
87.00000000000093
  0
ARC
  5
99C
330
1F
100
AcDbEntity
  8
0
100
AcDbCircle
 10
11.50000100926318
 20
101.1109242700922
 30
0.0
 40
1.5
100
AcDbArc
 50
273.030476845861
 51
0.0
  0
LINE
  5
99E
330
1F
100
AcDbEntity
  8
0
100
AcDbLine
 10
19.00000100926319
 20
110.4710191932781
 30
0.0
 11
19.00000100926319
 21
83.00000013540433
 31
0.0
  0
LINE
  5
99F
330
1F
100
AcDbEntity
  8
0
100
AcDbLine
 10
20.00000100926319
 20
82.97381421383631
 30
0.0
 11
20.00000100926319
 21
109.6057336405332
 31
0.0
  0
LINE
  5
9AC
330
1F
100
AcDbEntity
  8
0
100
AcDbLine
 10
22.10000100926311
 20
81.0000001354043
 30
0.0
 11
22.10000100926311
 21
73.0000001354043
 31
0.0
  0
LINE
  5
9AD
330
1F
100
AcDbEntity
  8
0
100
AcDbLine
 10
22.70000100926324
 20
81.0000001354043
 30
0.0
 11
22.70000100926324
 21
73.0000001354043
 31
0.0
  0
LINE
  5
9AE
330
1F
100
AcDbEntity
  8
0
100
AcDbLine
 10
23.5000010092632
 20
81.0000001354043
 30
0.0
 11
23.5000010092632
 21
73.0000001354043
 31
0.0
  0
LINE
  5
9AF
330
1F
100
AcDbEntity
  8
0
100
AcDbLine
 10
22.00000100926217
 20
81.47381421383533
 30
0.0
 11
22.00000100926217
 21
72.47381421383534
 31
0.0
  0
LINE
  5
9B0
330
1F
100
AcDbEntity
  8
0
100
AcDbLine
 10
23.7000010092621
 20
81.47381421383533
 30
0.0
 11
23.7000010092621
 21
72.47381421383534
 31
0.0
  0
LINE
  5
9B1
330
1F
100
AcDbEntity
  8
0
100
AcDbLine
 10
17.70000100926321
 20
83.00000013540433
 30
0.0
 11
17.70000100926321
 21
71.1000001354033
 31
0.0
  0
LINE
  5
9B2
330
1F
100
AcDbEntity
  8
0
100
AcDbLine
 10
18.50000100926319
 20
83.00000013540433
 30
0.0
 11
18.50000100926319
 21
71.0000001354043
 31
0.0
  0
LINE
  5
9B3
330
1F
100
AcDbEntity
  8
0
100
AcDbLine
 10
19.00000100926319
 20
71.0000001354033
 30
0.0
 11
19.00000100926319
 21
83.00000013540433
 31
0.0
  0
LINE
  5
9B4
330
1F
100
AcDbEntity
  8
0
100
AcDbLine
 10
19.00000100926319
 20
71.0000001354043
 30
0.0
 11
17.70000100926321
 21
71.0000001354043
 31
0.0
  0
LINE
  5
9B5
330
1F
100
AcDbEntity
  8
0
100
AcDbLine
 10
20.00000100926319
 20
70.97381421383534
 30
0.0
 11
19.00000100926319
 21
70.97381421383534
 31
0.0
  0
LINE
  5
9B6
330
1F
100
AcDbEntity
  8
0
100
AcDbLine
 10
23.5000010092632
 20
73.0000001354043
 30
0.0
 11
22.00000100926217
 21
73.0000001354043
 31
0.0
  0
LINE
  5
9B7
330
1F
100
AcDbEntity
  8
0
100
AcDbLine
 10
23.7000010092621
 20
72.47381421383534
 30
0.0
 11
22.00000100926217
 21
72.47381421383534
 31
0.0
  0
LINE
  5
9B8
330
1F
100
AcDbEntity
  8
0
100
AcDbLine
 10
23.5000010092632
 20
81.0000001354043
 30
0.0
 11
22.00000100926217
 21
81.0000001354043
 31
0.0
  0
LINE
  5
9B9
330
1F
100
AcDbEntity
  8
0
100
AcDbLine
 10
19.00000100926319
 20
83.00000013540433
 30
0.0
 11
17.70000100926321
 21
83.00000013540433
 31
0.0
  0
LINE
  5
9BA
330
1F
100
AcDbEntity
  8
0
100
AcDbLine
 10
23.7000010092621
 20
81.47381421383533
 30
0.0
 11
22.00000100926217
 21
81.47381421383533
 31
0.0
  0
LINE
  5
9BB
330
1F
100
AcDbEntity
  8
0
100
AcDbLine
 10
20.00000100926319
 20
82.97381421383631
 30
0.0
 11
19.00000100926319
 21
82.97381421383631
 31
0.0
  0
LINE
  5
9C4
330
1F
100
AcDbEntity
  8
0
100
AcDbLine
 10
28.10000100926311
 20
121.9738142138353
 30
0.0
 11
36.70000100926231
 21
121.9738142138353
 31
0.0
  0
LINE
  5
9C5
330
1F
100
AcDbEntity
  8
0
100
AcDbLine
 10
29.20000100926221
 20
126.2738142138353
 30
0.0
 11
35.1000010092622
 21
126.2738142138353
 31
0.0
  0
LINE
  5
9C6
330
1F
100
AcDbEntity
  8
0
100
AcDbLine
 10
29.6000010092622
 20
127.573814213835
 30
0.0
 11
38.94500100926222
 21
127.573814213835
 31
0.0
  0
LINE
  5
9C7
330
1F
100
AcDbEntity
  8
0
100
AcDbLine
 10
22.0000010092632
 20
111.0000001354038
 30
0.0
 11
22.0000010092632
 21
120.8952564491271
 31
0.0
  0
LINE
  5
9C8
330
1F
100
AcDbEntity
  8
0
100
AcDbLine
 10
23.0000010092632
 20
120.9738142138353
 30
0.0
 11
23.0000010092632
 21
110.1347145826581
 31
0.0
  0
LINE
  5
9C9
330
1F
100
AcDbEntity
  8
0
100
AcDbLine
 10
22.0000010092632
 20
120.473814213835
 30
0.0
 11
22.0000010092632
 21
110.9738142138362
 31
0.0
  0
LINE
  5
9CA
330
1F
100
AcDbEntity
  8
0
100
AcDbLine
 10
22.0000010092632
 20
111.0000001354038
 30
0.0
 11
19.00000100926319
 21
110.4710191932781
 31
0.0
  0
LINE
  5
9CB
330
1F
100
AcDbEntity
  8
0
100
AcDbLine
 10
23.0000010092632
 20
110.1347145826581
 30
0.0
 11
20.00000100926319
 21
109.6057336405332
 31
0.0
  0
LINE
  5
9CC
330
1F
100
AcDbEntity
  8
0
100
AcDbLine
 10
19.00000100926319
 20
110.4448332717101
 30
0.0
 11
22.0000010092632
 21
110.9738142138362
 31
0.0
  0
LINE
  5
9CD
330
1F
100
AcDbEntity
  8
0
100
AcDbLine
 10
18.00000100926319
 20
121.0000001354041
 30
0.0
 11
22.0000010092632
 21
120.8952564491271
 31
0.0
  0
LINE
  5
9CE
330
1F
100
AcDbEntity
  8
0
100
AcDbLine
 10
22.0000010092632
 20
120.473814213835
 30
0.0
 11
23.0000010092632
 21
120.473814213835
 31
0.0
  0
LINE
  5
9CF
330
1F
100
AcDbEntity
  8
0
100
AcDbLine
 10
20.00000100926319
 20
120.9738142138353
 30
0.0
 11
20.00000100926319
 21
120.9476282922661
 31
0.0
  0
LINE
  5
9D0
330
1F
100
AcDbEntity
  8
0
100
AcDbLine
 10
20.00000100926319
 20
120.9738142138353
 30
0.0
 11
20.00000100926319
 21
120.9476282922654
 31
0.0
  0
LINE
  5
9D1
330
1F
100
AcDbEntity
  8
0
100
AcDbLine
 10
28.10000100926311
 20
120.9738142138353
 30
0.0
 11
28.10000100926311
 21
121.9738142138353
 31
0.0
  0
LINE
  5
9D2
330
1F
100
AcDbEntity
  8
0
100
AcDbLine
 10
29.20000100926221
 20
121.9738142138353
 30
0.0
 11
29.20000100926221
 21
126.2738142138353
 31
0.0
  0
LINE
  5
9D3
330
1F
100
AcDbEntity
  8
0
100
AcDbLine
 10
29.6000010092622
 20
126.2738142138349
 30
0.0
 11
29.6000010092622
 21
127.573814213835
 31
0.0
  0
LINE
  5
9D4
330
1F
100
AcDbEntity
  8
0
100
AcDbLine
 10
39.20000100926325
 20
107.4738142138353
 30
0.0
 11
39.20000100926325
 21
115.473814213835
 31
0.0
  0
LINE
  5
9D5
330
1F
100
AcDbEntity
  8
0
100
AcDbLine
 10
42.20000100926324
 20
105.4738142138349
 30
0.0
 11
42.20000100926324
 21
117.473814213835
 31
0.0
  0
LINE
  5
9D6
330
1F
100
AcDbEntity
  8
0
100
AcDbLine
 10
42.20000100926324
 20
105.4738142138349
 30
0.0
 11
34.0000010092632
 21
105.4738142138349
 31
0.0
  0
LINE
  5
9D7
330
1F
100
AcDbEntity
  8
0
100
AcDbLine
 10
37.20000100926324
 20
109.4738142138353
 30
0.0
 11
37.20000100926324
 21
107.4738142138353
 31
0.0
  0
LINE
  5
9D8
330
1F
100
AcDbEntity
  8
0
100
AcDbLine
 10
37.20000100926324
 20
107.4738142138353
 30
0.0
 11
39.20000100926325
 21
107.4738142138353
 31
0.0
  0
LINE
  5
9D9
330
1F
100
AcDbEntity
  8
0
100
AcDbLine
 10
34.0000010092632
 20
109.4738142138353
 30
0.0
 11
34.0000010092632
 21
105.4738142138349
 31
0.0
  0
LINE
  5
9DA
330
1F
100
AcDbEntity
  8
0
100
AcDbLine
 10
34.0000010092632
 20
109.4738142138353
 30
0.0
 11
37.20000100926324
 21
109.4738142138353
 31
0.0
  0
LINE
  5
9DC
330
1F
100
AcDbEntity
  8
0
100
AcDbLine
 10
34.0000010092632
 20
117.473814213835
 30
0.0
 11
42.20000100926324
 21
117.473814213835
 31
0.0
  0
LINE
  5
9DD
330
1F
100
AcDbEntity
  8
0
100
AcDbLine
 10
36.70000100926231
 20
121.9738142138353
 30
0.0
 11
36.70000100926231
 21
120.9738142138353
 31
0.0
  0
LINE
  5
9DE
330
1F
100
AcDbEntity
  8
0
100
AcDbLine
 10
35.1000010092622
 20
126.2738142138353
 30
0.0
 11
35.1000010092622
 21
121.9738142138353
 31
0.0
  0
LINE
  5
9DF
330
1F
100
AcDbEntity
  8
0
100
AcDbLine
 10
38.94500100926222
 20
127.573814213835
 30
0.0
 11
38.94500100926222
 21
120.9738142138353
 31
0.0
  0
LINE
  5
9E0
330
1F
100
AcDbEntity
  8
0
100
AcDbLine
 10
37.20000100926324
 20
113.4738142138352
 30
0.0
 11
37.20000100926324
 21
115.473814213835
 31
0.0
  0
LINE
  5
9E1
330
1F
100
AcDbEntity
  8
0
100
AcDbLine
 10
37.20000100926324
 20
115.473814213835
 30
0.0
 11
39.20000100926325
 21
115.473814213835
 31
0.0
  0
LINE
  5
9E2
330
1F
100
AcDbEntity
  8
0
100
AcDbLine
 10
34.0000010092632
 20
113.4738142138352
 30
0.0
 11
34.0000010092632
 21
117.473814213835
 31
0.0
  0
LINE
  5
9E3
330
1F
100
AcDbEntity
  8
0
100
AcDbLine
 10
34.0000010092632
 20
113.4738142138352
 30
0.0
 11
37.20000100926324
 21
113.4738142138352
 31
0.0
  0
LINE
  5
9E7
330
1F
100
AcDbEntity
  8
0
100
AcDbLine
 10
71.0000010092632
 20
21.97381421383532
 30
0.0
 11
71.0000010092632
 21
103.973814213835
 31
0.0
  0
LINE
  5
9E8
330
1F
100
AcDbEntity
  8
0
100
AcDbLine
 10
72.0000010092632
 20
3.585960370667292
 30
0.0
 11
72.0000010092632
 21
120.9738142138353
 31
0.0
  0
LINE
  5
9E9
330
1F
100
AcDbEntity
  8
0
100
AcDbLine
 10
72.0000010092632
 20
0.0000001354043206
 30
0.0
 11
72.0000010092632
 21
3.585960370667292
 31
0.0
  0
LINE
  5
9F1
330
1F
100
AcDbEntity
  8
0
100
AcDbLine
 10
69.0000010092632
 20
33.97381421383534
 30
0.0
 11
69.0000010092632
 21
35.97381421383532
 31
0.0
  0
LINE
  5
9F2
330
1F
100
AcDbEntity
  8
0
100
AcDbLine
 10
70.0000010092632
 20
33.97381421383534
 30
0.0
 11
70.0000010092632
 21
35.97381421383532
 31
0.0
  0
LINE
  5
9F3
330
1F
100
AcDbEntity
  8
0
100
AcDbLine
 10
69.0000010092632
 20
26.97381421383532
 30
0.0
 11
69.0000010092632
 21
28.97381421383533
 31
0.0
  0
LINE
  5
9F4
330
1F
100
AcDbEntity
  8
0
100
AcDbLine
 10
70.0000010092632
 20
26.97381421383532
 30
0.0
 11
70.0000010092632
 21
28.97381421383533
 31
0.0
  0
LINE
  5
9F6
330
1F
100
AcDbEntity
  8
0
100
AcDbLine
 10
69.0000010092632
 20
40.97381421383532
 30
0.0
 11
69.0000010092632
 21
42.97381421383533
 31
0.0
  0
LINE
  5
9F7
330
1F
100
AcDbEntity
  8
0
100
AcDbLine
 10
70.0000010092632
 20
40.97381421383532
 30
0.0
 11
70.0000010092632
 21
42.97381421383533
 31
0.0
  0
LINE
  5
A1A
330
1F
100
AcDbEntity
  8
0
100
AcDbLine
 10
55.15000100926329
 20
124.3738142138353
 30
0.0
 11
61.45000100926324
 21
124.3738142138353
 31
0.0
  0
LINE
  5
A1B
330
1F
100
AcDbEntity
  8
0
100
AcDbLine
 10
55.15000100926329
 20
120.9738142138353
 30
0.0
 11
55.15000100926329
 21
124.3738142138353
 31
0.0
  0
LINE
  5
A1C
330
1F
100
AcDbEntity
  8
0
100
AcDbLine
 10
61.45000100926324
 20
124.3738142138353
 30
0.0
 11
61.45000100926324
 21
120.9738142138353
 31
0.0
  0
LINE
  5
A22
330
1F
100
AcDbEntity
  8
0
100
AcDbLine
 10
20.00000100926319
 20
120.9738142138353
 30
0.0
 11
72.0000010092632
 21
120.9738142138353
 31
0.0
  0
LINE
  5
A23
330
1F
100
AcDbEntity
  8
0
100
AcDbLine
 10
55.15000100926329
 20
120.9738142138353
 30
0.0
 11
55.15000100926329
 21
124.3738142138353
 31
0.0
  0
LINE
  5
A24
330
1F
100
AcDbEntity
  8
0
100
AcDbLine
 10
55.15000100926329
 20
124.3738142138353
 30
0.0
 11
61.45000100926324
 21
124.3738142138353
 31
0.0
  0
LINE
  5
A25
330
1F
100
AcDbEntity
  8
0
100
AcDbLine
 10
61.45000100926324
 20
124.3738142138353
 30
0.0
 11
61.45000100926324
 21
120.9738142138353
 31
0.0
  0
LINE
  5
A78
330
1F
100
AcDbEntity
  8
2_カバ_
  6
CONTINUOUS
100
AcDbLine
 10
47.00000100926336
 20
75.9738142138354
 30
0.0
 11
30.00000100926341
 21
75.9738142138354
 31
0.0
  0
LINE
  5
A79
330
1F
100
AcDbEntity
  8
2_カバ_
  6
CONTINUOUS
100
AcDbLine
 10
47.00000100926336
 20
77.97381421383542
 30
0.0
 11
30.00000100926341
 21
77.97381421383542
 31
0.0
  0
LINE
  5
A7A
330
1F
100
AcDbEntity
  8
2_カバ_
  6
CONTINUOUS
100
AcDbLine
 10
47.00000100926336
 20
82.97381421383544
 30
0.0
 11
30.00000100926341
 21
82.97381421383544
 31
0.0
  0
LINE
  5
A7B
330
1F
100
AcDbEntity
  8
2_カバ_
  6
CONTINUOUS
100
AcDbLine
 10
47.00000100926336
 20
84.97381421383542
 30
0.0
 11
30.00000100926341
 21
84.97381421383542
 31
0.0
  0
LINE
  5
A7C
330
1F
100
AcDbEntity
  8
2_カバ_
  6
CONTINUOUS
100
AcDbLine
 10
47.00000100926336
 20
89.97381421383542
 30
0.0
 11
30.00000100926341
 21
89.97381421383542
 31
0.0
  0
LINE
  5
A7D
330
1F
100
AcDbEntity
  8
2_カバ_
  6
CONTINUOUS
100
AcDbLine
 10
47.00000100926336
 20
91.97381421383541
 30
0.0
 11
30.00000100926341
 21
91.97381421383541
 31
0.0
  0
LINE
  5
A7E
330
1F
100
AcDbEntity
  8
2_カバ_
  6
CONTINUOUS
100
AcDbLine
 10
47.00000100926336
 20
47.9738142138354
 30
0.0
 11
30.00000100926339
 21
47.9738142138354
 31
0.0
  0
LINE
  5
A7F
330
1F
100
AcDbEntity
  8
2_カバ_
  6
CONTINUOUS
100
AcDbLine
 10
47.00000100926336
 20
49.97381421383543
 30
0.0
 11
30.00000100926339
 21
49.97381421383543
 31
0.0
  0
LINE
  5
A80
330
1F
100
AcDbEntity
  8
2_カバ_
  6
CONTINUOUS
100
AcDbLine
 10
71.00000100926341
 20
54.97381421383543
 30
0.0
 11
30.00000100926339
 21
54.97381421383543
 31
0.0
  0
LINE
  5
A81
330
1F
100
AcDbEntity
  8
2_カバ_
  6
CONTINUOUS
100
AcDbLine
 10
71.00000100926341
 20
56.97381421383542
 30
0.0
 11
30.00000100926339
 21
56.97381421383542
 31
0.0
  0
LINE
  5
A82
330
1F
100
AcDbEntity
  8
2_カバ_
  6
CONTINUOUS
100
AcDbLine
 10
71.00000100926341
 20
61.97381421383542
 30
0.0
 11
30.00000100926339
 21
61.97381421383542
 31
0.0
  0
LINE
  5
A83
330
1F
100
AcDbEntity
  8
2_カバ_
  6
CONTINUOUS
100
AcDbLine
 10
71.00000100926341
 20
63.97381421383542
 30
0.0
 11
30.00000100926339
 21
63.97381421383639
 31
0.0
  0
LINE
  5
A84
330
1F
100
AcDbEntity
  8
2_カバ_
  6
CONTINUOUS
100
AcDbLine
 10
71.00000100926341
 20
68.97381421383544
 30
0.0
 11
30.00000100926339
 21
68.97381421383544
 31
0.0
  0
LINE
  5
A85
330
1F
100
AcDbEntity
  8
2_カバ_
  6
CONTINUOUS
100
AcDbLine
 10
71.00000100926341
 20
70.9738142138354
 30
0.0
 11
30.00000100926339
 21
70.9738142138354
 31
0.0
  0
LINE
  5
A86
330
1F
100
AcDbEntity
  8
2_カバ_
  6
CONTINUOUS
100
AcDbLine
 10
71.00000100926341
 20
96.97381421383541
 30
0.0
 11
30.00000100926341
 21
96.97381421383541
 31
0.0
  0
LINE
  5
A87
330
1F
100
AcDbEntity
  8
2_カバ_
  6
CONTINUOUS
100
AcDbLine
 10
71.00000100926341
 20
98.97381421383542
 30
0.0
 11
30.00000100926341
 21
98.97381421383542
 31
0.0
  0
LINE
  5
A88
330
1F
100
AcDbEntity
  8
2_カバ_
  6
CONTINUOUS
100
AcDbLine
 10
30.00000100926341
 20
103.9738142138352
 30
0.0
 11
72.0000010092632
 21
103.9738142138352
 31
0.0
  0
LINE
  5
A89
330
1F
100
AcDbEntity
  8
2_カバ_
  6
CONTINUOUS
100
AcDbLine
 10
69.0000010092634
 20
75.9738142138354
 30
0.0
 11
69.0000010092634
 21
77.97381421383637
 31
0.0
  0
LINE
  5
A8A
330
1F
100
AcDbEntity
  8
2_カバ_
  6
CONTINUOUS
100
AcDbLine
 10
70.0000010092634
 20
75.9738142138354
 30
0.0
 11
70.0000010092634
 21
77.97381421383637
 31
0.0
  0
LINE
  5
A8B
330
1F
100
AcDbEntity
  8
2_カバ_
  6
CONTINUOUS
100
AcDbLine
 10
68.5000010092634
 20
96.97381421383541
 30
0.0
 11
68.5000010092634
 21
70.97381421383637
 31
0.0
  0
LINE
  5
A8C
330
1F
100
AcDbEntity
  8
2_カバ_
  6
CONTINUOUS
100
AcDbLine
 10
47.00000100926336
 20
75.9738142138354
 30
0.0
 11
47.00000100926336
 21
77.97381421383542
 31
0.0
  0
LINE
  5
A8D
330
1F
100
AcDbEntity
  8
2_カバ_
  6
CONTINUOUS
100
AcDbLine
 10
47.50000100926338
 20
70.9738142138354
 30
0.0
 11
47.50000100926338
 21
96.97381421383541
 31
0.0
  0
LINE
  5
A8E
330
1F
100
AcDbEntity
  8
2_カバ_
  6
CONTINUOUS
100
AcDbLine
 10
53.00000100926336
 20
49.97381421383543
 30
0.0
 11
63.00000100926339
 21
49.97381421383543
 31
0.0
  0
LINE
  5
A8F
330
1F
100
AcDbEntity
  8
2_カバ_
  6
CONTINUOUS
100
AcDbLine
 10
63.00000100926339
 20
53.4738142138354
 30
0.0
 11
53.00000100926336
 21
53.4738142138354
 31
0.0
  0
LINE
  5
A90
330
1F
100
AcDbEntity
  8
2_カバ_
  6
CONTINUOUS
100
AcDbLine
 10
68.5000010092634
 20
48.97381421383542
 30
0.0
 11
47.50000100926338
 21
48.97381421383542
 31
0.0
  0
LINE
  5
A91
330
1F
100
AcDbEntity
  8
2_カバ_
  6
CONTINUOUS
100
AcDbLine
 10
47.50000100926338
 20
56.97381421383542
 30
0.0
 11
47.50000100926338
 21
61.97381421383542
 31
0.0
  0
LINE
  5
A92
330
1F
100
AcDbEntity
  8
2_カバ_
  6
CONTINUOUS
100
AcDbLine
 10
47.50000100926338
 20
48.97381421383542
 30
0.0
 11
47.50000100926338
 21
54.97381421383543
 31
0.0
  0
LINE
  5
A93
330
1F
100
AcDbEntity
  8
2_カバ_
  6
CONTINUOUS
100
AcDbLine
 10
47.00000100926336
 20
47.9738142138354
 30
0.0
 11
47.00000100926336
 21
49.97381421383543
 31
0.0
  0
ARC
  5
A94
330
1F
100
AcDbEntity
  8
2_カバ_
  6
CONTINUOUS
100
AcDbCircle
 10
53.00000100926336
 20
52.97381421383639
 30
0.0
 40
0.5
100
AcDbArc
 50
90.0
 51
180.0
  0
LINE
  5
A95
330
1F
100
AcDbEntity
  8
2_カバ_
  6
CONTINUOUS
100
AcDbLine
 10
52.50000100926339
 20
52.97381421383639
 30
0.0
 11
52.50000100926339
 21
50.47381421383541
 31
0.0
  0
ARC
  5
A96
330
1F
100
AcDbEntity
  8
2_カバ_
  6
CONTINUOUS
100
AcDbCircle
 10
53.00000100926336
 20
50.47381421383541
 30
0.0
 40
0.5
100
AcDbArc
 50
180.0
 51
270.0
  0
LINE
  5
A97
330
1F
100
AcDbEntity
  8
2_カバ_
  6
CONTINUOUS
100
AcDbLine
 10
47.50000100926338
 20
63.97381421383542
 30
0.0
 11
47.50000100926338
 21
68.97381421383544
 31
0.0
  0
LINE
  5
A98
330
1F
100
AcDbEntity
  8
2_カバ_
  6
CONTINUOUS
100
AcDbLine
 10
68.5000010092634
 20
61.97381421383542
 30
0.0
 11
68.5000010092634
 21
56.9738142138364
 31
0.0
  0
ARC
  5
A99
330
1F
100
AcDbEntity
  8
2_カバ_
  6
CONTINUOUS
100
AcDbCircle
 10
63.00000100926339
 20
52.97381421383541
 30
0.0
 40
0.5
100
AcDbArc
 50
0.0
 51
90.0
  0
LINE
  5
A9A
330
1F
100
AcDbEntity
  8
2_カバ_
  6
CONTINUOUS
100
AcDbLine
 10
63.50000100926329
 20
50.47381421383541
 30
0.0
 11
63.50000100926329
 21
52.97381421383541
 31
0.0
  0
ARC
  5
A9B
330
1F
100
AcDbEntity
  8
2_カバ_
  6
CONTINUOUS
100
AcDbCircle
 10
63.00000100926339
 20
50.47381421383541
 30
0.0
 40
0.5
100
AcDbArc
 50
270.0
 51
0.0
  0
LINE
  5
A9C
330
1F
100
AcDbEntity
  8
2_カバ_
  6
CONTINUOUS
100
AcDbLine
 10
68.5000010092634
 20
54.97381421383543
 30
0.0
 11
68.5000010092634
 21
48.97381421383542
 31
0.0
  0
LINE
  5
A9D
330
1F
100
AcDbEntity
  8
2_カバ_
  6
CONTINUOUS
100
AcDbLine
 10
71.00000100926341
 20
47.9738142138354
 30
0.0
 11
69.0000010092634
 21
47.9738142138354
 31
0.0
  0
LINE
  5
A9E
330
1F
100
AcDbEntity
  8
2_カバ_
  6
CONTINUOUS
100
AcDbLine
 10
71.00000100926341
 20
49.97381421383543
 30
0.0
 11
69.0000010092634
 21
49.97381421383543
 31
0.0
  0
LINE
  5
A9F
330
1F
100
AcDbEntity
  8
2_カバ_
  6
CONTINUOUS
100
AcDbLine
 10
69.0000010092634
 20
47.9738142138354
 30
0.0
 11
69.0000010092634
 21
49.97381421383543
 31
0.0
  0
LINE
  5
AA0
330
1F
100
AcDbEntity
  8
2_カバ_
  6
CONTINUOUS
100
AcDbLine
 10
70.0000010092634
 20
47.9738142138354
 30
0.0
 11
70.0000010092634
 21
49.97381421383543
 31
0.0
  0
LINE
  5
AA1
330
1F
100
AcDbEntity
  8
2_カバ_
  6
CONTINUOUS
100
AcDbLine
 10
69.0000010092634
 20
54.97381421383543
 30
0.0
 11
69.0000010092634
 21
56.97381421383542
 31
0.0
  0
LINE
  5
AA2
330
1F
100
AcDbEntity
  8
2_カバ_
  6
CONTINUOUS
100
AcDbLine
 10
70.0000010092634
 20
54.97381421383543
 30
0.0
 11
70.0000010092634
 21
56.97381421383542
 31
0.0
  0
LINE
  5
AA3
330
1F
100
AcDbEntity
  8
2_カバ_
  6
CONTINUOUS
100
AcDbLine
 10
69.0000010092634
 20
68.97381421383544
 30
0.0
 11
69.0000010092634
 21
70.9738142138354
 31
0.0
  0
LINE
  5
AA4
330
1F
100
AcDbEntity
  8
2_カバ_
  6
CONTINUOUS
100
AcDbLine
 10
70.0000010092634
 20
68.97381421383544
 30
0.0
 11
70.0000010092634
 21
70.9738142138354
 31
0.0
  0
LINE
  5
AA5
330
1F
100
AcDbEntity
  8
2_カバ_
  6
CONTINUOUS
100
AcDbLine
 10
69.0000010092634
 20
61.97381421383542
 30
0.0
 11
69.0000010092634
 21
63.97381421383542
 31
0.0
  0
LINE
  5
AA6
330
1F
100
AcDbEntity
  8
2_カバ_
  6
CONTINUOUS
100
AcDbLine
 10
70.0000010092634
 20
61.97381421383542
 30
0.0
 11
70.0000010092634
 21
63.97381421383542
 31
0.0
  0
LINE
  5
AA7
330
1F
100
AcDbEntity
  8
2_カバ_
  6
CONTINUOUS
100
AcDbLine
 10
68.5000010092634
 20
68.97381421383544
 30
0.0
 11
68.5000010092634
 21
63.97381421383542
 31
0.0
  0
LINE
  5
AA8
330
1F
100
AcDbEntity
  8
2_カバ_
  6
CONTINUOUS
100
AcDbLine
 10
71.00000100926341
 20
75.9738142138354
 30
0.0
 11
69.0000010092634
 21
75.9738142138354
 31
0.0
  0
CIRCLE
  5
AA9
330
1F
100
AcDbEntity
  8
2_カバ_
  6
CONTINUOUS
100
AcDbCircle
 10
49.50000100926336
 20
81.9738142138364
 30
0.0
 40
1.25
  0
LINE
  5
AAA
330
1F
100
AcDbEntity
  8
2_カバ_
  6
DASHDOT
100
AcDbLine
 10
52.16147400120942
 20
81.9738142138364
 30
0.0
 11
41.60032802817839
 21
81.9738142138364
 31
0.0
  0
LINE
  5
AAB
330
1F
100
AcDbEntity
  8
2_カバ_
  6
DASHDOT
100
AcDbLine
 10
49.50000100926336
 20
85.10321479022442
 30
0.0
 11
49.50000100926336
 21
79.01837345650438
 31
0.0
  0
LINE
  5
AAC
330
1F
100
AcDbEntity
  8
2_カバ_
  6
CONTINUOUS
100
AcDbLine
 10
47.00000100926336
 20
82.97381421383544
 30
0.0
 11
47.00000100926336
 21
84.97381421383542
 31
0.0
  0
LINE
  5
AAD
330
1F
100
AcDbEntity
  8
2_カバ_
  6
CONTINUOUS
100
AcDbLine
 10
47.00000100926336
 20
89.97381421383542
 30
0.0
 11
47.00000100926336
 21
91.97381421383541
 31
0.0
  0
LINE
  5
AAE
330
1F
100
AcDbEntity
  8
2_カバ_
  6
CONTINUOUS
100
AcDbLine
 10
47.50000100926338
 20
98.97381421383542
 30
0.0
 11
47.50000100926338
 21
103.9738142138352
 31
0.0
  0
LINE
  5
AAF
330
1F
100
AcDbEntity
  8
2_カバ_
  6
DASHDOT
100
AcDbLine
 10
62.9211111272124
 20
89.47381421383541
 30
0.0
 11
69.6696191332674
 21
89.47381421383541
 31
0.0
  0
LINE
  5
AB0
330
1F
100
AcDbEntity
  8
2_カバ_
  6
CONTINUOUS
100
AcDbLine
 10
67.0000010092634
 20
86.4738142138354
 30
0.0
 11
64.50000100926327
 21
86.4738142138354
 31
0.0
  0
LINE
  5
AB1
330
1F
100
AcDbEntity
  8
2_カバ_
  6
CONTINUOUS
100
AcDbLine
 10
67.0000010092634
 20
92.47381421383542
 30
0.0
 11
64.50000100926327
 21
92.47381421383636
 31
0.0
  0
ARC
  5
AB2
330
1F
100
AcDbEntity
  8
2_カバ_
  6
CONTINUOUS
100
AcDbCircle
 10
64.50000100926327
 20
91.9738142138364
 30
0.0
 40
0.5
100
AcDbArc
 50
89.99999999999673
 51
180.0
  0
ARC
  5
AB3
330
1F
100
AcDbEntity
  8
2_カバ_
  6
CONTINUOUS
100
AcDbCircle
 10
64.50000100926327
 20
86.97381421383541
 30
0.0
 40
0.5
100
AcDbArc
 50
180.0
 51
270.0
  0
LINE
  5
AB4
330
1F
100
AcDbEntity
  8
2_カバ_
  6
CONTINUOUS
100
AcDbLine
 10
64.0000010092634
 20
91.9738142138364
 30
0.0
 11
64.0000010092634
 21
86.97381421383541
 31
0.0
  0
LINE
  5
AB5
330
1F
100
AcDbEntity
  8
2_カバ_
  6
CONTINUOUS
100
AcDbLine
 10
71.00000100926341
 20
84.97381421383542
 30
0.0
 11
69.0000010092634
 21
84.97381421383542
 31
0.0
  0
LINE
  5
AB6
330
1F
100
AcDbEntity
  8
2_カバ_
  6
CONTINUOUS
100
AcDbLine
 10
71.00000100926341
 20
77.97381421383542
 30
0.0
 11
69.0000010092634
 21
77.97381421383542
 31
0.0
  0
LINE
  5
AB7
330
1F
100
AcDbEntity
  8
2_カバ_
  6
CONTINUOUS
100
AcDbLine
 10
71.00000100926341
 20
82.97381421383544
 30
0.0
 11
69.0000010092634
 21
82.97381421383544
 31
0.0
  0
LINE
  5
AB8
330
1F
100
AcDbEntity
  8
2_カバ_
  6
CONTINUOUS
100
AcDbLine
 10
69.0000010092634
 20
82.97381421383544
 30
0.0
 11
69.0000010092634
 21
84.97381421383542
 31
0.0
  0
LINE
  5
AB9
330
1F
100
AcDbEntity
  8
2_カバ_
  6
CONTINUOUS
100
AcDbLine
 10
70.0000010092634
 20
82.97381421383544
 30
0.0
 11
70.0000010092634
 21
84.97381421383542
 31
0.0
  0
LINE
  5
ABA
330
1F
100
AcDbEntity
  8
2_カバ_
  6
CONTINUOUS
100
AcDbLine
 10
71.00000100926341
 20
91.97381421383541
 30
0.0
 11
69.0000010092634
 21
91.97381421383541
 31
0.0
  0
LINE
  5
ABB
330
1F
100
AcDbEntity
  8
2_カバ_
  6
CONTINUOUS
100
AcDbLine
 10
71.00000100926341
 20
89.97381421383542
 30
0.0
 11
69.0000010092634
 21
89.97381421383542
 31
0.0
  0
ARC
  5
ABC
330
1F
100
AcDbEntity
  8
2_カバ_
  6
CONTINUOUS
100
AcDbCircle
 10
67.0000010092634
 20
91.97381421383541
 30
0.0
 40
0.5
100
AcDbArc
 50
0.0
 51
90.0
  0
ARC
  5
ABD
330
1F
100
AcDbEntity
  8
2_カバ_
  6
CONTINUOUS
100
AcDbCircle
 10
67.0000010092634
 20
86.97381421383541
 30
0.0
 40
0.5
100
AcDbArc
 50
270.0
 51
0.0
  0
LINE
  5
ABE
330
1F
100
AcDbEntity
  8
2_カバ_
  6
CONTINUOUS
100
AcDbLine
 10
69.0000010092634
 20
89.97381421383542
 30
0.0
 11
69.0000010092634
 21
91.97381421383541
 31
0.0
  0
LINE
  5
ABF
330
1F
100
AcDbEntity
  8
2_カバ_
  6
CONTINUOUS
100
AcDbLine
 10
67.50000100926327
 20
86.97381421383541
 30
0.0
 11
67.50000100926327
 21
91.97381421383541
 31
0.0
  0
LINE
  5
AC0
330
1F
100
AcDbEntity
  8
2_カバ_
  6
CONTINUOUS
100
AcDbLine
 10
70.0000010092634
 20
89.97381421383542
 30
0.0
 11
70.0000010092634
 21
91.97381421383541
 31
0.0
  0
LINE
  5
AC1
330
1F
100
AcDbEntity
  8
2_カバ_
  6
CONTINUOUS
100
AcDbLine
 10
68.5000010092634
 20
103.9738142138352
 30
0.0
 11
68.5000010092634
 21
98.97381421383542
 31
0.0
  0
LINE
  5
AC2
330
1F
100
AcDbEntity
  8
2_カバ_
  6
CONTINUOUS
100
AcDbLine
 10
69.0000010092634
 20
96.97381421383541
 30
0.0
 11
69.0000010092634
 21
98.97381421383542
 31
0.0
  0
LINE
  5
AC3
330
1F
100
AcDbEntity
  8
2_カバ_
  6
CONTINUOUS
100
AcDbLine
 10
70.0000010092634
 20
96.97381421383541
 30
0.0
 11
70.0000010092634
 21
98.97381421383542
 31
0.0
  0
MTEXT
  5
B71
330
1F
100
AcDbEntity
  8
0
100
AcDbMText
 10
-5.451543217812513
 20
400.7286766956438
 30
0.0
 40
10.0
 41
0.0
 71
     1
 72
     5
  1
SCON-CA-400I~750I-EC-*-1/2\PSCON-CA-100SI~750SI-EC-*-1/2
1001
ACAD
1000
MTEXTBEGIN
1070
    73
1070
     1
1070
    44
1040
1.0
1070
    74
1070
     0
1000
MTEXTEND
  0
ENDSEC
  0
SECTION
  2
OBJECTS
  0
DICTIONARY
  5
C
330
0
100
AcDbDictionary
  3
ACAD_GROUP
350
D
  3
ACAD_LAYOUT
350
1A
  3
ACAD_MLINESTYLE
350
17
  3
ACAD_PLOTSETTINGS
350
19
  3
ACAD_PLOTSTYLENAME
350
E
  3
ACDBHEADERROUNDTRIPXREC
350
B73
  3
ACDBVARIABLEDICTIONARY
350
7CA
  0
DICTIONARY
  5
480
330
2
100
AcDbDictionary
280
     1
  3
ACAD_LAYERSTATES
360
481
  0
DICTIONARY
  5
AE7
330
1F
100
AcDbDictionary
280
     1
  3
ACAD_LAYOUTSELFREF
360
B94
  0
DICTIONARY
  5
AE5
330
1B
100
AcDbDictionary
280
     1
  3
ACAD_LAYOUTSELFREF
360
B93
  0
DICTIONARY
  5
D
102
{ACAD_REACTORS
330
C
102
}
330
C
100
AcDbDictionary
  0
DICTIONARY
  5
1A
102
{ACAD_REACTORS
330
C
102
}
330
C
100
AcDbDictionary
  0
DICTIONARY
  5
17
102
{ACAD_REACTORS
330
C
102
}
330
C
100
AcDbDictionary
  3
STANDARD
350
18
  0
DICTIONARY
  5
19
102
{ACAD_REACTORS
330
C
102
}
330
C
100
AcDbDictionary
  0
ACDBDICTIONARYWDFLT
  5
E
102
{ACAD_REACTORS
330
C
102
}
330
C
100
AcDbDictionary
281
     1
  3
Normal
350
F
100
AcDbDictionaryWithDefault
340
F
  0
DICTIONARY
  5
B73
102
{ACAD_REACTORS
330
C
102
}
330
C
100
AcDbDictionary
  3
CEPSNTYPE
350
B7D
  3
FINGERPRINTGUID
350
B7E
  3
HYPERLINKBASE
350
B76
  3
INSUNITS
350
B7C
  3
LAYOUTDICT
350
B78
  3
LWETCUNION
350
B7B
  3
PLOTSETDICT
350
B79
  3
PLOTSTYLNAMDICT
350
B7A
  3
PSVPSCALE
350
B80
  3
PUCSBASE
350
B83
  3
PUCSORGBACK
350
B89
  3
PUCSORGBOTTOM
350
B85
  3
PUCSORGFRONT
350
B88
  3
PUCSORGLEFT
350
B86
  3
PUCSORGRIGHT
350
B87
  3
PUCSORGTOP
350
B84
  3
PUCSORTHOREF
350
B81
  3
PUCSORTHOVIEW
350
B82
  3
STYLESHEET
350
B77
  3
TSTACKALIGN
350
B74
  3
TSTACKSIZE
350
B75
  3
UCSBASE
350
B8C
  3
UCSORGBACK
350
B92
  3
UCSORGBOTTOM
350
B8E
  3
UCSORGFRONT
350
B91
  3
UCSORGLEFT
350
B8F
  3
UCSORGRIGHT
350
B90
  3
UCSORGTOP
350
B8D
  3
UCSORTHOREF
350
B8A
  3
UCSORTHOVIEW
350
B8B
  3
VERSIONGUID
350
B7F
  0
DICTIONARY
  5
7CA
102
{ACAD_REACTORS
330
C
102
}
330
C
100
AcDbDictionary
  3
DIMASSOC
350
7CC
  3
HIDETEXT
350
7CB
  0
DICTIONARY
  5
481
102
{ACAD_REACTORS
330
480
102
}
330
480
100
AcDbDictionary
  0
XRECORD
  5
B94
102
{ACAD_REACTORS
330
AE7
102
}
330
AE7
100
AcDbXrecord
340
1F
  0
XRECORD
  5
B93
102
{ACAD_REACTORS
330
AE5
102
}
330
AE5
100
AcDbXrecord
340
1B
  0
MLINESTYLE
  5
18
102
{ACAD_REACTORS
330
17
102
}
330
17
100
AcDbMlineStyle
  2
STANDARD
 70
     0
  3

 62
   256
 51
90.0
 52
90.0
 71
     2
 49
0.5
 62
   256
  6
BYLAYER
 49
-0.5
 62
   256
  6
BYLAYER
  0
ACDBPLACEHOLDER
  5
F
102
{ACAD_REACTORS
330
E
102
}
330
E
100
AcDbPlaceHolder
280
     0
  0
XRECORD
  5
B7D
102
{ACAD_REACTORS
330
B73
102
}
330
B73
100
AcDbXrecord
 90
        0
  0
XRECORD
  5
B7E
102
{ACAD_REACTORS
330
B73
102
}
330
B73
100
AcDbXrecord
  1
{59234AB0-AE73-4C98-BD35-D00B5BF71858}
  0
XRECORD
  5
B76
102
{ACAD_REACTORS
330
B73
102
}
330
B73
100
AcDbXrecord
  1

  0
XRECORD
  5
B7C
102
{ACAD_REACTORS
330
B73
102
}
330
B73
100
AcDbXrecord
 90
        4
  0
XRECORD
  5
B78
102
{ACAD_REACTORS
330
B73
102
}
330
B73
100
AcDbXrecord
340
1A
  0
XRECORD
  5
B7B
102
{ACAD_REACTORS
330
B73
102
}
330
B73
100
AcDbXrecord
 90
    10781
  0
XRECORD
  5
B79
102
{ACAD_REACTORS
330
B73
102
}
330
B73
100
AcDbXrecord
340
19
  0
XRECORD
  5
B7A
102
{ACAD_REACTORS
330
B73
102
}
330
B73
100
AcDbXrecord
340
E
  0
XRECORD
  5
B80
102
{ACAD_REACTORS
330
B73
102
}
330
B73
100
AcDbXrecord
 40
0.0
  0
XRECORD
  5
B83
102
{ACAD_REACTORS
330
B73
102
}
330
B73
100
AcDbXrecord
340
0
  0
XRECORD
  5
B89
102
{ACAD_REACTORS
330
B73
102
}
330
B73
100
AcDbXrecord
 10
0.0
 20
0.0
 30
0.0
  0
XRECORD
  5
B85
102
{ACAD_REACTORS
330
B73
102
}
330
B73
100
AcDbXrecord
 10
0.0
 20
0.0
 30
0.0
  0
XRECORD
  5
B88
102
{ACAD_REACTORS
330
B73
102
}
330
B73
100
AcDbXrecord
 10
0.0
 20
0.0
 30
0.0
  0
XRECORD
  5
B86
102
{ACAD_REACTORS
330
B73
102
}
330
B73
100
AcDbXrecord
 10
0.0
 20
0.0
 30
0.0
  0
XRECORD
  5
B87
102
{ACAD_REACTORS
330
B73
102
}
330
B73
100
AcDbXrecord
 10
0.0
 20
0.0
 30
0.0
  0
XRECORD
  5
B84
102
{ACAD_REACTORS
330
B73
102
}
330
B73
100
AcDbXrecord
 10
0.0
 20
0.0
 30
0.0
  0
XRECORD
  5
B81
102
{ACAD_REACTORS
330
B73
102
}
330
B73
100
AcDbXrecord
340
0
  0
XRECORD
  5
B82
102
{ACAD_REACTORS
330
B73
102
}
330
B73
100
AcDbXrecord
 70
     0
  0
XRECORD
  5
B77
102
{ACAD_REACTORS
330
B73
102
}
330
B73
100
AcDbXrecord
  1

  0
XRECORD
  5
B74
102
{ACAD_REACTORS
330
B73
102
}
330
B73
100
AcDbXrecord
 90
        1
  0
XRECORD
  5
B75
102
{ACAD_REACTORS
330
B73
102
}
330
B73
100
AcDbXrecord
 90
       70
  0
XRECORD
  5
B8C
102
{ACAD_REACTORS
330
B73
102
}
330
B73
100
AcDbXrecord
340
0
  0
XRECORD
  5
B92
102
{ACAD_REACTORS
330
B73
102
}
330
B73
100
AcDbXrecord
 10
0.0
 20
0.0
 30
0.0
  0
XRECORD
  5
B8E
102
{ACAD_REACTORS
330
B73
102
}
330
B73
100
AcDbXrecord
 10
0.0
 20
0.0
 30
0.0
  0
XRECORD
  5
B91
102
{ACAD_REACTORS
330
B73
102
}
330
B73
100
AcDbXrecord
 10
0.0
 20
0.0
 30
0.0
  0
XRECORD
  5
B8F
102
{ACAD_REACTORS
330
B73
102
}
330
B73
100
AcDbXrecord
 10
0.0
 20
0.0
 30
0.0
  0
XRECORD
  5
B90
102
{ACAD_REACTORS
330
B73
102
}
330
B73
100
AcDbXrecord
 10
0.0
 20
0.0
 30
0.0
  0
XRECORD
  5
B8D
102
{ACAD_REACTORS
330
B73
102
}
330
B73
100
AcDbXrecord
 10
0.0
 20
0.0
 30
0.0
  0
XRECORD
  5
B8A
102
{ACAD_REACTORS
330
B73
102
}
330
B73
100
AcDbXrecord
340
0
  0
XRECORD
  5
B8B
102
{ACAD_REACTORS
330
B73
102
}
330
B73
100
AcDbXrecord
 70
     0
  0
XRECORD
  5
B7F
102
{ACAD_REACTORS
330
B73
102
}
330
B73
100
AcDbXrecord
  1
{C388D0B5-C7D3-47FE-BAD2-6C40DF10AE8A}
  0
DICTIONARYVAR
  5
7CC
102
{ACAD_REACTORS
330
7CA
102
}
330
7CA
100
DictionaryVariables
280
     0
  1
2
  0
DICTIONARYVAR
  5
7CB
102
{ACAD_REACTORS
330
7CA
102
}
330
7CA
100
DictionaryVariables
280
     0
  1
1
  0
ENDSEC
  0
EOF
