  0
SECTION
  2
HEADER
  9
$ACADVER
  1
AC1015
  9
$ACADMAINTVER
 70
     6
  9
$DWGCODEPAGE
  3
ANSI_932
  9
$INSBASE
 10
0.0
 20
0.0
 30
0.0
  9
$EXTMIN
 10
-1.475082349132208
 20
-0.0251386457144918
 30
-0.0000000349181948
  9
$EXTMAX
 10
296.8913078629988
 20
411.9155691954424
 30
0.0000000814935747
  9
$LIMMIN
 10
0.0
 20
0.0
  9
$LIMMAX
 10
420.0
 20
297.0
  9
$ORTHOMODE
 70
     0
  9
$REGENMODE
 70
     1
  9
$FILLMODE
 70
     1
  9
$QTEXTMODE
 70
     0
  9
$MIRRTEXT
 70
     1
  9
$LTSCALE
 40
1.0
  9
$ATTMODE
 70
     1
  9
$TEXTSIZE
 40
2.5
  9
$TRACEWID
 40
1.0
  9
$TEXTSTYLE
  7
STANDARD
  9
$CLAYER
  8
0
  9
$CELTYPE
  6
BYLAYER
  9
$CECOLOR
 62
   256
  9
$CELTSCALE
 40
1.0
  9
$DISPSILH
 70
     0
  9
$DIMSCALE
 40
1.0
  9
$DIMASZ
 40
2.5
  9
$DIMEXO
 40
0.625
  9
$DIMDLI
 40
3.75
  9
$DIMRND
 40
0.0
  9
$DIMDLE
 40
0.0
  9
$DIMEXE
 40
1.25
  9
$DIMTP
 40
0.0
  9
$DIMTM
 40
0.0
  9
$DIMTXT
 40
2.5
  9
$DIMCEN
 40
2.5
  9
$DIMTSZ
 40
0.0
  9
$DIMTOL
 70
     0
  9
$DIMLIM
 70
     0
  9
$DIMTIH
 70
     0
  9
$DIMTOH
 70
     0
  9
$DIMSE1
 70
     0
  9
$DIMSE2
 70
     0
  9
$DIMTAD
 70
     1
  9
$DIMZIN
 70
     8
  9
$DIMBLK
  1

  9
$DIMASO
 70
     1
  9
$DIMSHO
 70
     1
  9
$DIMPOST
  1

  9
$DIMAPOST
  1

  9
$DIMALT
 70
     0
  9
$DIMALTD
 70
     3
  9
$DIMALTF
 40
0.03937007874016
  9
$DIMLFAC
 40
1.0
  9
$DIMTOFL
 70
     1
  9
$DIMTVP
 40
0.0
  9
$DIMTIX
 70
     0
  9
$DIMSOXD
 70
     0
  9
$DIMSAH
 70
     0
  9
$DIMBLK1
  1

  9
$DIMBLK2
  1

  9
$DIMSTYLE
  2
ISO-25
  9
$DIMCLRD
 70
     0
  9
$DIMCLRE
 70
     0
  9
$DIMCLRT
 70
     0
  9
$DIMTFAC
 40
1.0
  9
$DIMGAP
 40
0.625
  9
$DIMJUST
 70
     0
  9
$DIMSD1
 70
     0
  9
$DIMSD2
 70
     0
  9
$DIMTOLJ
 70
     0
  9
$DIMTZIN
 70
     8
  9
$DIMALTZ
 70
     0
  9
$DIMALTTZ
 70
     0
  9
$DIMUPT
 70
     0
  9
$DIMDEC
 70
     2
  9
$DIMTDEC
 70
     2
  9
$DIMALTU
 70
     2
  9
$DIMALTTD
 70
     3
  9
$DIMTXSTY
  7
STANDARD
  9
$DIMAUNIT
 70
     0
  9
$DIMADEC
 70
     0
  9
$DIMALTRND
 40
0.0
  9
$DIMAZIN
 70
     0
  9
$DIMDSEP
 70
    46
  9
$DIMATFIT
 70
     3
  9
$DIMFRAC
 70
     0
  9
$DIMLDRBLK
  1

  9
$DIMLUNIT
 70
     2
  9
$DIMLWD
 70
    -2
  9
$DIMLWE
 70
    -2
  9
$DIMTMOVE
 70
     0
  9
$LUNITS
 70
     2
  9
$LUPREC
 70
     4
  9
$SKETCHINC
 40
1.0
  9
$FILLETRAD
 40
10.0
  9
$AUNITS
 70
     0
  9
$AUPREC
 70
     0
  9
$MENU
  1
.
  9
$ELEVATION
 40
0.0
  9
$PELEVATION
 40
0.0
  9
$THICKNESS
 40
0.0
  9
$LIMCHECK
 70
     0
  9
$CHAMFERA
 40
10.0
  9
$CHAMFERB
 40
10.0
  9
$CHAMFERC
 40
20.0
  9
$CHAMFERD
 40
0.0
  9
$SKPOLY
 70
     0
  9
$TDCREATE
 40
2455874.794318321
  9
$TDUCREATE
 40
2455874.419318321
  9
$TDUPDATE
 40
2456843.665086805
  9
$TDUUPDATE
 40
2456843.290086805
  9
$TDINDWG
 40
0.0522246759
  9
$TDUSRTIMER
 40
0.0522237269
  9
$USRTIMER
 70
     1
  9
$ANGBASE
 50
0.0
  9
$ANGDIR
 70
     0
  9
$PDMODE
 70
     0
  9
$PDSIZE
 40
0.0
  9
$PLINEWID
 40
0.0
  9
$SPLFRAME
 70
     0
  9
$SPLINETYPE
 70
     6
  9
$SPLINESEGS
 70
     8
  9
$HANDSEED
  5
16CF
  9
$SURFTAB1
 70
     6
  9
$SURFTAB2
 70
     6
  9
$SURFTYPE
 70
     6
  9
$SURFU
 70
     6
  9
$SURFV
 70
     6
  9
$UCSBASE
  2

  9
$UCSNAME
  2

  9
$UCSORG
 10
0.0
 20
0.0
 30
0.0
  9
$UCSXDIR
 10
1.0
 20
0.0
 30
0.0
  9
$UCSYDIR
 10
0.0
 20
1.0
 30
0.0
  9
$UCSORTHOREF
  2

  9
$UCSORTHOVIEW
 70
     0
  9
$UCSORGTOP
 10
0.0
 20
0.0
 30
0.0
  9
$UCSORGBOTTOM
 10
0.0
 20
0.0
 30
0.0
  9
$UCSORGLEFT
 10
0.0
 20
0.0
 30
0.0
  9
$UCSORGRIGHT
 10
0.0
 20
0.0
 30
0.0
  9
$UCSORGFRONT
 10
0.0
 20
0.0
 30
0.0
  9
$UCSORGBACK
 10
0.0
 20
0.0
 30
0.0
  9
$PUCSBASE
  2

  9
$PUCSNAME
  2

  9
$PUCSORG
 10
0.0
 20
0.0
 30
0.0
  9
$PUCSXDIR
 10
1.0
 20
0.0
 30
0.0
  9
$PUCSYDIR
 10
0.0
 20
1.0
 30
0.0
  9
$PUCSORTHOREF
  2

  9
$PUCSORTHOVIEW
 70
     0
  9
$PUCSORGTOP
 10
0.0
 20
0.0
 30
0.0
  9
$PUCSORGBOTTOM
 10
0.0
 20
0.0
 30
0.0
  9
$PUCSORGLEFT
 10
0.0
 20
0.0
 30
0.0
  9
$PUCSORGRIGHT
 10
0.0
 20
0.0
 30
0.0
  9
$PUCSORGFRONT
 10
0.0
 20
0.0
 30
0.0
  9
$PUCSORGBACK
 10
0.0
 20
0.0
 30
0.0
  9
$USERI1
 70
     0
  9
$USERI2
 70
     0
  9
$USERI3
 70
     0
  9
$USERI4
 70
     0
  9
$USERI5
 70
     0
  9
$USERR1
 40
0.0
  9
$USERR2
 40
0.0
  9
$USERR3
 40
0.0
  9
$USERR4
 40
0.0
  9
$USERR5
 40
0.0
  9
$WORLDVIEW
 70
     1
  9
$SHADEDGE
 70
     3
  9
$SHADEDIF
 70
    70
  9
$TILEMODE
 70
     1
  9
$MAXACTVP
 70
    64
  9
$PINSBASE
 10
0.0
 20
0.0
 30
0.0
  9
$PLIMCHECK
 70
     0
  9
$PEXTMIN
 10
1.000000000000000E+20
 20
1.000000000000000E+20
 30
1.000000000000000E+20
  9
$PEXTMAX
 10
-1.000000000000000E+20
 20
-1.000000000000000E+20
 30
-1.000000000000000E+20
  9
$PLIMMIN
 10
0.0
 20
0.0
  9
$PLIMMAX
 10
420.0
 20
297.0
  9
$UNITMODE
 70
     0
  9
$VISRETAIN
 70
     1
  9
$PLINEGEN
 70
     0
  9
$PSLTSCALE
 70
     1
  9
$TREEDEPTH
 70
  3020
  9
$CMLSTYLE
  2
STANDARD
  9
$CMLJUST
 70
     0
  9
$CMLSCALE
 40
20.0
  9
$PROXYGRAPHICS
 70
     1
  9
$MEASUREMENT
 70
     1
  9
$CELWEIGHT
370
    -1
  9
$ENDCAPS
280
     0
  9
$JOINSTYLE
280
     0
  9
$LWDISPLAY
290
     0
  9
$INSUNITS
 70
     4
  9
$HYPERLINKBASE
  1

  9
$STYLESHEET
  1

  9
$XEDIT
290
     1
  9
$CEPSNTYPE
380
     0
  9
$PSTYLEMODE
290
     1
  9
$FINGERPRINTGUID
  2
{59234AB0-AE73-4C98-BD35-D00B5BF71858}
  9
$VERSIONGUID
  2
{39509C92-F7F3-4C48-B293-445DCCBE273B}
  9
$EXTNAMES
290
     1
  9
$PSVPSCALE
 40
0.0
  9
$OLESTARTUP
290
     0
  0
ENDSEC
  0
SECTION
  2
CLASSES
  0
CLASS
  1
ACDBDICTIONARYWDFLT
  2
AcDbDictionaryWithDefault
  3
AutoCAD 2000
 90
        0
280
     0
281
     0
  0
CLASS
  1
ACDBPLACEHOLDER
  2
AcDbPlaceHolder
  3
AutoCAD 2000
 90
        0
280
     0
281
     0
  0
CLASS
  1
LAYOUT
  2
AcDbLayout
  3
AutoCAD 2000
 90
        0
280
     0
281
     0
  0
CLASS
  1
DICTIONARYVAR
  2
AcDbDictionaryVar
  3
AutoCAD 2000
 90
        0
280
     0
281
     0
  0
CLASS
  1
LONG_TRANSACTION
  2
AcDbLongTransaction
  3
AutoCAD 2000
 90
    32768
280
     0
281
     0
  0
CLASS
  1
LWPOLYLINE
  2
AcDbPolyline
  3
AutoCAD 2000
 90
    32768
280
     0
281
     1
  0
CLASS
  1
HATCH
  2
AcDbHatch
  3
AutoCAD 2000
 90
    32768
280
     0
281
     1
  0
CLASS
  1
XRECORD
  2
AcDbXrecord
  3
AutoCAD 2000
 90
    32768
280
     0
281
     0
  0
CLASS
  1
LONG_TRANSACTION
  2
AcDbLongTransaction
  3
AutoCAD 2000
 90
    32768
280
     0
281
     0
  0
CLASS
  1
LWPOLYLINE
  2
AcDbPolyline
  3
AutoCAD 2000
 90
    32768
280
     0
281
     1
  0
CLASS
  1
HATCH
  2
AcDbHatch
  3
AutoCAD 2000
 90
    32768
280
     0
281
     1
  0
CLASS
  1
XRECORD
  2
AcDbXrecord
  3
AutoCAD 2000
 90
    32768
280
     0
281
     0
  0
CLASS
  1
LONG_TRANSACTION
  2
AcDbLongTransaction
  3
AutoCAD 2000
 90
    32768
280
     0
281
     0
  0
CLASS
  1
LWPOLYLINE
  2
AcDbPolyline
  3
AutoCAD 2000
 90
    32768
280
     0
281
     1
  0
CLASS
  1
HATCH
  2
AcDbHatch
  3
AutoCAD 2000
 90
    32768
280
     0
281
     1
  0
CLASS
  1
XRECORD
  2
AcDbXrecord
  3
AutoCAD 2000
 90
    32768
280
     0
281
     0
  0
CLASS
  1
LONG_TRANSACTION
  2
AcDbLongTransaction
  3
AutoCAD 2000
 90
    32768
280
     0
281
     0
  0
CLASS
  1
LWPOLYLINE
  2
AcDbPolyline
  3
AutoCAD 2000
 90
    32768
280
     0
281
     1
  0
CLASS
  1
HATCH
  2
AcDbHatch
  3
AutoCAD 2000
 90
    32768
280
     0
281
     1
  0
CLASS
  1
XRECORD
  2
AcDbXrecord
  3
AutoCAD 2000
 90
    32768
280
     0
281
     0
  0
CLASS
  1
LONG_TRANSACTION
  2
AcDbLongTransaction
  3
AutoCAD 2000
 90
    32768
280
     0
281
     0
  0
CLASS
  1
LWPOLYLINE
  2
AcDbPolyline
  3
AutoCAD 2000
 90
    32768
280
     0
281
     1
  0
CLASS
  1
HATCH
  2
AcDbHatch
  3
AutoCAD 2000
 90
    32768
280
     0
281
     1
  0
CLASS
  1
XRECORD
  2
AcDbXrecord
  3
AutoCAD 2000
 90
    32768
280
     0
281
     0
  0
CLASS
  1
LONG_TRANSACTION
  2
AcDbLongTransaction
  3
AutoCAD 2000
 90
    32768
280
     0
281
     0
  0
CLASS
  1
LWPOLYLINE
  2
AcDbPolyline
  3
AutoCAD 2000
 90
    32768
280
     0
281
     1
  0
CLASS
  1
HATCH
  2
AcDbHatch
  3
AutoCAD 2000
 90
    32768
280
     0
281
     1
  0
CLASS
  1
XRECORD
  2
AcDbXrecord
  3
AutoCAD 2000
 90
    32768
280
     0
281
     0
  0
CLASS
  1
LONG_TRANSACTION
  2
AcDbLongTransaction
  3
AutoCAD 2000
 90
    32768
280
     0
281
     0
  0
CLASS
  1
LWPOLYLINE
  2
AcDbPolyline
  3
AutoCAD 2000
 90
    32768
280
     0
281
     1
  0
CLASS
  1
HATCH
  2
AcDbHatch
  3
AutoCAD 2000
 90
    32768
280
     0
281
     1
  0
CLASS
  1
XRECORD
  2
AcDbXrecord
  3
AutoCAD 2000
 90
    32768
280
     0
281
     0
  0
CLASS
  1
LONG_TRANSACTION
  2
AcDbLongTransaction
  3
AutoCAD 2000
 90
    32768
280
     0
281
     0
  0
CLASS
  1
LWPOLYLINE
  2
AcDbPolyline
  3
AutoCAD 2000
 90
    32768
280
     0
281
     1
  0
CLASS
  1
HATCH
  2
AcDbHatch
  3
AutoCAD 2000
 90
    32768
280
     0
281
     1
  0
CLASS
  1
XRECORD
  2
AcDbXrecord
  3
AutoCAD 2000
 90
    32768
280
     0
281
     0
  0
CLASS
  1
LONG_TRANSACTION
  2
AcDbLongTransaction
  3
AutoCAD 2000
 90
    32768
280
     0
281
     0
  0
CLASS
  1
LWPOLYLINE
  2
AcDbPolyline
  3
AutoCAD 2000
 90
    32768
280
     0
281
     1
  0
CLASS
  1
HATCH
  2
AcDbHatch
  3
AutoCAD 2000
 90
    32768
280
     0
281
     1
  0
CLASS
  1
XRECORD
  2
AcDbXrecord
  3
AutoCAD 2000
 90
    32768
280
     0
281
     0
  0
ENDSEC
  0
SECTION
  2
TABLES
  0
TABLE
  2
VPORT
  5
8
330
0
100
AcDbSymbolTable
 70
     2
  0
VPORT
  5
16AE
330
8
100
AcDbSymbolTableRecord
100
AcDbViewportTableRecord
  2
*Active
 70
     0
 10
0.0
 20
0.0
 11
1.0
 21
1.0
 12
147.7081127569333
 22
205.9452152748639
 13
0.0
 23
0.0
 14
10.0
 24
10.0
 15
10.0
 25
10.0
 16
0.0
 26
0.0
 36
1.0
 17
0.0
 27
0.0
 37
0.0
 40
415.6970060889486
 41
2.319634703196347
 42
50.0
 43
0.0
 44
0.0
 50
0.0
 51
0.0
 71
     0
 72
   100
 73
     1
 74
     3
 75
     0
 76
     0
 77
     0
 78
     0
281
     0
 65
     1
110
0.0
120
0.0
130
0.0
111
1.0
121
0.0
131
0.0
112
0.0
122
1.0
132
0.0
 79
     0
146
0.0
  0
ENDTAB
  0
TABLE
  2
LTYPE
  5
5
330
0
100
AcDbSymbolTable
 70
     3
  0
LTYPE
  5
14
330
5
100
AcDbSymbolTableRecord
100
AcDbLinetypeTableRecord
  2
BYBLOCK
 70
     0
  3

 72
    65
 73
     0
 40
0.0
  0
LTYPE
  5
15
330
5
100
AcDbSymbolTableRecord
100
AcDbLinetypeTableRecord
  2
BYLAYER
 70
     0
  3

 72
    65
 73
     0
 40
0.0
  0
LTYPE
  5
16
330
5
100
AcDbSymbolTableRecord
100
AcDbLinetypeTableRecord
  2
CONTINUOUS
 70
     0
  3
Solid line
 72
    65
 73
     0
 40
0.0
  0
LTYPE
  5
47D
330
5
100
AcDbSymbolTableRecord
100
AcDbLinetypeTableRecord
  2
CENTER
 70
     0
  3
__ . __ . __ . __ . __ . __ . __ . __ . __ . __
 72
    65
 73
     4
 40
1.0
 49
0.5
 74
     0
 49
-0.25
 74
     0
 49
0.0
 74
     0
 49
-0.25
 74
     0
  0
LTYPE
  5
A26
330
5
100
AcDbSymbolTableRecord
100
AcDbLinetypeTableRecord
  2
DASHDOT
 70
     0
  3
__ . __ . __ . __ . __ . __ . __ . __ . __ . __
 72
    65
 73
     4
 40
7.5
 49
6.0
 74
     0
 49
-0.5
 74
     0
 49
0.5
 74
     0
 49
-0.5
 74
     0
  0
ENDTAB
  0
TABLE
  2
LAYER
  5
2
102
{ACAD_XDICTIONARY
360
480
102
}
330
0
100
AcDbSymbolTable
 70
     4
  0
LAYER
  5
10
330
2
100
AcDbSymbolTableRecord
100
AcDbLayerTableRecord
  2
0
 70
     0
 62
     7
  6
CONTINUOUS
370
    -3
390
F
  0
LAYER
  5
47E
330
2
100
AcDbSymbolTableRecord
100
AcDbLayerTableRecord
  2
1
 70
     0
 62
     3
  6
CONTINUOUS
370
    -3
390
F
  0
LAYER
  5
A27
330
2
100
AcDbSymbolTableRecord
100
AcDbLayerTableRecord
  2
2_カバ_
 70
     0
 62
     7
  6
CONTINUOUS
370
    -3
390
F
  0
LAYER
  5
15FC
330
2
100
AcDbSymbolTableRecord
100
AcDbLayerTableRecord
  2
Defpoints
 70
     0
 62
     7
  6
CONTINUOUS
290
     0
370
    -3
390
F
  0
ENDTAB
  0
TABLE
  2
STYLE
  5
3
330
0
100
AcDbSymbolTable
 70
     1
  0
STYLE
  5
11
330
3
100
AcDbSymbolTableRecord
100
AcDbTextStyleTableRecord
  2
STANDARD
 70
     0
 40
0.0
 41
1.0
 50
0.0
 71
     0
 42
2.5
  3
txt
  4

  0
ENDTAB
  0
TABLE
  2
VIEW
  5
6
330
0
100
AcDbSymbolTable
 70
     0
  0
ENDTAB
  0
TABLE
  2
UCS
  5
7
330
0
100
AcDbSymbolTable
 70
     0
  0
ENDTAB
  0
TABLE
  2
APPID
  5
9
330
0
100
AcDbSymbolTable
 70
     1
  0
APPID
  5
12
330
9
100
AcDbSymbolTableRecord
100
AcDbRegAppTableRecord
  2
ACAD
 70
     0
  0
ENDTAB
  0
TABLE
  2
DIMSTYLE
  5
A
330
0
100
AcDbSymbolTable
 70
     2
100
AcDbDimStyleTable
 71
     1
340
27
  0
DIMSTYLE
105
27
330
A
100
AcDbSymbolTableRecord
100
AcDbDimStyleTableRecord
  2
ISO-25
 70
     0
 41
2.5
 42
0.625
 43
3.75
 44
1.25
 73
     0
 74
     0
 77
     1
 78
     8
140
2.5
141
2.5
143
0.03937007874016
147
0.625
171
     3
172
     1
271
     2
272
     2
274
     3
283
     0
284
     8
340
11
  0
DIMSTYLE
105
47F
330
A
100
AcDbSymbolTableRecord
100
AcDbDimStyleTableRecord
  2
STANDARD
 70
     0
 41
2.5
 42
0.625
 43
3.75
 44
1.25
 73
     0
 74
     0
 77
     1
 78
     8
140
2.5
141
2.5
143
0.0394
147
0.625
171
     4
172
     1
273
     8
274
     4
340
11
  0
ENDTAB
  0
TABLE
  2
BLOCK_RECORD
  5
1
330
0
100
AcDbSymbolTable
 70
     2
  0
BLOCK_RECORD
  5
1F
102
{ACAD_XDICTIONARY
360
AE7
102
}
330
1
100
AcDbSymbolTableRecord
100
AcDbBlockTableRecord
  2
*MODEL_SPACE
340
15F7
  0
BLOCK_RECORD
  5
1B
102
{ACAD_XDICTIONARY
360
AE5
102
}
330
1
100
AcDbSymbolTableRecord
100
AcDbBlockTableRecord
  2
*PAPER_SPACE
340
15F8
  0
BLOCK_RECORD
  5
263
330
1
100
AcDbSymbolTableRecord
100
AcDbBlockTableRecord
  2
A$C5CFD6E8C
340
0
102
{BLKREFS
331
120B
331
120C
102
}
  0
BLOCK_RECORD
  5
DA4
330
1
100
AcDbSymbolTableRecord
100
AcDbBlockTableRecord
  2
A$C57E26210
340
0
102
{BLKREFS
331
1213
102
}
  0
ENDTAB
  0
ENDSEC
  0
SECTION
  2
BLOCKS
  0
BLOCK
  5
20
330
1F
100
AcDbEntity
  8
0
100
AcDbBlockBegin
  2
*MODEL_SPACE
 70
     0
 10
0.0
 20
0.0
 30
0.0
  3
*MODEL_SPACE
  1

  0
ENDBLK
  5
21
330
1F
100
AcDbEntity
  8
0
100
AcDbBlockEnd
  0
BLOCK
  5
1C
330
1B
100
AcDbEntity
 67
     1
  8
0
100
AcDbBlockBegin
  2
*PAPER_SPACE
 70
     0
 10
0.0
 20
0.0
 30
0.0
  3
*PAPER_SPACE
  1

  0
ENDBLK
  5
1D
330
1B
100
AcDbEntity
 67
     1
  8
0
100
AcDbBlockEnd
  0
BLOCK
  5
268
330
263
100
AcDbEntity
  8
0
 48
5.0
100
AcDbBlockBegin
  2
A$C5CFD6E8C
 70
     0
 10
0.0
 20
0.0
 30
0.0
  3
A$C5CFD6E8C
  1

  0
LINE
  5
264
330
263
100
AcDbEntity
  8
0
 62
     0
100
AcDbLine
 10
1.599997211020308
 20
2.70000247964549
 30
0.0
 11
1.599997211020308
 21
0.0000024796447633
 31
0.0
  0
LINE
  5
265
330
263
100
AcDbEntity
  8
0
 62
     0
100
AcDbLine
 10
-0.0000027889800549
 20
0.0000024796447633
 30
0.0
 11
-0.0000027889800549
 21
2.70000247964549
 31
0.0
  0
LINE
  5
266
330
263
100
AcDbEntity
  8
0
  6
CENTER
 62
     0
100
AcDbLine
 10
1.599997211020308
 20
2.70000247964549
 30
0.0
 11
-0.0000027889800549
 21
2.70000247964549
 31
0.0
  0
LINE
  5
267
330
263
100
AcDbEntity
  8
0
  6
CENTER
 62
     0
100
AcDbLine
 10
1.599997211020308
 20
0.0000024796447633
 30
0.0
 11
-0.0000027889800549
 21
0.0000024796447633
 31
0.0
  0
ENDBLK
  5
269
330
263
100
AcDbEntity
  8
0
 48
5.0
100
AcDbBlockEnd
  0
BLOCK
  5
ED0
330
DA4
100
AcDbEntity
  8
0
100
AcDbBlockBegin
  2
A$C57E26210
 70
     0
 10
0.0
 20
0.0
 30
0.0
  3
A$C57E26210
  1

  0
LWPOLYLINE
  5
DA5
330
DA4
100
AcDbEntity
  8
0
  6
Continuous
 62
     7
100
AcDbPolyline
 90
        6
 70
   128
 43
0.0
 10
14.01098777450738
 20
13.70000042456694
 10
14.01101385153947
 20
13.73618789452621
 10
14.01103899724899
 20
13.84311397064038
 10
14.01106181465206
 20
14.01594182911821
 10
14.01108113959549
 20
14.24685348260709
 10
14.01109627358732
 20
14.52540368277141
  0
LINE
  5
DA6
330
DA4
100
AcDbEntity
  8
0
  6
Continuous
 62
     7
100
AcDbLine
 10
12.60161499403533
 20
16.4000004946024
 30
0.0
 11
12.60161499403533
 21
11.05000050242551
 31
0.0
  0
LINE
  5
DA7
330
DA4
100
AcDbEntity
  8
0
  6
Continuous
 62
     7
100
AcDbLine
 10
9.84153018243728
 20
15.02000023114987
 30
0.0
 11
9.84153018243728
 21
12.82000047590144
 31
0.0
  0
LINE
  5
DA8
330
DA4
100
AcDbEntity
  8
0
  6
Continuous
 62
     7
100
AcDbLine
 10
9.84094903715072
 20
12.82000047590144
 30
0.0
 11
9.84094903715072
 21
15.02000023114987
 31
0.0
  0
LINE
  5
DA9
330
DA4
100
AcDbEntity
  8
0
  6
Continuous
 62
     7
100
AcDbLine
 10
8.440949087069611
 20
12.82000047590144
 30
0.0
 11
8.440949087069611
 21
15.02000023114987
 31
0.0
  0
LINE
  5
DAA
330
DA4
100
AcDbEntity
  8
0
  6
Continuous
 62
     7
100
AcDbLine
 10
10.10161504991468
 20
11.5314819334776
 30
0.0
 11
10.10161504991468
 21
15.10000037464806
 31
0.0
  0
LWPOLYLINE
  5
DAB
330
DA4
100
AcDbEntity
  8
0
  6
Continuous
 62
     7
100
AcDbPolyline
 90
        9
 70
   128
 43
0.0
 10
5.2715680273634
 20
15.04331449482151
 10
5.271541950331311
 20
14.85185645956107
 10
5.271514010654072
 20
14.69383197340675
 10
5.27148607097683
 20
14.57070600676843
 10
5.271456268654445
 20
14.48361896413871
 10
5.271426466332058
 20
14.43337783652848
 10
5.271395732687096
 20
14.4204487508864
 10
5.271365930364709
 20
14.44495091650196
 10
5.271336128042321
 20
14.50665755632826
  0
LINE
  5
DAC
330
DA4
100
AcDbEntity
  8
0
  6
Continuous
 62
     7
100
AcDbLine
 10
7.501344260798077
 20
14.397877216968
 30
0.0
 11
7.501602237151246
 21
15.0676578699381
 31
0.0
  0
LWPOLYLINE
  5
DAD
330
DA4
100
AcDbEntity
  8
0
  6
Continuous
 62
     7
100
AcDbPolyline
 90
        7
 70
   128
 43
0.0
 10
7.241400954352003
 20
14.42000031906673
 10
7.241426100061516
 20
14.43337783652848
 10
7.241455902383902
 20
14.48361896413871
 10
7.241485704706293
 20
14.57070600676843
 10
7.241514575706105
 20
14.69383197340675
 10
7.241541584060769
 20
14.85185645956107
 10
7.241555553899386
 20
14.94534448224612
  0
LINE
  5
DAE
330
DA4
100
AcDbEntity
  8
0
100
AcDbLine
 10
0.000000310167934
 20
18.10000062051676
 30
0.0
 11
0.0000003101688435
 21
0.0000001943440111
 31
0.0
  0
LINE
  5
DAF
330
DA4
100
AcDbEntity
  8
0
100
AcDbLine
 10
14.30159928746593
 20
18.10000062051721
 30
0.0
 11
14.30159928746673
 21
0.0000001943440111
 31
0.0
  0
LINE
  5
DB0
330
DA4
100
AcDbEntity
  8
0
  6
Continuous
 62
     7
100
AcDbLine
 10
3.001614538059806
 20
15.10000037464806
 30
0.0
 11
3.001614538059806
 21
3.000000440213169
 31
0.0
  0
LINE
  5
DB1
330
DA4
100
AcDbEntity
  8
0
  6
Continuous
 62
     7
100
AcDbLine
 10
1.701614883766751
 20
1.700000320258823
 30
0.0
 11
1.701614883766751
 21
16.4000004946024
 31
0.0
  0
LINE
  5
DB2
330
DA4
100
AcDbEntity
  8
0
  6
Continuous
 62
     7
100
AcDbLine
 10
1.501599391029458
 20
1.50000019434401
 30
0.0
 11
1.501599391029458
 21
16.60000062051722
 31
0.0
  0
LINE
  5
DB3
330
DA4
100
AcDbEntity
  8
0
  6
Continuous
 62
     7
100
AcDbLine
 10
12.80159928746638
 20
1.50000019434401
 30
0.0
 11
12.80159928746638
 21
16.60000062051722
 31
0.0
  0
LINE
  5
DB4
330
DA4
100
AcDbEntity
  8
0
  6
Continuous
 62
     7
100
AcDbLine
 10
1.500000310168843
 20
16.60000062051722
 30
0.0
 11
1.500000310168843
 21
1.50000019434401
 31
0.0
  0
LINE
  5
DB5
330
DA4
100
AcDbEntity
  8
0
100
AcDbLine
 10
14.30159928746673
 20
0.0000001943440111
 30
0.0
 11
0.0000003101688435
 21
0.0000001943440111
 31
0.0
  0
LWPOLYLINE
  5
DB6
330
DA4
100
AcDbEntity
  8
0
  6
Continuous
 62
     7
100
AcDbPolyline
 90
        8
 70
   128
 43
0.0
 10
12.86098786540446
 20
1.957631152752128
 10
12.86099997259793
 20
1.96641212764689
 10
12.86102372132359
 20
2.036008001002755
 10
12.86104560740408
 20
2.171743609640087
 10
12.86106469951683
 20
2.366876178118673
 10
12.86108006633934
 20
2.61171436372706
 10
12.86109077654896
 20
2.894097421947208
 10
12.86109636448441
 20
3.200000566127982
  0
LWPOLYLINE
  5
DB7
330
DA4
100
AcDbEntity
  8
0
  6
Continuous
 62
     7
100
AcDbPolyline
 90
       11
 70
   128
 43
0.0
 10
12.86093757398544
 20
1.957631152752128
 10
12.86094036795316
 20
1.938643813762155
 10
12.86096365101752
 20
1.835101232561554
 10
12.86098786540446
 20
1.80000061604687
 10
12.8610120797914
 20
1.835101232561554
 10
12.86103489719448
 20
1.938643813762155
 10
12.86105538629112
 20
2.105436236295188
 10
12.86107261575875
 20
2.327114757779326
 10
12.8610856542748
 20
2.592563111963951
 10
12.86109357051667
 20
2.888471302273956
 10
12.86109636448441
 20
3.200000566127982
  0
LWPOLYLINE
  5
DB8
330
DA4
100
AcDbEntity
  8
0
  6
Continuous
 62
     7
100
AcDbPolyline
 90
        8
 70
   128
 43
0.0
 10
13.31098779946683
 20
1.80000061604687
 10
13.3110117810231
 20
1.835101232561554
 10
13.31103483125684
 20
1.938643813762155
 10
13.31105555318413
 20
2.105436236295188
 10
13.31107254982112
 20
2.327114757779326
 10
13.31108558833715
 20
2.592563111963951
 10
13.31109373740969
 20
2.888471302273956
 10
13.31109629854677
 20
3.200000566127982
  0
LINE
  5
DB9
330
DA4
100
AcDbEntity
  8
0
  6
Continuous
 62
     7
100
AcDbLine
 10
12.60161499403533
 20
7.050000312435712
 30
0.0
 11
12.60161499403533
 21
1.700000320258823
 31
0.0
  0
LINE
  5
DBA
330
DA4
100
AcDbEntity
  8
0
  6
Continuous
 62
     7
100
AcDbLine
 10
7.753813703582864
 20
2.805033647152868
 30
0.0
 11
7.753813703582864
 21
3.000000440213169
 31
0.0
  0
LWPOLYLINE
  5
DBB
330
DA4
100
AcDbEntity
  8
0
  6
Continuous
 62
     7
100
AcDbPolyline
 90
        9
 70
   128
 43
0.0
 10
7.501602237151246
 20
3.032342944923128
 10
7.50160503111897
 20
3.022724245372501
 10
7.501607825086692
 20
3.007636354002443
 10
7.501609687731843
 20
2.987521183374608
 10
7.501611550376992
 20
2.962968726340021
 10
7.501613413022141
 20
2.934700292232718
 10
7.501614344344716
 20
2.903544292482818
 10
7.501614344344716
 20
2.870414820197311
 10
7.501615275667289
 20
2.836284176144089
  0
LINE
  5
DBC
330
DA4
100
AcDbEntity
  8
0
  6
Continuous
 62
     7
100
AcDbLine
 10
7.75377458803473
 20
2.805033647152868
 30
0.0
 11
7.75377458803473
 21
3.000000440213169
 31
0.0
  0
LWPOLYLINE
  5
DBD
330
DA4
100
AcDbEntity
  8
0
  6
Continuous
 62
     7
100
AcDbPolyline
 90
        5
 70
   128
 43
0.0
 10
5.271576409266572
 20
2.971513145300831
 10
5.271576409266572
 20
2.970420703920805
 10
5.271579203234296
 20
2.918112040194952
 10
5.271581997202018
 20
2.860760730388846
 10
5.271584791169741
 20
2.805033647152868
  0
LWPOLYLINE
  5
DBE
330
DA4
100
AcDbEntity
  8
0
  6
Continuous
 62
     7
100
AcDbPolyline
 90
        9
 70
   128
 43
0.0
 10
5.351602164135556
 20
3.032342944923128
 10
5.35160495810328
 20
3.022724245372501
 10
5.351607752071004
 20
3.007636354002443
 10
5.351609614716153
 20
2.987521183374608
 10
5.351611477361299
 20
2.962968726340021
 10
5.35161334000645
 20
2.934700292232718
 10
5.351614271329026
 20
2.903544292482818
 10
5.351615202651601
 20
2.870414820197311
 10
5.351615202651601
 20
2.836284176144089
  0
LINE
  5
DBF
330
DA4
100
AcDbEntity
  8
0
  6
Continuous
 62
     7
100
AcDbLine
 10
5.099416774736027
 20
3.000000440213169
 30
0.0
 11
5.099416774736027
 21
2.805033647152868
 31
0.0
  0
LINE
  5
DC0
330
DA4
100
AcDbEntity
  8
0
  6
Continuous
 62
     7
100
AcDbLine
 10
14.30159928746661
 20
1.520000346633878
 30
0.0
 11
13.71073077343521
 21
1.520000346633878
 31
0.0
  0
LINE
  5
DC1
330
DA4
100
AcDbEntity
  8
0
  6
Continuous
 62
     7
100
AcDbLine
 10
14.30159928746661
 20
1.760000311467138
 30
0.0
 11
13.71073077343521
 21
1.760000311467138
 31
0.0
  0
LINE
  5
DC2
330
DA4
100
AcDbEntity
  8
0
  6
Continuous
 62
     7
100
AcDbLine
 10
13.31098779946683
 20
1.80000061604687
 30
0.0
 11
14.30159928746661
 21
2.196245026731048
 31
0.0
  0
LINE
  5
DC3
330
DA4
100
AcDbEntity
  8
0
  6
Continuous
 62
     7
100
AcDbLine
 10
5.351615202651601
 20
2.836284176144089
 30
0.0
 11
7.501615275667289
 21
2.836284176144089
 31
0.0
  0
LINE
  5
DC4
330
DA4
100
AcDbEntity
  8
0
  6
Continuous
 62
     7
100
AcDbLine
 10
12.60161499403533
 20
1.700000320258823
 30
0.0
 11
1.701614883766751
 21
1.700000320258823
 31
0.0
  0
LINE
  5
DC5
330
DA4
100
AcDbEntity
  8
0
  6
Continuous
 62
     7
100
AcDbLine
 10
1.501599391029458
 20
1.50000019434401
 30
0.0
 11
12.80159928746638
 21
1.50000019434401
 31
0.0
  0
LINE
  5
DC6
330
DA4
100
AcDbEntity
  8
0
  6
Continuous
 62
     7
100
AcDbLine
 10
5.351615202651601
 20
2.836284176144089
 30
0.0
 11
5.351615202651601
 21
2.805033647152868
 31
0.0
  0
LINE
  5
DC7
330
DA4
100
AcDbEntity
  8
0
  6
Continuous
 62
     7
100
AcDbLine
 10
5.099416774736027
 20
2.805033647152868
 30
0.0
 11
5.351615202651601
 21
2.805033647152868
 31
0.0
  0
LINE
  5
DC8
330
DA4
100
AcDbEntity
  8
0
  6
Continuous
 62
     7
100
AcDbLine
 10
2.611246024296856
 20
1.50000019434401
 30
0.0
 11
3.536772978530506
 21
1.42997963789412
 31
0.0
  0
LINE
  5
DC9
330
DA4
100
AcDbEntity
  8
0
  6
Continuous
 62
     7
100
AcDbLine
 10
3.536772978530506
 20
1.229979977640595
 30
0.0
 11
2.346888248847105
 21
1.320000220719063
 31
0.0
  0
LINE
  5
DCA
330
DA4
100
AcDbEntity
  8
0
  6
Continuous
 62
     7
100
AcDbLine
 10
1.919974637256244
 20
1.50000019434401
 30
0.0
 11
1.919974637256244
 21
1.320000220719063
 31
0.0
  0
LINE
  5
DCB
330
DA4
100
AcDbEntity
  8
0
  6
Continuous
 62
     7
100
AcDbLine
 10
1.919974637256244
 20
1.320000220719063
 30
0.0
 11
2.346888248847105
 21
1.320000220719063
 31
0.0
  0
LINE
  5
DCC
330
DA4
100
AcDbEntity
  8
0
  6
Continuous
 62
     7
100
AcDbLine
 10
3.536772978530506
 20
1.229979977640595
 30
0.0
 11
3.536772978530506
 21
1.42997963789412
 31
0.0
  0
LINE
  5
DCD
330
DA4
100
AcDbEntity
  8
0
  6
Continuous
 62
     7
100
AcDbLine
 10
4.060192097948172
 20
1.45373581412741
 30
0.0
 11
3.536772978530506
 21
1.42997963789412
 31
0.0
  0
LINE
  5
DCE
330
DA4
100
AcDbEntity
  8
0
  6
Continuous
 62
     7
100
AcDbLine
 10
3.536772978530506
 20
1.229979977640595
 30
0.0
 11
4.060192097948172
 21
1.253736153873886
 31
0.0
  0
LWPOLYLINE
  5
DCF
330
DA4
100
AcDbEntity
  8
0
  6
Continuous
 62
     7
100
AcDbPolyline
 90
       10
 70
   128
 43
0.0
 10
1.701614883766751
 20
1.700000320258823
 10
1.666884933636764
 20
1.665270835790123
 10
1.633210171983819
 20
1.631596539798465
 10
1.601613190994839
 20
1.60000049013206
 10
1.573054184244254
 20
1.571442880365339
 10
1.548400213049034
 20
1.54679170313784
 10
1.528401923404316
 20
1.526795276138273
 10
1.513666537628751
 20
1.512061753007855
 10
1.504640159235574
 20
1.503038634243693
 10
1.501599391029458
 20
1.50000019434401
  0
LINE
  5
DD0
330
DA4
100
AcDbEntity
  8
0
  6
Continuous
 62
     7
100
AcDbLine
 10
1.500000310168843
 20
1.50000019434401
 30
0.0
 11
1.501599391029458
 21
1.50000019434401
 31
0.0
  0
LINE
  5
DD1
330
DA4
100
AcDbEntity
  8
0
  6
Continuous
 62
     7
100
AcDbLine
 10
11.06027566738543
 20
1.320000220719063
 30
0.0
 11
11.06027549334089
 21
0.0000001943440111
 31
0.0
  0
LINE
  5
DD2
330
DA4
100
AcDbEntity
  8
0
  6
Continuous
 62
     7
100
AcDbLine
 10
11.06131595470124
 20
1.50000019434401
 30
0.0
 11
11.06131595470124
 21
0.0000001943440111
 31
0.0
  0
LINE
  5
DD3
330
DA4
100
AcDbEntity
  8
0
  6
Continuous
 62
     7
100
AcDbLine
 10
9.120715380684712
 20
1.320000220719063
 30
0.0
 11
11.06071525164065
 21
1.320000220719063
 31
0.0
  0
LINE
  5
DD4
330
DA4
100
AcDbEntity
  8
0
  6
Continuous
 62
     7
100
AcDbLine
 10
8.820692141578772
 20
1.50000019434401
 30
0.0
 11
8.820692141578772
 21
1.320000220719063
 31
0.0
  0
LINE
  5
DD5
330
DA4
100
AcDbEntity
  8
0
  6
Continuous
 62
     7
100
AcDbLine
 10
9.120715380684712
 20
1.320000220719063
 30
0.0
 11
8.820692141578772
 21
1.320000220719063
 31
0.0
  0
LINE
  5
DD6
330
DA4
100
AcDbEntity
  8
0
  6
Continuous
 62
     7
100
AcDbLine
 10
9.120715380684712
 20
1.50000019434401
 30
0.0
 11
9.120715380684712
 21
1.320000220719063
 31
0.0
  0
LINE
  5
DD7
330
DA4
100
AcDbEntity
  8
0
  6
Continuous
 62
     7
100
AcDbLine
 10
12.7603389034432
 20
0.0000001943440111
 30
0.0
 11
12.7603389034432
 21
0.1890975466699274
 31
0.0
  0
LINE
  5
DD8
330
DA4
100
AcDbEntity
  8
0
  6
Continuous
 62
     7
100
AcDbLine
 10
12.6613160306972
 20
0.0000001943440111
 30
0.0
 11
12.6613160306972
 21
1.50000019434401
 31
0.0
  0
LINE
  5
DD9
330
DA4
100
AcDbEntity
  8
0
  6
Continuous
 62
     7
100
AcDbLine
 10
12.80159928746638
 20
1.957631152752128
 30
0.0
 11
12.86098786540446
 21
1.957631152752128
 31
0.0
  0
LINE
  5
DDA
330
DA4
100
AcDbEntity
  8
0
  6
Continuous
 62
     7
100
AcDbLine
 10
12.86098786540446
 20
1.80000061604687
 30
0.0
 11
13.31098779946683
 21
1.80000061604687
 31
0.0
  0
LINE
  5
DDB
330
DA4
100
AcDbEntity
  8
0
  6
Continuous
 62
     7
100
AcDbLine
 10
13.61069206059096
 20
1.320000220719063
 30
0.0
 11
13.61069206059096
 21
1.520000346633878
 31
0.0
  0
LINE
  5
DDC
330
DA4
100
AcDbEntity
  8
0
  6
Continuous
 62
     7
100
AcDbLine
 10
13.71073077343521
 20
1.520000346633878
 30
0.0
 11
13.71073077343521
 21
1.760000311467138
 31
0.0
  0
LINE
  5
DDD
330
DA4
100
AcDbEntity
  8
0
  6
Continuous
 62
     7
100
AcDbLine
 10
13.71073077343521
 20
1.760000311467138
 30
0.0
 11
12.80159928746638
 21
1.760000311467138
 31
0.0
  0
LINE
  5
DDE
330
DA4
100
AcDbEntity
  8
0
  6
Continuous
 62
     7
100
AcDbLine
 10
13.71073077343521
 20
1.520000346633878
 30
0.0
 11
12.80159928746638
 21
1.520000346633878
 31
0.0
  0
LINE
  5
DDF
330
DA4
100
AcDbEntity
  8
0
  6
Continuous
 62
     7
100
AcDbLine
 10
13.31071538761374
 20
1.520000346633878
 30
0.0
 11
13.31071538761374
 21
1.320000220719063
 31
0.0
  0
LINE
  5
DE0
330
DA4
100
AcDbEntity
  8
0
  6
Continuous
 62
     7
100
AcDbLine
 10
12.6613160306972
 20
1.320000220719063
 30
0.0
 11
13.31071538761374
 21
1.320000220719063
 31
0.0
  0
LINE
  5
DE1
330
DA4
100
AcDbEntity
  8
0
  6
Continuous
 62
     7
100
AcDbLine
 10
13.31071538761374
 20
1.320000220719063
 30
0.0
 11
13.61069206059096
 21
1.320000220719063
 31
0.0
  0
LINE
  5
DE2
330
DA4
100
AcDbEntity
  8
0
  6
Continuous
 62
     7
100
AcDbLine
 10
12.6613160306972
 20
0.1890975466699274
 30
0.0
 11
12.7603389034432
 21
0.1890975466699274
 31
0.0
  0
LINE
  5
DE3
330
DA4
100
AcDbEntity
  8
0
  6
Continuous
 62
     7
100
AcDbLine
 10
12.6613160306972
 20
0.5318168035478266
 30
0.0
 11
12.76031468905626
 21
0.5318168035478266
 31
0.0
  0
LWPOLYLINE
  5
DE4
330
DA4
100
AcDbEntity
  8
0
  6
Continuous
 62
     7
100
AcDbPolyline
 90
        9
 70
   128
 43
0.0
 10
12.7603389034432
 20
0.1890975466699274
 10
12.76033424683032
 20
0.197316468390909
 10
12.76032912455616
 20
0.2181734374494226
 10
12.76032493360458
 20
0.2508293322057398
 10
12.76032120831428
 20
0.2939672625393541
 10
12.76031841434655
 20
0.3458503118486078
 10
12.76031608604012
 20
0.4043867296309145
 10
12.76031515471752
 20
0.4672202697724971
 10
12.76031468905626
 20
0.5318168035478266
  0
LINE
  5
DE5
330
DA4
100
AcDbEntity
  8
0
  6
Continuous
 62
     7
100
AcDbLine
 10
12.76031468905626
 20
0.5318168035478266
 30
0.0
 11
12.76031468905626
 21
0.9427368125648172
 31
0.0
  0
LINE
  5
DE6
330
DA4
100
AcDbEntity
  8
0
  6
Continuous
 62
     7
100
AcDbLine
 10
12.76030304752407
 20
1.092736557754959
 30
0.0
 11
12.6613160306972
 21
1.092736557754959
 31
0.0
  0
LWPOLYLINE
  5
DE7
330
DA4
100
AcDbEntity
  8
0
  6
Continuous
 62
     7
100
AcDbPolyline
 90
        9
 70
   128
 43
0.0
 10
12.76031468905626
 20
0.9427368125648172
 10
12.76031468905626
 20
0.97199989918181
 10
12.76031375773367
 20
1.000138879451242
 10
12.76031282641111
 20
1.02607155654141
 10
12.76031142942724
 20
1.04880234662005
 10
12.76030956678209
 20
1.067456737789598
 10
12.76030770413695
 20
1.081318542990175
 10
12.76030537583051
 20
1.089854114386525
 10
12.76030304752407
 20
1.092736557754959
  0
LWPOLYLINE
  5
DE8
330
DA4
100
AcDbEntity
  8
0
  6
Continuous
 62
     7
100
AcDbPolyline
 90
        9
 70
   128
 43
0.0
 10
12.80159928746638
 20
1.50000019434401
 10
12.79775944449125
 20
1.503843296948159
 10
12.78638147659717
 20
1.515224524471249
 10
12.76790217407165
 20
1.533706620964494
 10
12.74303167037783
 20
1.558578987303462
 10
12.71272643379983
 20
1.588886552187885
 10
12.67815061755594
 20
1.623463765415635
 10
12.64063275329886
 20
1.660982560995307
 10
12.60161499403533
 20
1.700000320258823
  0
LINE
  5
DE9
330
DA4
100
AcDbEntity
  8
0
  6
Continuous
 62
     7
100
AcDbLine
 10
12.76031468905626
 20
0.9427368125648172
 30
0.0
 11
12.6613160306972
 21
0.9427368125648172
 31
0.0
  0
LINE
  5
DEA
330
DA4
100
AcDbEntity
  8
0
  6
Continuous
 62
     7
100
AcDbLine
 10
7.501615275667289
 20
2.836284176144089
 30
0.0
 11
7.501615275667289
 21
2.805033647152868
 31
0.0
  0
LINE
  5
DEB
330
DA4
100
AcDbEntity
  8
0
  6
Continuous
 62
     7
100
AcDbLine
 10
7.501615275667289
 20
2.805033647152868
 30
0.0
 11
7.753813703582864
 21
2.805033647152868
 31
0.0
  0
LINE
  5
DEC
330
DA4
100
AcDbEntity
  8
0
  6
Continuous
 62
     7
100
AcDbLine
 10
14.26027558654664
 20
1.092736557754959
 30
0.0
 11
14.30159928746673
 21
1.092736557754959
 31
0.0
  0
LINE
  5
DED
330
DA4
100
AcDbEntity
  8
0
  6
Continuous
 62
     7
100
AcDbLine
 10
14.26027558654664
 20
1.520000346633878
 30
0.0
 11
14.26027544037424
 21
0.0000001944299584
 31
0.0
  0
LINE
  5
DEE
330
DA4
100
AcDbEntity
  8
0
  6
Continuous
 62
     7
100
AcDbLine
 10
14.26027558654664
 20
2.179715730878793
 30
0.0
 11
14.26027558654664
 21
1.760000311467138
 31
0.0
  0
LINE
  5
DEF
330
DA4
100
AcDbEntity
  8
0
  6
Continuous
 62
     7
100
AcDbLine
 10
13.46080779940007
 20
9.435000399523687
 30
0.0
 11
14.30159928746626
 21
9.435000399523687
 31
0.0
  0
LINE
  5
DF0
330
DA4
100
AcDbEntity
  8
0
  6
Continuous
 62
     7
100
AcDbLine
 10
14.30159928746626
 20
9.935000394168582
 30
0.0
 11
13.46080779940007
 21
9.935000394168582
 31
0.0
  0
LINE
  5
DF1
330
DA4
100
AcDbEntity
  8
0
  6
Continuous
 62
     7
100
AcDbLine
 10
12.80159928746638
 20
11.97500032808193
 30
0.0
 11
14.30159928746616
 21
11.97500032808193
 31
0.0
  0
LINE
  5
DF2
330
DA4
100
AcDbEntity
  8
0
  6
Continuous
 62
     7
100
AcDbLine
 10
14.30159928746616
 20
12.47500041003831
 30
0.0
 11
12.80159928746638
 21
12.47500041003831
 31
0.0
  0
LINE
  5
DF3
330
DA4
100
AcDbEntity
  8
0
  6
Continuous
 62
     7
100
AcDbLine
 10
14.01098777450738
 20
13.70000042456694
 30
0.0
 11
14.30159928746603
 21
13.99061193752547
 31
0.0
  0
LINE
  5
DF4
330
DA4
100
AcDbEntity
  8
0
  6
Continuous
 62
     7
100
AcDbLine
 10
14.30159928746661
 20
3.200000566127982
 30
0.0
 11
13.31109629854677
 21
3.200000566127982
 31
0.0
  0
LINE
  5
DF5
330
DA4
100
AcDbEntity
  8
0
  6
Continuous
 62
     7
100
AcDbLine
 10
14.01109627358732
 20
3.574597132089817
 30
0.0
 11
14.30159928746661
 21
3.574597132089817
 31
0.0
  0
LINE
  5
DF6
330
DA4
100
AcDbEntity
  8
0
  6
Continuous
 62
     7
100
AcDbLine
 10
14.30159928746661
 20
4.109388877334819
 30
0.0
 11
14.01098777450738
 21
4.400000390294278
 31
0.0
  0
LINE
  5
DF7
330
DA4
100
AcDbEntity
  8
0
  6
Continuous
 62
     7
100
AcDbLine
 10
12.80159928746638
 20
4.855000362429108
 30
0.0
 11
14.30159928746649
 21
4.855000362429108
 31
0.0
  0
LINE
  5
DF8
330
DA4
100
AcDbEntity
  8
0
  6
Continuous
 62
     7
100
AcDbLine
 10
14.30159928746638
 20
6.895000296342457
 30
0.0
 11
13.36083241649089
 21
6.895000296342457
 31
0.0
  0
LINE
  5
DF9
330
DA4
100
AcDbEntity
  8
0
  6
Continuous
 62
     7
100
AcDbLine
 10
14.30159928746638
 20
7.395000378298846
 30
0.0
 11
13.36083241649089
 21
7.395000378298846
 31
0.0
  0
LINE
  5
DFA
330
DA4
100
AcDbEntity
  8
0
  6
Continuous
 62
     7
100
AcDbLine
 10
3.472384129689316
 20
8.15000042289057
 30
0.0
 11
3.472384129689316
 21
8.850000412483041
 31
0.0
  0
LINE
  5
DFB
330
DA4
100
AcDbEntity
  8
0
  6
Continuous
 62
     7
100
AcDbLine
 10
12.46080786831794
 20
10.70057968113133
 30
0.0
 11
12.46080786831794
 21
7.399421133729902
 31
0.0
  0
LINE
  5
DFC
330
DA4
100
AcDbEntity
  8
0
  6
Continuous
 62
     7
100
AcDbLine
 10
12.46076130218921
 20
7.399421133729902
 30
0.0
 11
12.46076130218921
 21
10.70057968113133
 31
0.0
  0
LINE
  5
DFD
330
DA4
100
AcDbEntity
  8
0
  6
Continuous
 62
     7
100
AcDbLine
 10
13.46080779940007
 20
7.399421133729902
 30
0.0
 11
13.46080779940007
 21
10.70057968113133
 31
0.0
  0
LINE
  5
DFE
330
DA4
100
AcDbEntity
  8
0
  6
Continuous
 62
     7
100
AcDbLine
 10
12.60161499403533
 20
11.05000050242551
 30
0.0
 11
12.60161499403533
 21
7.050000312435712
 31
0.0
  0
LINE
  5
DFF
330
DA4
100
AcDbEntity
  8
0
  6
Continuous
 62
     7
100
AcDbLine
 10
13.36083241649089
 20
11.55000035155126
 30
0.0
 11
13.36083241649089
 21
6.550000463309967
 31
0.0
  0
LINE
  5
E00
330
DA4
100
AcDbEntity
  8
0
  6
Continuous
 62
     7
100
AcDbLine
 10
7.501602237151246
 20
3.032342944923128
 30
0.0
 11
5.351602164135556
 21
3.032342944923128
 31
0.0
  0
LINE
  5
E01
330
DA4
100
AcDbEntity
  8
0
  6
Continuous
 62
     7
100
AcDbLine
 10
5.351344187782386
 20
3.702123597893205
 30
0.0
 11
7.501344260798077
 21
3.702123597893205
 31
0.0
  0
LINE
  5
E02
330
DA4
100
AcDbEntity
  8
0
  6
Continuous
 62
     7
100
AcDbLine
 10
3.472384129689316
 20
8.15000042289057
 30
0.0
 11
3.00145900718985
 21
8.15000042289057
 31
0.0
  0
LWPOLYLINE
  5
E03
330
DA4
100
AcDbEntity
  8
0
  6
Continuous
 62
     7
100
AcDbPolyline
 90
        7
 70
   128
 43
0.0
 10
7.241555553899386
 20
3.154656332615103
 10
7.241541584060769
 20
3.248144355300154
 10
7.241514575706105
 20
3.406168841454473
 10
7.241485704706293
 20
3.529294808092798
 10
7.241455902383902
 20
3.616381850722517
 10
7.241426100061516
 20
3.666622978332725
 10
7.241400954352003
 20
3.680000495794502
  0
LINE
  5
E04
330
DA4
100
AcDbEntity
  8
0
  6
Continuous
 62
     7
100
AcDbLine
 10
7.241400954352003
 20
3.680000495794502
 30
0.0
 11
5.271400389299968
 21
3.680000495794502
 31
0.0
  0
LINE
  5
E05
330
DA4
100
AcDbEntity
  8
0
  6
Continuous
 62
     7
100
AcDbLine
 10
3.00145900718985
 20
7.750000403891588
 30
0.0
 11
3.472384129689316
 21
7.750000403891588
 31
0.0
  0
LINE
  5
E06
330
DA4
100
AcDbEntity
  8
0
  6
Continuous
 62
     7
100
AcDbLine
 10
3.472384129689316
 20
7.050000312435712
 30
0.0
 11
3.00145900718985
 21
7.050000312435712
 31
0.0
  0
LINE
  5
E07
330
DA4
100
AcDbEntity
  8
0
  6
Continuous
 62
     7
100
AcDbLine
 10
3.472384129689316
 20
5.950000318396177
 30
0.0
 11
3.00145900718985
 21
5.950000318396177
 31
0.0
  0
LINE
  5
E08
330
DA4
100
AcDbEntity
  8
0
  6
Continuous
 62
     7
100
AcDbLine
 10
3.00145900718985
 20
6.650000293436732
 30
0.0
 11
3.472384129689316
 21
6.650000293436732
 31
0.0
  0
LINE
  5
E09
330
DA4
100
AcDbEntity
  8
0
  6
Continuous
 62
     7
100
AcDbLine
 10
3.00145900718985
 20
5.550000299397196
 30
0.0
 11
3.472384129689316
 21
5.550000299397196
 31
0.0
  0
LINE
  5
E0A
330
DA4
100
AcDbEntity
  8
0
  6
Continuous
 62
     7
100
AcDbLine
 10
3.00145900718985
 20
4.850000557187286
 30
0.0
 11
3.472384129689316
 21
4.850000557187286
 31
0.0
  0
LINE
  5
E0B
330
DA4
100
AcDbEntity
  8
0
  6
Continuous
 62
     7
100
AcDbLine
 10
3.472384129689316
 20
7.050000312435712
 30
0.0
 11
3.472384129689316
 21
7.750000403891588
 31
0.0
  0
LINE
  5
E0C
330
DA4
100
AcDbEntity
  8
0
  6
Continuous
 62
     7
100
AcDbLine
 10
3.472384129689316
 20
5.950000318396177
 30
0.0
 11
3.472384129689316
 21
6.650000293436732
 31
0.0
  0
LINE
  5
E0D
330
DA4
100
AcDbEntity
  8
0
  6
Continuous
 62
     7
100
AcDbLine
 10
3.472384129689316
 20
4.850000557187286
 30
0.0
 11
3.472384129689316
 21
5.550000299397196
 31
0.0
  0
LWPOLYLINE
  5
E0E
330
DA4
100
AcDbEntity
  8
0
  6
Continuous
 62
     7
100
AcDbPolyline
 90
        9
 70
   128
 43
0.0
 10
5.271538225041011
 20
3.000000440213169
 10
5.271532637105565
 20
3.036639601621118
 10
5.271506560073476
 20
3.186994180712189
 10
5.271479551718811
 20
3.303336393717017
 10
5.271450680718999
 20
3.384550516191211
 10
5.271422741041758
 20
3.429857962462391
 10
5.271393870041947
 20
3.438823804888214
 10
5.27136499904213
 20
3.411362827453102
 10
5.271336128042321
 20
3.347738128784383
  0
LINE
  5
E0F
330
DA4
100
AcDbEntity
  8
0
  6
Continuous
 62
     7
100
AcDbLine
 10
5.271336128042321
 20
3.347738128784383
 30
0.0
 11
5.271336128042321
 21
3.593343258532968
 31
0.0
  0
LWPOLYLINE
  5
E10
330
DA4
100
AcDbEntity
  8
0
  6
Continuous
 62
     7
100
AcDbPolyline
 90
        9
 70
   128
 43
0.0
 10
5.271336128042321
 20
3.593343258532968
 10
5.271365930364709
 20
3.655049898359266
 10
5.271395732687096
 20
3.679552063974823
 10
5.271426466332058
 20
3.666622978332725
 10
5.271456268654445
 20
3.616381850722517
 10
5.27148607097683
 20
3.529294808092798
 10
5.271514010654072
 20
3.406168841454473
 10
5.271541950331311
 20
3.248144355300154
 10
5.2715680273634
 20
3.056686320039716
  0
LWPOLYLINE
  5
E11
330
DA4
100
AcDbEntity
  8
0
  6
Continuous
 62
     7
100
AcDbPolyline
 90
        3
 70
   128
 43
0.0
 10
5.2715680273634
 20
3.056686320039716
 10
5.271572683976273
 20
3.01685737881371
 10
5.271573615298846
 20
3.000000440213169
  0
LINE
  5
E12
330
DA4
100
AcDbEntity
  8
0
  6
Continuous
 62
     7
100
AcDbLine
 10
5.271465581880191
 20
3.347738128784383
 30
0.0
 11
5.271336128042321
 21
3.347738128784383
 31
0.0
  0
LINE
  5
E13
330
DA4
100
AcDbEntity
  8
0
  6
Continuous
 62
     7
100
AcDbLine
 10
5.351576087103467
 20
2.971513145300831
 30
0.0
 11
5.351576087103467
 21
3.000000440213169
 31
0.0
  0
LINE
  5
E14
330
DA4
100
AcDbEntity
  8
0
  6
Continuous
 62
     7
100
AcDbLine
 10
5.351602164135556
 20
3.032342944923128
 30
0.0
 11
5.351555598006825
 21
3.154656332615103
 31
0.0
  0
LINE
  5
E15
330
DA4
100
AcDbEntity
  8
0
  6
Continuous
 62
     7
100
AcDbLine
 10
5.351567705200293
 20
3.056686320039716
 30
0.0
 11
5.2715680273634
 21
3.056686320039716
 31
0.0
  0
LINE
  5
E16
330
DA4
100
AcDbEntity
  8
0
  6
Continuous
 62
     7
100
AcDbLine
 10
5.351257574782948
 20
3.680000495794502
 30
0.0
 11
5.351257574782948
 21
3.702123597893205
 31
0.0
  0
LINE
  5
E17
330
DA4
100
AcDbEntity
  8
0
  6
Continuous
 62
     7
100
AcDbLine
 10
5.351257574782948
 20
3.702123597893205
 30
0.0
 11
5.351344187782386
 21
3.702123597893205
 31
0.0
  0
LINE
  5
E18
330
DA4
100
AcDbEntity
  8
0
  6
Continuous
 62
     7
100
AcDbLine
 10
5.351353501008134
 20
3.680000495794502
 30
0.0
 11
5.351344187782386
 21
3.702123597893205
 31
0.0
  0
LINE
  5
E19
330
DA4
100
AcDbEntity
  8
0
  6
Continuous
 62
     7
100
AcDbLine
 10
4.671529931054691
 20
3.080000583711353
 30
0.0
 11
3.001614538059806
 21
3.080000583711353
 31
0.0
  0
LINE
  5
E1A
330
DA4
100
AcDbEntity
  8
0
  6
Continuous
 62
     7
100
AcDbLine
 10
3.001614538059806
 20
3.000000440213169
 30
0.0
 11
5.099416774736027
 21
3.000000440213169
 31
0.0
  0
LINE
  5
E1B
330
DA4
100
AcDbEntity
  8
0
  6
Continuous
 62
     7
100
AcDbLine
 10
4.671529931054691
 20
3.000000440213169
 30
0.0
 11
4.671529931054691
 21
3.080000583711353
 31
0.0
  0
LINE
  5
E1C
330
DA4
100
AcDbEntity
  8
0
  6
Continuous
 62
     7
100
AcDbLine
 10
5.351576087103467
 20
3.000000440213169
 30
0.0
 11
5.099416774736027
 21
3.000000440213169
 31
0.0
  0
LINE
  5
E1D
330
DA4
100
AcDbEntity
  8
0
  6
Continuous
 62
     7
100
AcDbLine
 10
11.0607613521081
 20
7.399421133729902
 30
0.0
 11
11.76075504072126
 21
7.399421133729902
 31
0.0
  0
LINE
  5
E1E
330
DA4
100
AcDbEntity
  8
0
  6
Continuous
 62
     7
100
AcDbLine
 10
10.10076102711374
 20
5.28000033895978
 30
0.0
 11
10.10076102711374
 21
6.56851888138362
 31
0.0
  0
LINE
  5
E1F
330
DA4
100
AcDbEntity
  8
0
  6
Continuous
 62
     7
100
AcDbLine
 10
10.10161504991468
 20
6.56851888138362
 30
0.0
 11
10.10076102711374
 21
6.56851888138362
 31
0.0
  0
LINE
  5
E20
330
DA4
100
AcDbEntity
  8
0
  6
Continuous
 62
     7
100
AcDbLine
 10
11.76083234049497
 20
6.56851888138362
 30
0.0
 11
11.76083234049497
 21
7.550000394392098
 31
0.0
  0
LINE
  5
E21
330
DA4
100
AcDbEntity
  8
0
  6
Continuous
 62
     7
100
AcDbLine
 10
11.76075504072126
 20
6.56851888138362
 30
0.0
 11
11.76075504072126
 21
7.399421133729902
 31
0.0
  0
LINE
  5
E22
330
DA4
100
AcDbEntity
  8
0
  6
Continuous
 62
     7
100
AcDbLine
 10
11.0607613521081
 20
6.56851888138362
 30
0.0
 11
11.0607613521081
 21
7.399421133729902
 31
0.0
  0
LINE
  5
E23
330
DA4
100
AcDbEntity
  8
0
  6
Continuous
 62
     7
100
AcDbLine
 10
9.84153018243728
 20
5.28000033895978
 30
0.0
 11
9.84153018243728
 21
3.080000583711353
 31
0.0
  0
LINE
  5
E24
330
DA4
100
AcDbEntity
  8
0
  6
Continuous
 62
     7
100
AcDbLine
 10
9.84094903715072
 20
3.080000583711353
 30
0.0
 11
9.84094903715072
 21
5.28000033895978
 31
0.0
  0
LINE
  5
E25
330
DA4
100
AcDbEntity
  8
0
  6
Continuous
 62
     7
100
AcDbLine
 10
8.440949087069611
 20
3.080000583711353
 30
0.0
 11
8.440949087069611
 21
5.28000033895978
 31
0.0
  0
LINE
  5
E26
330
DA4
100
AcDbEntity
  8
0
  6
Continuous
 62
     7
100
AcDbLine
 10
10.10161504991468
 20
3.000000440213169
 30
0.0
 11
10.10161504991468
 21
6.56851888138362
 31
0.0
  0
LINE
  5
E27
330
DA4
100
AcDbEntity
  8
0
  6
Continuous
 62
     7
100
AcDbLine
 10
11.76083234049497
 20
7.550000394392098
 30
0.0
 11
12.01083238147315
 21
7.550000394392098
 31
0.0
  0
LINE
  5
E28
330
DA4
100
AcDbEntity
  8
0
  6
Continuous
 62
     7
100
AcDbLine
 10
10.10161504991468
 20
6.56851888138362
 30
0.0
 11
11.90161478616414
 21
6.56851888138362
 31
0.0
  0
LINE
  5
E29
330
DA4
100
AcDbEntity
  8
0
  6
Continuous
 62
     7
100
AcDbLine
 10
12.16082095079241
 20
7.550000394392098
 30
0.0
 11
12.16082095079241
 21
7.050000312435712
 31
0.0
  0
LINE
  5
E2A
330
DA4
100
AcDbEntity
  8
0
  6
Continuous
 62
     7
100
AcDbLine
 10
12.52222579814611
 20
7.550000394392098
 30
0.0
 11
12.60081591926631
 21
7.550000394392098
 31
0.0
  0
LINE
  5
E2B
330
DA4
100
AcDbEntity
  8
0
  6
Continuous
 62
     7
100
AcDbLine
 10
12.60078471996006
 20
7.050000312435712
 30
0.0
 11
12.60078471996006
 21
7.399421133729902
 31
0.0
  0
LINE
  5
E2C
330
DA4
100
AcDbEntity
  8
0
  6
Continuous
 62
     7
100
AcDbLine
 10
12.60080800302444
 20
7.399421133729902
 30
0.0
 11
12.60080800302444
 21
7.550000394392098
 31
0.0
  0
LINE
  5
E2D
330
DA4
100
AcDbEntity
  8
0
  6
Continuous
 62
     7
100
AcDbLine
 10
12.46080786831794
 20
7.399421133729902
 30
0.0
 11
12.60080800302444
 21
7.399421133729902
 31
0.0
  0
LINE
  5
E2E
330
DA4
100
AcDbEntity
  8
0
  6
Continuous
 62
     7
100
AcDbLine
 10
12.46076130218921
 20
7.399421133729902
 30
0.0
 11
12.46080786831794
 21
7.399421133729902
 31
0.0
  0
LINE
  5
E2F
330
DA4
100
AcDbEntity
  8
0
  6
Continuous
 62
     7
100
AcDbLine
 10
13.36083241649089
 20
7.399421133729902
 30
0.0
 11
13.46080779940007
 21
7.399421133729902
 31
0.0
  0
LINE
  5
E30
330
DA4
100
AcDbEntity
  8
0
  6
Continuous
 62
     7
100
AcDbLine
 10
12.16082095079241
 20
7.399421133729902
 30
0.0
 11
12.46076130218921
 21
7.399421133729902
 31
0.0
  0
LINE
  5
E31
330
DA4
100
AcDbEntity
  8
0
  6
Continuous
 62
     7
100
AcDbLine
 10
12.80159928746638
 20
6.550000463309967
 30
0.0
 11
13.36083241649089
 21
6.550000463309967
 31
0.0
  0
LINE
  5
E32
330
DA4
100
AcDbEntity
  8
0
  6
Continuous
 62
     7
100
AcDbLine
 10
12.86109636448441
 20
3.200000566127982
 30
0.0
 11
12.80159928746638
 21
3.200000566127982
 31
0.0
  0
LINE
  5
E33
330
DA4
100
AcDbEntity
  8
0
  6
Continuous
 62
     7
100
AcDbLine
 10
13.31109629854677
 20
3.200000566127982
 30
0.0
 11
12.86109636448441
 21
3.200000566127982
 31
0.0
  0
LINE
  5
E34
330
DA4
100
AcDbEntity
  8
0
  6
Continuous
 62
     7
100
AcDbLine
 10
14.01098777450738
 20
4.400000390294278
 30
0.0
 11
12.80159928746638
 21
4.400000390294278
 31
0.0
  0
LWPOLYLINE
  5
E35
330
DA4
100
AcDbEntity
  8
0
  6
Continuous
 62
     7
100
AcDbPolyline
 90
        6
 70
   128
 43
0.0
 10
14.01098777450738
 20
4.400000390294278
 10
14.01101385153947
 20
4.363812920335021
 10
14.01103899724899
 20
4.256886844220844
 10
14.01106181465206
 20
4.084058985743013
 10
14.01108113959549
 20
3.853147332254136
 10
14.01109627358732
 20
3.574597132089817
  0
LINE
  5
E36
330
DA4
100
AcDbEntity
  8
0
  6
Continuous
 62
     7
100
AcDbLine
 10
12.80159928746638
 20
3.574597132089817
 30
0.0
 11
14.01109627358732
 21
3.574597132089817
 31
0.0
  0
LINE
  5
E37
330
DA4
100
AcDbEntity
  8
0
  6
Continuous
 62
     7
100
AcDbLine
 10
12.01083238147315
 20
7.550000394392098
 30
0.0
 11
12.16082095079241
 21
7.550000394392098
 31
0.0
  0
LINE
  5
E38
330
DA4
100
AcDbEntity
  8
0
  6
Continuous
 62
     7
100
AcDbLine
 10
12.60161499403533
 20
7.050000312435712
 30
0.0
 11
11.90161478616414
 21
7.050000312435712
 31
0.0
  0
LINE
  5
E39
330
DA4
100
AcDbEntity
  8
0
  6
Continuous
 62
     7
100
AcDbLine
 10
12.01083238147315
 20
7.050000312435712
 30
0.0
 11
12.01083238147315
 21
7.550000394392098
 31
0.0
  0
LINE
  5
E3A
330
DA4
100
AcDbEntity
  8
0
  6
Continuous
 62
     7
100
AcDbLine
 10
11.90140523858485
 20
7.050000312435712
 30
0.0
 11
11.90161478616414
 21
7.050000312435712
 31
0.0
  0
LINE
  5
E3B
330
DA4
100
AcDbEntity
  8
0
  6
Continuous
 62
     7
100
AcDbLine
 10
11.90161478616414
 20
7.050000312435712
 30
0.0
 11
11.90161478616414
 21
6.56851888138362
 31
0.0
  0
LINE
  5
E3C
330
DA4
100
AcDbEntity
  8
0
  6
Continuous
 62
     7
100
AcDbLine
 10
11.90140523858485
 20
6.56851888138362
 30
0.0
 11
11.90140523858485
 21
7.050000312435712
 31
0.0
  0
LINE
  5
E3D
330
DA4
100
AcDbEntity
  8
0
  6
Continuous
 62
     7
100
AcDbLine
 10
10.10153029956039
 20
5.28000033895978
 30
0.0
 11
9.84153018243728
 21
5.28000033895978
 31
0.0
  0
LINE
  5
E3E
330
DA4
100
AcDbEntity
  8
0
  6
Continuous
 62
     7
100
AcDbLine
 10
9.84153018243728
 20
5.28000033895978
 30
0.0
 11
9.84094903715072
 21
5.28000033895978
 31
0.0
  0
LINE
  5
E3F
330
DA4
100
AcDbEntity
  8
0
  6
Continuous
 62
     7
100
AcDbLine
 10
9.84094903715072
 20
5.28000033895978
 30
0.0
 11
8.440949087069611
 21
5.28000033895978
 31
0.0
  0
LINE
  5
E40
330
DA4
100
AcDbEntity
  8
0
  6
Continuous
 62
     7
100
AcDbLine
 10
8.440949087069611
 20
5.28000033895978
 30
0.0
 11
8.440760959909539
 21
5.28000033895978
 31
0.0
  0
LINE
  5
E41
330
DA4
100
AcDbEntity
  8
0
  6
Continuous
 62
     7
100
AcDbLine
 10
11.76076109431801
 20
7.550000394392098
 30
0.0
 11
11.76083234049497
 21
7.550000394392098
 31
0.0
  0
LINE
  5
E42
330
DA4
100
AcDbEntity
  8
0
  6
Continuous
 62
     7
100
AcDbLine
 10
7.501344260798077
 20
3.702123597893205
 30
0.0
 11
7.501602237151246
 21
3.032342944923128
 31
0.0
  0
LINE
  5
E43
330
DA4
100
AcDbEntity
  8
0
  6
Continuous
 62
     7
100
AcDbLine
 10
7.841530320273022
 20
3.080000583711353
 30
0.0
 11
7.841530320273022
 21
3.000000440213169
 31
0.0
  0
LINE
  5
E44
330
DA4
100
AcDbEntity
  8
0
  6
Continuous
 62
     7
100
AcDbLine
 10
7.841530320273022
 20
3.080000583711353
 30
0.0
 11
7.840761047826387
 21
3.080000583711353
 31
0.0
  0
LINE
  5
E45
330
DA4
100
AcDbEntity
  8
0
  6
Continuous
 62
     7
100
AcDbLine
 10
7.753813703582864
 20
3.000000440213169
 30
0.0
 11
7.75377458803473
 21
3.000000440213169
 31
0.0
  0
LINE
  5
E46
330
DA4
100
AcDbEntity
  8
0
  6
Continuous
 62
     7
100
AcDbLine
 10
7.75377458803473
 20
3.000000440213169
 30
0.0
 11
7.501608756409266
 21
3.000000440213169
 31
0.0
  0
LINE
  5
E47
330
DA4
100
AcDbEntity
  8
0
  6
Continuous
 62
     7
100
AcDbLine
 10
7.753813703582864
 20
3.000000440213169
 30
0.0
 11
10.10161504991468
 21
3.000000440213169
 31
0.0
  0
LINE
  5
E48
330
DA4
100
AcDbEntity
  8
0
  6
Continuous
 62
     7
100
AcDbLine
 10
9.84153018243728
 20
3.080000583711353
 30
0.0
 11
7.841530320273022
 21
3.080000583711353
 31
0.0
  0
LINE
  5
E49
330
DA4
100
AcDbEntity
  8
0
  6
Continuous
 62
     7
100
AcDbLine
 10
5.351344187782386
 20
14.397877216968
 30
0.0
 11
7.501344260798077
 21
14.397877216968
 31
0.0
  0
LINE
  5
E4A
330
DA4
100
AcDbEntity
  8
0
  6
Continuous
 62
     7
100
AcDbLine
 10
5.271400389299968
 20
14.42000031906673
 30
0.0
 11
7.241400954352003
 21
14.42000031906673
 31
0.0
  0
LINE
  5
E4B
330
DA4
100
AcDbEntity
  8
0
  6
Continuous
 62
     7
100
AcDbLine
 10
5.351353501008134
 20
14.42000031906673
 30
0.0
 11
5.351344187782386
 21
14.397877216968
 31
0.0
  0
LINE
  5
E4C
330
DA4
100
AcDbEntity
  8
0
  6
Continuous
 62
     7
100
AcDbLine
 10
5.351257574782948
 20
14.397877216968
 30
0.0
 11
5.351344187782386
 21
14.397877216968
 31
0.0
  0
LINE
  5
E4D
330
DA4
100
AcDbEntity
  8
0
  6
Continuous
 62
     7
100
AcDbLine
 10
5.351257574782948
 20
14.397877216968
 30
0.0
 11
5.351257574782948
 21
14.42000031906673
 31
0.0
  0
LINE
  5
E4E
330
DA4
100
AcDbEntity
  8
0
  6
Continuous
 62
     7
100
AcDbLine
 10
3.00145900718985
 20
13.25000025767391
 30
0.0
 11
3.472384129689316
 21
13.25000025767391
 31
0.0
  0
LINE
  5
E4F
330
DA4
100
AcDbEntity
  8
0
  6
Continuous
 62
     7
100
AcDbLine
 10
3.472384129689316
 20
12.55000051546403
 30
0.0
 11
3.00145900718985
 21
12.55000051546403
 31
0.0
  0
LINE
  5
E50
330
DA4
100
AcDbEntity
  8
0
  6
Continuous
 62
     7
100
AcDbLine
 10
3.00145900718985
 20
11.05000050242551
 30
0.0
 11
3.472384129689316
 21
11.05000050242551
 31
0.0
  0
LINE
  5
E51
330
DA4
100
AcDbEntity
  8
0
  6
Continuous
 62
     7
100
AcDbLine
 10
3.00145900718985
 20
12.15000049646505
 30
0.0
 11
3.472384129689316
 21
12.15000049646505
 31
0.0
  0
LINE
  5
E52
330
DA4
100
AcDbEntity
  8
0
  6
Continuous
 62
     7
100
AcDbLine
 10
3.472384129689316
 20
11.45000052142449
 30
0.0
 11
3.00145900718985
 21
11.45000052142449
 31
0.0
  0
LINE
  5
E53
330
DA4
100
AcDbEntity
  8
0
  6
Continuous
 62
     7
100
AcDbLine
 10
3.472384129689316
 20
12.55000051546403
 30
0.0
 11
3.472384129689316
 21
13.25000025767391
 31
0.0
  0
LINE
  5
E54
330
DA4
100
AcDbEntity
  8
0
  6
Continuous
 62
     7
100
AcDbLine
 10
3.472384129689316
 20
11.45000052142449
 30
0.0
 11
3.472384129689316
 21
12.15000049646505
 31
0.0
  0
LINE
  5
E55
330
DA4
100
AcDbEntity
  8
0
  6
Continuous
 62
     7
100
AcDbLine
 10
3.00145900718985
 20
8.850000412483041
 30
0.0
 11
3.472384129689316
 21
8.850000412483041
 31
0.0
  0
LINE
  5
E56
330
DA4
100
AcDbEntity
  8
0
  6
Continuous
 62
     7
100
AcDbLine
 10
3.472384129689316
 20
9.250000402378192
 30
0.0
 11
3.00145900718985
 21
9.250000402378192
 31
0.0
  0
LINE
  5
E57
330
DA4
100
AcDbEntity
  8
0
  6
Continuous
 62
     7
100
AcDbLine
 10
3.00145900718985
 20
9.950000391970661
 30
0.0
 11
3.472384129689316
 21
9.950000391970661
 31
0.0
  0
LINE
  5
E58
330
DA4
100
AcDbEntity
  8
0
  6
Continuous
 62
     7
100
AcDbLine
 10
3.472384129689316
 20
10.35000041096964
 30
0.0
 11
3.00145900718985
 21
10.35000041096964
 31
0.0
  0
LINE
  5
E59
330
DA4
100
AcDbEntity
  8
0
  6
Continuous
 62
     7
100
AcDbLine
 10
3.472384129689316
 20
9.250000402378192
 30
0.0
 11
3.472384129689316
 21
9.950000391970661
 31
0.0
  0
LINE
  5
E5A
330
DA4
100
AcDbEntity
  8
0
  6
Continuous
 62
     7
100
AcDbLine
 10
3.472384129689316
 20
10.35000041096964
 30
0.0
 11
3.472384129689316
 21
11.05000050242551
 31
0.0
  0
LINE
  5
E5B
330
DA4
100
AcDbEntity
  8
0
  6
Continuous
 62
     7
100
AcDbLine
 10
11.90161478616414
 20
11.05000050242551
 30
0.0
 11
12.60161499403533
 21
11.05000050242551
 31
0.0
  0
LINE
  5
E5C
330
DA4
100
AcDbEntity
  8
0
  6
Continuous
 62
     7
100
AcDbLine
 10
12.01083238147315
 20
10.55000042046913
 30
0.0
 11
12.16082095079241
 21
10.55000042046913
 31
0.0
  0
LINE
  5
E5D
330
DA4
100
AcDbEntity
  8
0
  6
Continuous
 62
     7
100
AcDbLine
 10
11.90161478616414
 20
11.5314819334776
 30
0.0
 11
11.90161478616414
 21
11.05000050242551
 31
0.0
  0
LINE
  5
E5E
330
DA4
100
AcDbEntity
  8
0
  6
Continuous
 62
     7
100
AcDbLine
 10
11.90140523858485
 20
11.05000050242551
 30
0.0
 11
11.90140523858485
 21
11.5314819334776
 31
0.0
  0
LINE
  5
E5F
330
DA4
100
AcDbEntity
  8
0
  6
Continuous
 62
     7
100
AcDbLine
 10
11.90161478616414
 20
11.05000050242551
 30
0.0
 11
11.90140523858485
 21
11.05000050242551
 31
0.0
  0
LINE
  5
E60
330
DA4
100
AcDbEntity
  8
0
  6
Continuous
 62
     7
100
AcDbLine
 10
9.84153018243728
 20
12.82000047590144
 30
0.0
 11
10.10153029956039
 21
12.82000047590144
 31
0.0
  0
LINE
  5
E61
330
DA4
100
AcDbEntity
  8
0
  6
Continuous
 62
     7
100
AcDbLine
 10
9.84094903715072
 20
12.82000047590144
 30
0.0
 11
9.84153018243728
 21
12.82000047590144
 31
0.0
  0
LINE
  5
E62
330
DA4
100
AcDbEntity
  8
0
  6
Continuous
 62
     7
100
AcDbLine
 10
8.440949087069611
 20
12.82000047590144
 30
0.0
 11
9.84094903715072
 21
12.82000047590144
 31
0.0
  0
LINE
  5
E63
330
DA4
100
AcDbEntity
  8
0
  6
Continuous
 62
     7
100
AcDbLine
 10
8.440760959909539
 20
12.82000047590144
 30
0.0
 11
8.440949087069611
 21
12.82000047590144
 31
0.0
  0
LINE
  5
E64
330
DA4
100
AcDbEntity
  8
0
  6
Continuous
 62
     7
100
AcDbLine
 10
10.10076102711374
 20
11.5314819334776
 30
0.0
 11
10.10161504991468
 21
11.5314819334776
 31
0.0
  0
LINE
  5
E65
330
DA4
100
AcDbEntity
  8
0
  6
Continuous
 62
     7
100
AcDbLine
 10
10.10076102711374
 20
11.5314819334776
 30
0.0
 11
10.10076102711374
 21
12.82000047590144
 31
0.0
  0
LINE
  5
E66
330
DA4
100
AcDbEntity
  8
0
  6
Continuous
 62
     7
100
AcDbLine
 10
11.76075504072126
 20
10.70057968113133
 30
0.0
 11
11.0607613521081
 21
10.70057968113133
 31
0.0
  0
LINE
  5
E67
330
DA4
100
AcDbEntity
  8
0
  6
Continuous
 62
     7
100
AcDbLine
 10
11.76075504072126
 20
10.70057968113133
 30
0.0
 11
11.76075504072126
 21
11.5314819334776
 31
0.0
  0
LINE
  5
E68
330
DA4
100
AcDbEntity
  8
0
  6
Continuous
 62
     7
100
AcDbLine
 10
11.0607613521081
 20
10.70057968113133
 30
0.0
 11
11.0607613521081
 21
11.5314819334776
 31
0.0
  0
LINE
  5
E69
330
DA4
100
AcDbEntity
  8
0
  6
Continuous
 62
     7
100
AcDbLine
 10
11.90161478616414
 20
11.5314819334776
 30
0.0
 11
10.10161504991468
 21
11.5314819334776
 31
0.0
  0
LINE
  5
E6A
330
DA4
100
AcDbEntity
  8
0
  6
Continuous
 62
     7
100
AcDbLine
 10
11.76076109431801
 20
10.55000042046913
 30
0.0
 11
11.76083234049497
 21
10.55000042046913
 31
0.0
  0
LINE
  5
E6B
330
DA4
100
AcDbEntity
  8
0
100
AcDbLine
 10
11.05892571531353
 20
9.050699830684152
 30
0.0
 11
11.55892571531353
 21
9.050699830684152
 31
0.0
  0
LINE
  5
E6C
330
DA4
100
AcDbEntity
  8
0
  6
Continuous
 62
     7
100
AcDbLine
 10
11.76083234049497
 20
10.55000042046913
 30
0.0
 11
12.01083238147315
 21
10.55000042046913
 31
0.0
  0
LINE
  5
E6D
330
DA4
100
AcDbEntity
  8
0
  6
Continuous
 62
     7
100
AcDbLine
 10
11.76083234049497
 20
10.55000042046913
 30
0.0
 11
11.76083234049497
 21
11.5314819334776
 31
0.0
  0
LINE
  5
E6E
330
DA4
100
AcDbEntity
  8
0
  6
Continuous
 62
     7
100
AcDbLine
 10
12.01083238147315
 20
11.05000050242551
 30
0.0
 11
12.01083238147315
 21
10.55000042046913
 31
0.0
  0
LINE
  5
E6F
330
DA4
100
AcDbEntity
  8
0
100
AcDbLine
 10
11.55892571531353
 20
9.050699830684152
 30
0.0
 11
11.05892571531353
 21
9.050699830684152
 31
0.0
  0
LINE
  5
E70
330
DA4
100
AcDbEntity
  8
0
  6
Continuous
 62
     7
100
AcDbLine
 10
12.80159928746638
 20
13.70000042456694
 30
0.0
 11
14.01098777450738
 21
13.70000042456694
 31
0.0
  0
LINE
  5
E71
330
DA4
100
AcDbEntity
  8
0
  6
Continuous
 62
     7
100
AcDbLine
 10
13.36083241649089
 20
11.55000035155126
 30
0.0
 11
12.80159928746638
 21
11.55000035155126
 31
0.0
  0
LINE
  5
E72
330
DA4
100
AcDbEntity
  8
0
  6
Continuous
 62
     7
100
AcDbLine
 10
12.60080800302444
 20
10.70057968113133
 30
0.0
 11
12.46080786831794
 21
10.70057968113133
 31
0.0
  0
LINE
  5
E73
330
DA4
100
AcDbEntity
  8
0
  6
Continuous
 62
     7
100
AcDbLine
 10
12.46080786831794
 20
10.70057968113133
 30
0.0
 11
12.46076130218921
 21
10.70057968113133
 31
0.0
  0
LINE
  5
E74
330
DA4
100
AcDbEntity
  8
0
  6
Continuous
 62
     7
100
AcDbLine
 10
13.46080779940007
 20
10.70057968113133
 30
0.0
 11
13.36083241649089
 21
10.70057968113133
 31
0.0
  0
LINE
  5
E75
330
DA4
100
AcDbEntity
  8
0
  6
Continuous
 62
     7
100
AcDbLine
 10
12.46076130218921
 20
10.70057968113133
 30
0.0
 11
12.16082095079241
 21
10.70057968113133
 31
0.0
  0
LINE
  5
E76
330
DA4
100
AcDbEntity
  8
0
  6
Continuous
 62
     7
100
AcDbLine
 10
12.60078471996006
 20
10.70057968113133
 30
0.0
 11
12.60078471996006
 21
11.05000050242551
 31
0.0
  0
LINE
  5
E77
330
DA4
100
AcDbEntity
  8
0
  6
Continuous
 62
     7
100
AcDbLine
 10
12.60081591926631
 20
10.55000042046913
 30
0.0
 11
12.52222579814611
 21
10.55000042046913
 31
0.0
  0
LINE
  5
E78
330
DA4
100
AcDbEntity
  8
0
  6
Continuous
 62
     7
100
AcDbLine
 10
12.60080800302444
 20
10.55000042046913
 30
0.0
 11
12.60080800302444
 21
10.70057968113133
 31
0.0
  0
LINE
  5
E79
330
DA4
100
AcDbEntity
  8
0
  6
Continuous
 62
     7
100
AcDbLine
 10
12.16082095079241
 20
11.05000050242551
 30
0.0
 11
12.16082095079241
 21
10.55000042046913
 31
0.0
  0
LINE
  5
E7A
330
DA4
100
AcDbEntity
  8
0
  6
Continuous
 62
     7
100
AcDbLine
 10
14.26027628503857
 20
9.435000399523687
 30
0.0
 11
14.26027605220792
 21
7.395000378298846
 31
0.0
  0
LINE
  5
E7B
330
DA4
100
AcDbEntity
  8
0
  6
Continuous
 62
     7
100
AcDbLine
 10
14.26027628503857
 20
8.165000420692649
 30
0.0
 11
14.30159928746638
 21
8.165000420692649
 31
0.0
  0
LINE
  5
E7C
330
DA4
100
AcDbEntity
  8
0
  6
Continuous
 62
     7
100
AcDbLine
 10
14.26027628503857
 20
8.665000415337543
 30
0.0
 11
14.30159928746638
 21
8.665000415337543
 31
0.0
  0
LINE
  5
E7D
330
DA4
100
AcDbEntity
  8
0
  6
Continuous
 62
     7
100
AcDbLine
 10
14.30159928746649
 20
4.355000280472721
 30
0.0
 11
14.0559876514983
 21
4.355000280472721
 31
0.0
  0
LINE
  5
E7E
330
DA4
100
AcDbEntity
  8
0
  6
Continuous
 62
     7
100
AcDbLine
 10
14.30159928746649
 20
5.625000404822912
 30
0.0
 11
14.26027605220792
 21
5.625000404822912
 31
0.0
  0
LINE
  5
E7F
330
DA4
100
AcDbEntity
  8
0
  6
Continuous
 62
     7
100
AcDbLine
 10
14.26027605220792
 20
6.125000486779297
 30
0.0
 11
14.30159928746638
 21
6.125000486779297
 31
0.0
  0
LINE
  5
E80
330
DA4
100
AcDbEntity
  8
0
  6
Continuous
 62
     7
100
AcDbLine
 10
14.26027605220792
 20
6.895000296342457
 30
0.0
 11
14.26027581937727
 21
4.855000362429108
 31
0.0
  0
LINE
  5
E81
330
DA4
100
AcDbEntity
  8
0
  6
Continuous
 62
     7
100
AcDbLine
 10
14.26027581937727
 20
3.574597132089817
 30
0.0
 11
14.26027581937727
 21
3.200000566127982
 31
0.0
  0
LINE
  5
E82
330
DA4
100
AcDbEntity
  8
0
  6
Continuous
 62
     7
100
AcDbLine
 10
14.26027581937727
 20
4.355000280472721
 30
0.0
 11
14.26027581937727
 21
4.150712345424381
 31
0.0
  0
LINE
  5
E83
330
DA4
100
AcDbEntity
  8
0
  6
Continuous
 62
     7
100
AcDbLine
 10
14.26027651786919
 20
10.70500043656238
 30
0.0
 11
14.30159928746616
 21
10.70500043656238
 31
0.0
  0
LINE
  5
E84
330
DA4
100
AcDbEntity
  8
0
  6
Continuous
 62
     7
100
AcDbLine
 10
14.30159928746616
 20
11.20500051851877
 30
0.0
 11
14.26027651786919
 21
11.20500051851877
 31
0.0
  0
LINE
  5
E85
330
DA4
100
AcDbEntity
  8
0
  6
Continuous
 62
     7
100
AcDbLine
 10
14.30159928746616
 20
13.24500045243212
 30
0.0
 11
14.26027675069986
 21
13.24500045243212
 31
0.0
  0
LINE
  5
E86
330
DA4
100
AcDbEntity
  8
0
  6
Continuous
 62
     7
100
AcDbLine
 10
14.30159928746603
 20
13.7450005343885
 30
0.0
 11
14.26027675069986
 21
13.7450005343885
 31
0.0
  0
LINE
  5
E87
330
DA4
100
AcDbEntity
  8
0
  6
Continuous
 62
     7
100
AcDbLine
 10
14.26027651786919
 20
11.97500032808193
 30
0.0
 11
14.26027628503857
 21
9.935000394168582
 31
0.0
  0
LINE
  5
E88
330
DA4
100
AcDbEntity
  8
0
  6
Continuous
 62
     7
100
AcDbLine
 10
14.26027675069986
 20
13.94928940075942
 30
0.0
 11
14.26027651786919
 21
12.47500041003831
 31
0.0
  0
LINE
  5
E89
330
DA4
100
AcDbEntity
  8
0
100
AcDbLine
 10
14.30159928746593
 20
18.10000062051721
 30
0.0
 11
0.000000310167934
 21
18.10000062051676
 31
0.0
  0
LINE
  5
E8A
330
DA4
100
AcDbEntity
  8
0
  6
Continuous
 62
     7
100
AcDbLine
 10
14.30159928746603
 20
14.52540368277141
 30
0.0
 11
14.01109627358732
 21
14.52540368277141
 31
0.0
  0
LINE
  5
E8B
330
DA4
100
AcDbEntity
  8
0
  6
Continuous
 62
     7
100
AcDbLine
 10
13.31109629854677
 20
14.90000024873324
 30
0.0
 11
14.30159928746603
 21
14.90000024873324
 31
0.0
  0
LINE
  5
E8C
330
DA4
100
AcDbEntity
  8
0
  6
Continuous
 62
     7
100
AcDbLine
 10
14.30159928746593
 20
15.90375578813018
 30
0.0
 11
13.31098779946683
 21
16.30000019881435
 31
0.0
  0
LINE
  5
E8D
330
DA4
100
AcDbEntity
  8
0
  6
Continuous
 62
     7
100
AcDbLine
 10
13.71073077343521
 20
16.34000050339408
 30
0.0
 11
14.30159928746593
 21
16.34000050339408
 31
0.0
  0
LINE
  5
E8E
330
DA4
100
AcDbEntity
  8
0
  6
Continuous
 62
     7
100
AcDbLine
 10
13.71073077343521
 20
16.58000046822735
 30
0.0
 11
14.30159928746593
 21
16.58000046822735
 31
0.0
  0
LINE
  5
E8F
330
DA4
100
AcDbEntity
  8
0
  6
Continuous
 62
     7
100
AcDbLine
 10
7.501615275667289
 20
15.26371663871714
 30
0.0
 11
5.351615202651601
 21
15.26371663871714
 31
0.0
  0
LINE
  5
E90
330
DA4
100
AcDbEntity
  8
0
  6
Continuous
 62
     7
100
AcDbLine
 10
5.351602164135556
 20
15.0676578699381
 30
0.0
 11
7.501602237151246
 21
15.0676578699381
 31
0.0
  0
LINE
  5
E91
330
DA4
100
AcDbEntity
  8
0
  6
Continuous
 62
     7
100
AcDbLine
 10
1.701614883766751
 20
16.4000004946024
 30
0.0
 11
12.60161499403533
 21
16.4000004946024
 31
0.0
  0
LINE
  5
E92
330
DA4
100
AcDbEntity
  8
0
  6
Continuous
 62
     7
100
AcDbLine
 10
12.80159928746638
 20
16.60000062051722
 30
0.0
 11
1.501599391029458
 21
16.60000062051722
 31
0.0
  0
LINE
  5
E93
330
DA4
100
AcDbEntity
  8
0
  6
Continuous
 62
     7
100
AcDbLine
 10
3.536772978530506
 20
16.8700208372206
 30
0.0
 11
2.346888248847105
 21
16.78000059414215
 31
0.0
  0
LINE
  5
E94
330
DA4
100
AcDbEntity
  8
0
  6
Continuous
 62
     7
100
AcDbLine
 10
3.536772978530506
 20
16.67002117696709
 30
0.0
 11
2.611246024296856
 21
16.60000062051722
 31
0.0
  0
LINE
  5
E95
330
DA4
100
AcDbEntity
  8
0
  6
Continuous
 62
     7
100
AcDbLine
 10
1.919974637256244
 20
16.78000059414215
 30
0.0
 11
1.919974637256244
 21
16.60000062051722
 31
0.0
  0
LINE
  5
E96
330
DA4
100
AcDbEntity
  8
0
  6
Continuous
 62
     7
100
AcDbLine
 10
1.919974637256244
 20
16.78000059414215
 30
0.0
 11
2.346888248847105
 21
16.78000059414215
 31
0.0
  0
LINE
  5
E97
330
DA4
100
AcDbEntity
  8
0
  6
Continuous
 62
     7
100
AcDbLine
 10
3.536772978530506
 20
16.8700208372206
 30
0.0
 11
3.536772978530506
 21
16.67002117696709
 31
0.0
  0
LINE
  5
E98
330
DA4
100
AcDbEntity
  8
0
  6
Continuous
 62
     7
100
AcDbLine
 10
4.060192097948172
 20
16.64626500073381
 30
0.0
 11
3.536772978530506
 21
16.67002117696709
 31
0.0
  0
LINE
  5
E99
330
DA4
100
AcDbEntity
  8
0
  6
Continuous
 62
     7
100
AcDbLine
 10
4.060192097948172
 20
16.84626466098733
 30
0.0
 11
3.536772978530506
 21
16.8700208372206
 31
0.0
  0
LINE
  5
E9A
330
DA4
100
AcDbEntity
  8
0
  6
Continuous
 62
     7
100
AcDbLine
 10
5.351602164135556
 20
15.0676578699381
 30
0.0
 11
5.351555598006825
 21
14.94534448224612
 31
0.0
  0
LWPOLYLINE
  5
E9B
330
DA4
100
AcDbEntity
  8
0
  6
Continuous
 62
     7
100
AcDbPolyline
 90
        9
 70
   128
 43
0.0
 10
5.271336128042321
 20
14.75226268607682
 10
5.27136499904213
 20
14.68863798740811
 10
5.271393870041947
 20
14.66117700997298
 10
5.271422741041758
 20
14.67014285239883
 10
5.271450680718999
 20
14.71545029867002
 10
5.271479551718811
 20
14.79666442114421
 10
5.271506560073476
 20
14.91300663414904
 10
5.271532637105565
 20
15.0633612132401
 10
5.271538225041011
 20
15.10000037464806
  0
LINE
  5
E9C
330
DA4
100
AcDbEntity
  8
0
  6
Continuous
 62
     7
100
AcDbLine
 10
5.271336128042321
 20
14.50665755632826
 30
0.0
 11
5.271336128042321
 21
14.75226268607682
 31
0.0
  0
LINE
  5
E9D
330
DA4
100
AcDbEntity
  8
0
  6
Continuous
 62
     7
100
AcDbLine
 10
5.271336128042321
 20
14.75226268607682
 30
0.0
 11
5.271465581880191
 21
14.75226268607682
 31
0.0
  0
LWPOLYLINE
  5
E9E
330
DA4
100
AcDbEntity
  8
0
  6
Continuous
 62
     7
100
AcDbPolyline
 90
        5
 70
   128
 43
0.0
 10
5.271584791169741
 20
15.29496716770835
 10
5.271581997202018
 20
15.23924008447238
 10
5.271579203234296
 20
15.18188877466625
 10
5.271576409266572
 20
15.12958011094042
 10
5.271576409266572
 20
15.12848766956039
  0
LWPOLYLINE
  5
E9F
330
DA4
100
AcDbEntity
  8
0
  6
Continuous
 62
     7
100
AcDbPolyline
 90
        3
 70
   128
 43
0.0
 10
5.271573615298846
 20
15.10000037464806
 10
5.271572683976273
 20
15.08314343604752
 10
5.2715680273634
 20
15.04331449482151
  0
LINE
  5
EA0
330
DA4
100
AcDbEntity
  8
0
  6
Continuous
 62
     7
100
AcDbLine
 10
5.351615202651601
 20
15.26371663871714
 30
0.0
 11
5.351615202651601
 21
15.29496716770835
 31
0.0
  0
LINE
  5
EA1
330
DA4
100
AcDbEntity
  8
0
  6
Continuous
 62
     7
100
AcDbLine
 10
5.351576087103467
 20
15.12848766956039
 30
0.0
 11
5.351576087103467
 21
15.10000037464806
 31
0.0
  0
LWPOLYLINE
  5
EA2
330
DA4
100
AcDbEntity
  8
0
  6
Continuous
 62
     7
100
AcDbPolyline
 90
        9
 70
   128
 43
0.0
 10
5.351602164135556
 20
15.0676578699381
 10
5.35160495810328
 20
15.07727656948873
 10
5.351607752071004
 20
15.09236446085878
 10
5.351609614716153
 20
15.11247963148661
 10
5.351611477361299
 20
15.1370320885212
 10
5.35161334000645
 20
15.16530052262851
 10
5.351614271329026
 20
15.19645652237841
 10
5.351615202651601
 20
15.22958599466392
 10
5.351615202651601
 20
15.26371663871714
  0
LINE
  5
EA3
330
DA4
100
AcDbEntity
  8
0
  6
Continuous
 62
     7
100
AcDbLine
 10
5.2715680273634
 20
15.04331449482151
 30
0.0
 11
5.351567705200293
 21
15.04331449482151
 31
0.0
  0
LINE
  5
EA4
330
DA4
100
AcDbEntity
  8
0
  6
Continuous
 62
     7
100
AcDbLine
 10
3.001614538059806
 20
15.02000023114987
 30
0.0
 11
4.671529931054691
 21
15.02000023114987
 31
0.0
  0
LINE
  5
EA5
330
DA4
100
AcDbEntity
  8
0
  6
Continuous
 62
     7
100
AcDbLine
 10
5.099416774736027
 20
15.10000037464806
 30
0.0
 11
3.001614538059806
 21
15.10000037464806
 31
0.0
  0
LINE
  5
EA6
330
DA4
100
AcDbEntity
  8
0
  6
Continuous
 62
     7
100
AcDbLine
 10
4.671529931054691
 20
15.02000023114987
 30
0.0
 11
4.671529931054691
 21
15.10000037464806
 31
0.0
  0
LINE
  5
EA7
330
DA4
100
AcDbEntity
  8
0
  6
Continuous
 62
     7
100
AcDbLine
 10
5.099416774736027
 20
15.29496716770835
 30
0.0
 11
5.099416774736027
 21
15.10000037464806
 31
0.0
  0
LINE
  5
EA8
330
DA4
100
AcDbEntity
  8
0
  6
Continuous
 62
     7
100
AcDbLine
 10
5.351615202651601
 20
15.29496716770835
 30
0.0
 11
5.099416774736027
 21
15.29496716770835
 31
0.0
  0
LINE
  5
EA9
330
DA4
100
AcDbEntity
  8
0
  6
Continuous
 62
     7
100
AcDbLine
 10
5.099416774736027
 20
15.10000037464806
 30
0.0
 11
5.351576087103467
 21
15.10000037464806
 31
0.0
  0
LWPOLYLINE
  5
EAA
330
DA4
100
AcDbEntity
  8
0
  6
Continuous
 62
     7
100
AcDbPolyline
 90
       10
 70
   128
 43
0.0
 10
1.701614883766751
 20
16.4000004946024
 10
1.666884933636764
 20
16.4347299790711
 10
1.633210171983819
 20
16.46840427506274
 10
1.601613190994839
 20
16.50000032472917
 10
1.573054184244254
 20
16.52855793449589
 10
1.548400213049034
 20
16.55320911172339
 10
1.528401923404316
 20
16.57320553872295
 10
1.513666537628751
 20
16.58793906185334
 10
1.504640159235574
 20
16.59696218061753
 10
1.501599391029458
 20
16.60000062051722
  0
LINE
  5
EAB
330
DA4
100
AcDbEntity
  8
0
  6
Continuous
 62
     7
100
AcDbLine
 10
1.501599391029458
 20
16.60000062051722
 30
0.0
 11
1.500000310168843
 21
16.60000062051722
 31
0.0
  0
LINE
  5
EAC
330
DA4
100
AcDbEntity
  8
0
  6
Continuous
 62
     7
100
AcDbLine
 10
11.06131595470124
 20
18.10000062051721
 30
0.0
 11
11.06131595470124
 21
16.60000062051722
 31
0.0
  0
LINE
  5
EAD
330
DA4
100
AcDbEntity
  8
0
  6
Continuous
 62
     7
100
AcDbLine
 10
11.06071525164065
 20
16.78000059414215
 30
0.0
 11
9.120715380684712
 21
16.78000059414215
 31
0.0
  0
LINE
  5
EAE
330
DA4
100
AcDbEntity
  8
0
  6
Continuous
 62
     7
100
AcDbLine
 10
8.820692141578772
 20
16.78000059414215
 30
0.0
 11
8.820692141578772
 21
16.60000062051722
 31
0.0
  0
LINE
  5
EAF
330
DA4
100
AcDbEntity
  8
0
  6
Continuous
 62
     7
100
AcDbLine
 10
9.120715380684712
 20
16.78000059414215
 30
0.0
 11
8.820692141578772
 21
16.78000059414215
 31
0.0
  0
LINE
  5
EB0
330
DA4
100
AcDbEntity
  8
0
  6
Continuous
 62
     7
100
AcDbLine
 10
9.120715380684712
 20
16.60000062051722
 30
0.0
 11
9.120715380684712
 21
16.78000059414215
 31
0.0
  0
LINE
  5
EB1
330
DA4
100
AcDbEntity
  8
0
  6
Continuous
 62
     7
100
AcDbLine
 10
12.6613160306972
 20
16.60000062051722
 30
0.0
 11
12.6613160306972
 21
18.10000062051721
 31
0.0
  0
LWPOLYLINE
  5
EB2
330
DA4
100
AcDbEntity
  8
0
  6
Continuous
 62
     7
100
AcDbPolyline
 90
        9
 70
   128
 43
0.0
 10
12.80159928746638
 20
16.60000062051722
 10
12.79775944449125
 20
16.59615751791307
 10
12.78638147659717
 20
16.58477629038998
 10
12.76790217407165
 20
16.56629419389673
 10
12.74303167037783
 20
16.54142182755776
 10
12.71272643379983
 20
16.51111426267333
 10
12.67815061755594
 20
16.47653704944556
 10
12.64063275329886
 20
16.43901825386591
 10
12.60161499403533
 20
16.4000004946024
  0
LINE
  5
EB3
330
DA4
100
AcDbEntity
  8
0
  6
Continuous
 62
     7
100
AcDbLine
 10
13.61069206059096
 20
16.58000046822735
 30
0.0
 11
13.61069206059096
 21
16.78000059414215
 31
0.0
  0
LINE
  5
EB4
330
DA4
100
AcDbEntity
  8
0
  6
Continuous
 62
     7
100
AcDbLine
 10
12.80159928746638
 20
16.58000046822735
 30
0.0
 11
13.71073077343521
 21
16.58000046822735
 31
0.0
  0
LINE
  5
EB5
330
DA4
100
AcDbEntity
  8
0
  6
Continuous
 62
     7
100
AcDbLine
 10
13.31071538761374
 20
16.58000046822735
 30
0.0
 11
13.31071538761374
 21
16.78000059414215
 31
0.0
  0
LINE
  5
EB6
330
DA4
100
AcDbEntity
  8
0
  6
Continuous
 62
     7
100
AcDbLine
 10
13.31071538761374
 20
16.78000059414215
 30
0.0
 11
12.6613160306972
 21
16.78000059414215
 31
0.0
  0
LINE
  5
EB7
330
DA4
100
AcDbEntity
  8
0
  6
Continuous
 62
     7
100
AcDbLine
 10
13.61069206059096
 20
16.78000059414215
 30
0.0
 11
13.31071538761374
 21
16.78000059414215
 31
0.0
  0
LWPOLYLINE
  5
EB8
330
DA4
100
AcDbEntity
  8
0
  6
Continuous
 62
     7
100
AcDbPolyline
 90
        8
 70
   128
 43
0.0
 10
12.86109636448441
 20
14.90000024873324
 10
12.86109077654896
 20
15.20590339291401
 10
12.86108006633934
 20
15.48828645113417
 10
12.86106469951683
 20
15.73312463674255
 10
12.86104560740408
 20
15.92825720522114
 10
12.86102372132359
 20
16.06399281385846
 10
12.86099997259793
 20
16.13358868721434
 10
12.86098786540446
 20
16.14236966210909
  0
LWPOLYLINE
  5
EB9
330
DA4
100
AcDbEntity
  8
0
  6
Continuous
 62
     7
100
AcDbPolyline
 90
        8
 70
   128
 43
0.0
 10
13.31109629854677
 20
14.90000024873324
 10
13.31109373740969
 20
15.21152951258724
 10
13.31108558833715
 20
15.50743770289727
 10
13.31107254982112
 20
15.7728860570819
 10
13.31105555318413
 20
15.99456457856603
 10
13.31103483125684
 20
16.16135700109905
 10
13.3110117810231
 20
16.26489958229965
 10
13.31098779946683
 20
16.30000019881435
  0
LWPOLYLINE
  5
EBA
330
DA4
100
AcDbEntity
  8
0
  6
Continuous
 62
     7
100
AcDbPolyline
 90
       11
 70
   128
 43
0.0
 10
12.86109636448441
 20
14.90000024873324
 10
12.86109357051667
 20
15.21152951258724
 10
12.8610856542748
 20
15.50743770289727
 10
12.86107261575875
 20
15.7728860570819
 10
12.86105538629112
 20
15.99456457856603
 10
12.86103489719448
 20
16.16135700109905
 10
12.8610120797914
 20
16.26489958229965
 10
12.86098786540446
 20
16.30000019881435
 10
12.86096365101752
 20
16.26489958229965
 10
12.86094036795316
 20
16.16135700109905
 10
12.86093757398544
 20
16.14236966210909
  0
LINE
  5
EBB
330
DA4
100
AcDbEntity
  8
0
  6
Continuous
 62
     7
100
AcDbLine
 10
14.01109627358732
 20
14.52540368277141
 30
0.0
 11
12.80159928746638
 21
14.52540368277141
 31
0.0
  0
LINE
  5
EBC
330
DA4
100
AcDbEntity
  8
0
  6
Continuous
 62
     7
100
AcDbLine
 10
12.80159928746638
 20
14.90000024873324
 30
0.0
 11
12.86109636448441
 21
14.90000024873324
 31
0.0
  0
LINE
  5
EBD
330
DA4
100
AcDbEntity
  8
0
  6
Continuous
 62
     7
100
AcDbLine
 10
12.86109636448441
 20
14.90000024873324
 30
0.0
 11
13.31109629854677
 21
14.90000024873324
 31
0.0
  0
LINE
  5
EBE
330
DA4
100
AcDbEntity
  8
0
  6
Continuous
 62
     7
100
AcDbLine
 10
12.86098786540446
 20
16.14236966210909
 30
0.0
 11
12.80159928746638
 21
16.14236966210909
 31
0.0
  0
LINE
  5
EBF
330
DA4
100
AcDbEntity
  8
0
  6
Continuous
 62
     7
100
AcDbLine
 10
13.31098779946683
 20
16.30000019881435
 30
0.0
 11
12.86098786540446
 21
16.30000019881435
 31
0.0
  0
LINE
  5
EC0
330
DA4
100
AcDbEntity
  8
0
  6
Continuous
 62
     7
100
AcDbLine
 10
12.80159928746638
 20
16.34000050339408
 30
0.0
 11
13.71073077343521
 21
16.34000050339408
 31
0.0
  0
LINE
  5
EC1
330
DA4
100
AcDbEntity
  8
0
  6
Continuous
 62
     7
100
AcDbLine
 10
13.71073077343521
 20
16.58000046822735
 30
0.0
 11
13.71073077343521
 21
16.34000050339408
 31
0.0
  0
LINE
  5
EC2
330
DA4
100
AcDbEntity
  8
0
  6
Continuous
 62
     7
100
AcDbLine
 10
7.841530320273022
 20
15.10000037464806
 30
0.0
 11
7.841530320273022
 21
15.02000023114987
 31
0.0
  0
LINE
  5
EC3
330
DA4
100
AcDbEntity
  8
0
  6
Continuous
 62
     7
100
AcDbLine
 10
7.840761047826387
 20
15.02000023114987
 30
0.0
 11
7.841530320273022
 21
15.02000023114987
 31
0.0
  0
LINE
  5
EC4
330
DA4
100
AcDbEntity
  8
0
  6
Continuous
 62
     7
100
AcDbLine
 10
7.753813703582864
 20
15.10000037464806
 30
0.0
 11
7.753813703582864
 21
15.29496716770835
 31
0.0
  0
LINE
  5
EC5
330
DA4
100
AcDbEntity
  8
0
  6
Continuous
 62
     7
100
AcDbLine
 10
7.753813703582864
 20
15.29496716770835
 30
0.0
 11
7.501615275667289
 21
15.29496716770835
 31
0.0
  0
LINE
  5
EC6
330
DA4
100
AcDbEntity
  8
0
  6
Continuous
 62
     7
100
AcDbLine
 10
7.501615275667289
 20
15.26371663871714
 30
0.0
 11
7.501615275667289
 21
15.29496716770835
 31
0.0
  0
LWPOLYLINE
  5
EC7
330
DA4
100
AcDbEntity
  8
0
  6
Continuous
 62
     7
100
AcDbPolyline
 90
        9
 70
   128
 43
0.0
 10
7.501602237151246
 20
15.0676578699381
 10
7.50160503111897
 20
15.07727656948873
 10
7.501607825086692
 20
15.09236446085878
 10
7.501609687731843
 20
15.11247963148661
 10
7.501611550376992
 20
15.1370320885212
 10
7.501613413022141
 20
15.16530052262851
 10
7.501614344344716
 20
15.19645652237841
 10
7.501614344344716
 20
15.22958599466392
 10
7.501615275667289
 20
15.26371663871714
  0
LINE
  5
EC8
330
DA4
100
AcDbEntity
  8
0
  6
Continuous
 62
     7
100
AcDbLine
 10
7.75377458803473
 20
15.10000037464806
 30
0.0
 11
7.75377458803473
 21
15.29496716770835
 31
0.0
  0
LINE
  5
EC9
330
DA4
100
AcDbEntity
  8
0
  6
Continuous
 62
     7
100
AcDbLine
 10
7.75377458803473
 20
15.10000037464806
 30
0.0
 11
7.753813703582864
 21
15.10000037464806
 31
0.0
  0
LINE
  5
ECA
330
DA4
100
AcDbEntity
  8
0
  6
Continuous
 62
     7
100
AcDbLine
 10
7.501608756409266
 20
15.10000037464806
 30
0.0
 11
7.75377458803473
 21
15.10000037464806
 31
0.0
  0
LINE
  5
ECB
330
DA4
100
AcDbEntity
  8
0
  6
Continuous
 62
     7
100
AcDbLine
 10
10.10161504991468
 20
15.10000037464806
 30
0.0
 11
7.753813703582864
 21
15.10000037464806
 31
0.0
  0
LINE
  5
ECC
330
DA4
100
AcDbEntity
  8
0
  6
Continuous
 62
     7
100
AcDbLine
 10
7.841530320273022
 20
15.02000023114987
 30
0.0
 11
9.84153018243728
 21
15.02000023114987
 31
0.0
  0
LINE
  5
ECD
330
DA4
100
AcDbEntity
  8
0
  6
Continuous
 62
     7
100
AcDbLine
 10
14.26027712916535
 20
18.10000062025346
 30
0.0
 11
14.2602769835305
 21
16.58000046822735
 31
0.0
  0
LINE
  5
ECE
330
DA4
100
AcDbEntity
  8
0
  6
Continuous
 62
     7
100
AcDbLine
 10
14.2602769835305
 20
16.34000050339408
 30
0.0
 11
14.2602769835305
 21
15.92028461832114
 31
0.0
  0
LINE
  5
ECF
330
DA4
100
AcDbEntity
  8
0
  6
Continuous
 62
     7
100
AcDbLine
 10
14.26027675069986
 20
14.90000024873324
 30
0.0
 11
14.26027675069986
 21
14.52540368277141
 31
0.0
  0
ENDBLK
  5
ED1
330
DA4
100
AcDbEntity
  8
0
100
AcDbBlockEnd
  0
ENDSEC
  0
SECTION
  2
ENTITIES
  0
LINE
  5
1075
330
1F
100
AcDbEntity
  8
1
100
AcDbLine
 10
35.50000082459177
 20
175.97381853678
 30
0.0
 11
50.50000082459177
 21
175.97381853678
 31
0.0
  0
LINE
  5
1076
330
1F
100
AcDbEntity
  8
1
100
AcDbLine
 10
43.00000082459189
 20
168.47381853678
 30
0.0
 11
43.00000082459189
 21
183.47381853678
 31
0.0
  0
LINE
  5
1077
330
1F
100
AcDbEntity
  8
1
100
AcDbLine
 10
43.00000082459155
 20
352.47381853678
 30
0.0
 11
43.00000082459155
 21
367.47381853678
 31
0.0
  0
LINE
  5
1078
330
1F
100
AcDbEntity
  8
1
100
AcDbLine
 10
35.50000082459177
 20
359.97381853678
 30
0.0
 11
50.50000082459177
 21
359.97381853678
 31
0.0
  0
LINE
  5
107B
330
1F
100
AcDbEntity
  8
0
100
AcDbLine
 10
61.45000082459171
 20
204.0901016793723
 30
0.0
 11
61.45000082459171
 21
219.0575353941889
 31
0.0
  0
LINE
  5
107C
330
1F
100
AcDbEntity
  8
0
100
AcDbLine
 10
55.15000082459176
 20
219.6738185367803
 30
0.0
 11
55.15000082459176
 21
203.47381853678
 31
0.0
  0
LINE
  5
107D
330
1F
100
AcDbEntity
  8
0
100
AcDbLine
 10
56.70000082459194
 20
220.1738185367803
 30
0.0
 11
56.70000082459194
 21
202.97381853678
 31
0.0
  0
LINE
  5
107E
330
1F
100
AcDbEntity
  8
0
100
AcDbLine
 10
59.90000082459175
 20
202.97381853678
 30
0.0
 11
59.90000082459175
 21
220.1738185367803
 31
0.0
  0
LINE
  5
107F
330
1F
100
AcDbEntity
  8
0
100
AcDbLine
 10
53.70000082459194
 20
229.1738185367803
 30
0.0
 11
53.70000082459194
 21
193.97381853678
 31
0.0
  0
LINE
  5
1080
330
1F
100
AcDbEntity
  8
0
100
AcDbLine
 10
62.80000082459172
 20
192.97381853678
 30
0.0
 11
62.80000082459172
 21
230.1738185367803
 31
0.0
  0
LINE
  5
1081
330
1F
100
AcDbEntity
  8
0
100
AcDbLine
 10
64.00000094650977
 20
230.6738183774364
 30
0.0
 11
64.00000094650977
 21
185.1738183774364
 31
0.0
  0
LINE
  5
1082
330
1F
100
AcDbEntity
  8
0
100
AcDbLine
 10
52.60000094650877
 20
230.6738183774364
 30
0.0
 11
52.60000094650877
 21
185.1738183774364
 31
0.0
  0
LINE
  5
1083
330
1F
100
AcDbEntity
  8
0
100
AcDbLine
 10
63.10000082459158
 20
230.6738183774364
 30
0.0
 11
63.10000082459158
 21
185.1738183774364
 31
0.0
  0
LINE
  5
1084
330
1F
100
AcDbEntity
  8
0
100
AcDbLine
 10
37.60000094650877
 20
239.5738183774358
 30
0.0
 11
37.60000094650877
 21
185.1738183774364
 31
0.0
  0
LINE
  5
1085
330
1F
100
AcDbEntity
  8
0
100
AcDbLine
 10
36.70000082459079
 20
185.97381853678
 30
0.0
 11
36.70000082459079
 21
226.6138185367799
 31
0.0
  0
LINE
  5
1086
330
1F
100
AcDbEntity
  8
0
100
AcDbLine
 10
28.10000082459078
 20
226.6138185367799
 30
0.0
 11
28.10000082459078
 21
185.97381853678
 31
0.0
  0
LINE
  5
1087
330
1F
100
AcDbEntity
  8
0
100
AcDbLine
 10
27.00000094650873
 20
271.4738183774361
 30
0.0
 11
27.00000094650873
 21
185.1738183774364
 31
0.0
  0
LINE
  5
1088
330
1F
100
AcDbEntity
  8
0
100
AcDbLine
 10
28.10000082459179
 20
185.1738183774364
 30
0.0
 11
28.10000082459179
 21
271.4738183774361
 31
0.0
  0
LINE
  5
1089
330
1F
100
AcDbEntity
  8
0
100
AcDbLine
 10
19.00000082459176
 20
201.6069989616925
 30
0.0
 11
19.00000082459176
 21
354.9476326152112
 31
0.0
  0
LINE
  5
108A
330
1F
100
AcDbEntity
  8
0
100
AcDbLine
 10
20.00000082459178
 20
354.97381853678
 30
0.0
 11
20.00000082459075
 21
202.3555989968178
 31
0.0
  0
LINE
  5
108B
330
1F
100
AcDbEntity
  8
0
100
AcDbLine
 10
22.00000082459176
 20
352.97381853678
 30
0.0
 11
22.00000082459073
 21
203.5595145542841
 31
0.0
  0
LINE
  5
108C
330
1F
100
AcDbEntity
  8
0
100
AcDbLine
 10
19.00000082459176
 20
201.6069989616938
 30
0.0
 11
19.00000082459176
 21
354.47381853678
 31
0.0
  0
LINE
  5
108D
330
1F
100
AcDbEntity
  8
0
100
AcDbLine
 10
22.10000082459078
 20
352.77381853678
 30
0.0
 11
22.10000082459078
 21
203.6659183250788
 31
0.0
  0
LINE
  5
108E
330
1F
100
AcDbEntity
  8
0
100
AcDbLine
 10
72.00000082459178
 20
363.97381853678
 30
0.0
 11
72.00000082459178
 21
171.97381853678
 31
0.0
  0
LINE
  5
108F
330
1F
100
AcDbEntity
  8
0
100
AcDbLine
 10
70.00000082459178
 20
182.97381853678
 30
0.0
 11
70.00000082459178
 21
352.97381853678
 31
0.0
  0
LINE
  5
1090
330
1F
100
AcDbEntity
  8
0
100
AcDbLine
 10
72.00000082459178
 20
180.97381853678
 30
0.0
 11
72.00000082459178
 21
354.97381853678
 31
0.0
  0
LINE
  5
1091
330
1F
100
AcDbEntity
  8
0
100
AcDbLine
 10
69.7000008245908
 20
352.77381853678
 30
0.0
 11
69.7000008245908
 21
183.1738185367803
 31
0.0
  0
LINE
  5
1092
330
1F
100
AcDbEntity
  8
0
100
AcDbLine
 10
0.0000008245917797
 20
363.5283150776131
 30
0.0
 11
0.0000008245917797
 21
172.419321995947
 31
0.0
  0
ARC
  5
1093
330
1F
100
AcDbEntity
  8
0
100
AcDbCircle
 10
43.00000082459189
 20
175.97381853678
 30
0.0
 40
5.5
100
AcDbArc
 50
0.0
 51
65.3800226713519
  0
LINE
  5
1095
330
1F
100
AcDbEntity
  8
0
100
AcDbLine
 10
20.00000082459075
 20
180.97381853678
 30
0.0
 11
72.00000082459178
 21
180.97381853678
 31
0.0
  0
LINE
  5
1096
330
1F
100
AcDbEntity
  8
0
100
AcDbLine
 10
70.00000082459178
 20
182.97381853678
 30
0.0
 11
25.00000082458665
 21
182.97381853678
 31
0.0
  0
LINE
  5
1097
330
1F
100
AcDbEntity
  8
0
100
AcDbLine
 10
25.10000082458669
 20
183.1738185367803
 30
0.0
 11
69.7000008245908
 21
183.1738185367803
 31
0.0
  0
LINE
  5
1098
330
1F
100
AcDbEntity
  8
0
100
AcDbLine
 10
0.4869123504375922
 20
181.4324148979989
 30
0.0
 11
18.00000082459177
 21
180.97381853678
 31
0.0
  0
LINE
  5
1099
330
1F
100
AcDbEntity
  8
0
100
AcDbLine
 10
18.00000082459177
 20
170.97381853678
 30
0.0
 11
0.9738238762836315
 21
171.419664670972
 31
0.0
  0
ARC
  5
109A
330
1F
100
AcDbEntity
  8
0
100
AcDbCircle
 10
1.000000824591779
 20
172.419321995947
 30
0.0
 40
1.0
100
AcDbArc
 50
180.0
 51
268.4999999999971
  0
ARC
  5
109B
330
1F
100
AcDbEntity
  8
0
100
AcDbCircle
 10
0.5000008245917798
 20
181.9322435604871
 30
0.0
 40
0.5
100
AcDbArc
 50
180.0
 51
268.4999999999971
  0
LINE
  5
109C
330
1F
100
AcDbEntity
  8
0
100
AcDbLine
 10
40.90000082459176
 20
175.97381853678
 30
0.0
 11
40.90000082459176
 21
170.97381853678
 31
0.0
  0
LINE
  5
109D
330
1F
100
AcDbEntity
  8
0
100
AcDbLine
 10
45.10000082459177
 20
175.97381853678
 30
0.0
 11
45.10000082459177
 21
170.97381853678
 31
0.0
  0
LINE
  5
109E
330
1F
100
AcDbEntity
  8
0
100
AcDbLine
 10
37.50000082459178
 20
175.97381853678
 30
0.0
 11
37.50000082459178
 21
170.97381853678
 31
0.0
  0
LINE
  5
109F
330
1F
100
AcDbEntity
  8
0
100
AcDbLine
 10
18.00000082459177
 20
170.97381853678
 30
0.0
 11
40.90000082459176
 21
170.97381853678
 31
0.0
  0
LINE
  5
10A0
330
1F
100
AcDbEntity
  8
0
100
AcDbLine
 10
18.00000082459177
 20
170.97381853678
 30
0.0
 11
40.75000082459178
 21
170.97381853678
 31
0.0
  0
LINE
  5
10A1
330
1F
100
AcDbEntity
  8
0
100
AcDbLine
 10
37.60000094650877
 20
185.1738183774364
 30
0.0
 11
27.00000094650873
 21
185.1738183774364
 31
0.0
  0
LINE
  5
10A2
330
1F
100
AcDbEntity
  8
0
100
AcDbLine
 10
28.10000082459078
 20
185.97381853678
 30
0.0
 11
36.70000082459079
 21
185.97381853678
 31
0.0
  0
LINE
  5
10A3
330
1F
100
AcDbEntity
  8
0
100
AcDbLine
 10
22.00000082458767
 20
197.97381853678
 30
0.0
 11
22.00000082458664
 21
181.0785622230569
 31
0.0
  0
LINE
  5
10A4
330
1F
100
AcDbEntity
  8
0
100
AcDbLine
 10
23.0000008245878
 20
197.97381853678
 30
0.0
 11
23.00000082458665
 21
180.97381853678
 31
0.0
  0
LINE
  5
10A5
330
1F
100
AcDbEntity
  8
0
100
AcDbLine
 10
25.00000082458768
 20
197.97381853678
 30
0.0
 11
25.00000082458665
 21
182.97381853678
 31
0.0
  0
LINE
  5
10A6
330
1F
100
AcDbEntity
  8
0
100
AcDbLine
 10
22.00000082458767
 20
197.97381853678
 30
0.0
 11
22.00000082458664
 21
181.47381853678
 31
0.0
  0
LINE
  5
10A7
330
1F
100
AcDbEntity
  8
0
100
AcDbLine
 10
25.10000082458759
 20
197.97381853678
 30
0.0
 11
25.10000082458669
 21
183.1738185367803
 31
0.0
  0
LINE
  5
10A8
330
1F
100
AcDbEntity
  8
0
100
AcDbLine
 10
18.00000082459177
 20
180.97381853678
 30
0.0
 11
22.00000082458664
 21
181.0785622230569
 31
0.0
  0
LINE
  5
10A9
330
1F
100
AcDbEntity
  8
0
100
AcDbLine
 10
18.00000082459177
 20
180.97381853678
 30
0.0
 11
22.00000082458767
 21
181.0785622230569
 31
0.0
  0
CIRCLE
  5
10AA
330
1F
100
AcDbEntity
  8
0
100
AcDbCircle
 10
18.00000082459177
 20
185.97381853678
 30
0.0
 40
1.6
  0
CIRCLE
  5
10AB
330
1F
100
AcDbEntity
  8
0
100
AcDbCircle
 10
18.00000082459177
 20
185.97381853678
 30
0.0
 40
2.0
  0
LINE
  5
10AC
330
1F
100
AcDbEntity
  8
0
100
AcDbLine
 10
20.00000082458928
 20
181.0261903799178
 30
0.0
 11
20.00000082459075
 21
180.97381853678
 31
0.0
  0
LINE
  5
10AD
330
1F
100
AcDbEntity
  8
0
100
AcDbLine
 10
23.00000082458665
 20
181.47381853678
 30
0.0
 11
22.00000082458664
 21
181.4738185367795
 31
0.0
  0
ARC
  5
10AE
330
1F
100
AcDbEntity
  8
0
100
AcDbCircle
 10
18.30000082459173
 20
197.97381853678
 30
0.0
 40
3.699999999995998
100
AcDbArc
 50
0.0
 51
79.09453000325759
  0
ARC
  5
10AF
330
1F
100
AcDbEntity
  8
0
100
AcDbCircle
 10
18.30000082459173
 20
197.97381853678
 30
0.0
 40
4.699999999995998
100
AcDbArc
 50
0.0
 51
68.79523363709401
  0
ARC
  5
10B0
330
1F
100
AcDbEntity
  8
0
100
AcDbCircle
 10
18.30000082459173
 20
197.97381853678
 30
0.0
 40
3.699999999995998
100
AcDbArc
 50
0.0
 51
79.09453000325759
  0
LINE
  5
10B1
330
1F
100
AcDbEntity
  8
0
100
AcDbLine
 10
16.35000082459157
 20
203.97381853678
 30
0.0
 11
16.35000082459157
 21
205.3238185367798
 31
0.0
  0
LINE
  5
10B2
330
1F
100
AcDbEntity
  8
0
100
AcDbLine
 10
16.65000082459062
 20
203.97381853678
 30
0.0
 11
16.65000082459062
 21
205.3238185367798
 31
0.0
  0
ARC
  5
10B3
330
1F
100
AcDbEntity
  8
0
100
AcDbCircle
 10
16.50000082459178
 20
205.3238185367798
 30
0.0
 40
0.15
100
AcDbArc
 50
0.0
 51
180.0
  0
ARC
  5
10B4
330
1F
100
AcDbEntity
  8
0
100
AcDbCircle
 10
17.8500008245918
 20
203.8238185367799
 30
0.0
 40
0.15
100
AcDbArc
 50
270.0
 51
90.0
  0
LINE
  5
10B5
330
1F
100
AcDbEntity
  8
0
100
AcDbLine
 10
16.65000082459062
 20
203.97381853678
 30
0.0
 11
17.8500008245918
 21
203.97381853678
 31
0.0
  0
LINE
  5
10B6
330
1F
100
AcDbEntity
  8
0
100
AcDbLine
 10
15.55000082459172
 20
203.3238185367799
 30
0.0
 11
17.45000082459077
 21
203.3238185367799
 31
0.0
  0
LINE
  5
10B7
330
1F
100
AcDbEntity
  8
0
100
AcDbLine
 10
15.55000082459172
 20
203.0238185367802
 30
0.0
 11
17.45000082459077
 21
203.0238185367802
 31
0.0
  0
LINE
  5
10B8
330
1F
100
AcDbEntity
  8
0
100
AcDbLine
 10
15.95000082459169
 20
202.6738185367803
 30
0.0
 11
17.05000082459082
 21
202.6738185367803
 31
0.0
  0
LINE
  5
10B9
330
1F
100
AcDbEntity
  8
0
100
AcDbLine
 10
15.95000082459169
 20
202.37381853678
 30
0.0
 11
17.05000082459082
 21
202.37381853678
 31
0.0
  0
ARC
  5
10BA
330
1F
100
AcDbEntity
  8
0
100
AcDbCircle
 10
15.95000082459169
 20
202.52381853678
 30
0.0
 40
0.15
100
AcDbArc
 50
90.0
 51
270.0
  0
ARC
  5
10BB
330
1F
100
AcDbEntity
  8
0
100
AcDbCircle
 10
17.05000082459082
 20
202.52381853678
 30
0.0
 40
0.15
100
AcDbArc
 50
270.0
 51
90.0
  0
ARC
  5
10BC
330
1F
100
AcDbEntity
  8
0
100
AcDbCircle
 10
15.55000082459172
 20
203.1738185367803
 30
0.0
 40
0.15
100
AcDbArc
 50
90.0
 51
270.0
  0
ARC
  5
10BD
330
1F
100
AcDbEntity
  8
0
100
AcDbCircle
 10
17.45000082459077
 20
203.1738185367803
 30
0.0
 40
0.15
100
AcDbArc
 50
270.0
 51
90.0
  0
ARC
  5
10BE
330
1F
100
AcDbEntity
  8
0
100
AcDbCircle
 10
15.15000082459175
 20
203.8238185367799
 30
0.0
 40
0.15
100
AcDbArc
 50
90.0
 51
270.0
  0
CIRCLE
  5
10BF
330
1F
100
AcDbEntity
  8
0
100
AcDbCircle
 10
16.50000082459178
 20
203.97381853678
 30
0.0
 40
2.149999999999999
  0
CIRCLE
  5
10C0
330
1F
100
AcDbEntity
  8
0
100
AcDbCircle
 10
16.50000082459178
 20
203.97381853678
 30
0.0
 40
1.85
  0
LINE
  5
10C1
330
1F
100
AcDbEntity
  8
0
100
AcDbLine
 10
15.15000082459175
 20
203.6738185367803
 30
0.0
 11
17.8500008245918
 21
203.6738185367803
 31
0.0
  0
LINE
  5
10C2
330
1F
100
AcDbEntity
  8
0
100
AcDbLine
 10
15.15000082459175
 20
203.97381853678
 30
0.0
 11
16.35000082459157
 21
203.97381853678
 31
0.0
  0
CIRCLE
  5
10C3
330
1F
100
AcDbEntity
  8
0
100
AcDbCircle
 10
18.00000082459177
 20
195.97381853678
 30
0.0
 40
2.0
  0
CIRCLE
  5
10C4
330
1F
100
AcDbEntity
  8
0
100
AcDbCircle
 10
18.00000082459177
 20
195.97381853678
 30
0.0
 40
1.6
  0
ARC
  5
10C5
330
1F
100
AcDbEntity
  8
0
100
AcDbCircle
 10
18.30000082459173
 20
197.97381853678
 30
0.0
 40
6.699999999996
100
AcDbArc
 50
0.0
 51
56.47925960397121
  0
ARC
  5
10C6
330
1F
100
AcDbEntity
  8
0
100
AcDbCircle
 10
18.20000082459078
 20
197.97381853678
 30
0.0
 40
6.899999999996
100
AcDbArc
 50
0.0
 51
55.58261128952961
  0
CIRCLE
  5
10C7
330
1F
100
AcDbEntity
  8
0
100
AcDbCircle
 10
32.10000082459078
 20
193.5938185367799
 30
0.0
 40
2.0
  0
ARC
  5
10C8
330
1F
100
AcDbEntity
  8
0
100
AcDbCircle
 10
43.00000082459189
 20
175.97381853678
 30
0.0
 40
5.5
100
AcDbArc
 50
114.6199773286481
 51
180.0
  0
CIRCLE
  5
10C9
330
1F
100
AcDbEntity
  8
0
100
AcDbCircle
 10
32.10000082459078
 20
188.8438185367799
 30
0.0
 40
1.0
  0
CIRCLE
  5
10CA
330
1F
100
AcDbEntity
  8
0
100
AcDbCircle
 10
32.10000082459078
 20
188.8438185367799
 30
0.0
 40
1.5
  0
ARC
  5
10CB
330
1F
100
AcDbEntity
  8
0
100
AcDbCircle
 10
43.00000082459189
 20
175.97381853678
 30
0.0
 40
2.1
100
AcDbArc
 50
0.0
 51
180.0
  0
CIRCLE
  5
10CC
330
1F
100
AcDbEntity
  8
0
100
AcDbCircle
 10
32.10000082459078
 20
203.753818536781
 30
0.0
 40
2.0
  0
CIRCLE
  5
10CD
330
1F
100
AcDbEntity
  8
0
100
AcDbCircle
 10
32.10000082459078
 20
203.753818536781
 30
0.0
 40
2.0
  0
CIRCLE
  5
10CE
330
1F
100
AcDbEntity
  8
0
100
AcDbCircle
 10
32.10000082459078
 20
198.6738185367803
 30
0.0
 40
2.0
  0
CIRCLE
  5
10CF
330
1F
100
AcDbEntity
  8
0
100
AcDbCircle
 10
32.10000082459078
 20
198.6738185367803
 30
0.0
 40
2.0
  0
CIRCLE
  5
10D0
330
1F
100
AcDbEntity
  8
0
100
AcDbCircle
 10
32.10000082459078
 20
208.8338185367802
 30
0.0
 40
2.0
  0
LINE
  5
10D2
330
1F
100
AcDbEntity
  8
0
100
AcDbLine
 10
48.50000082459178
 20
175.97381853678
 30
0.0
 11
48.50000082459178
 21
170.97381853678
 31
0.0
  0
LINE
  5
10D8
330
1F
100
AcDbEntity
  8
0
100
AcDbLine
 10
45.10000082459177
 20
170.97381853678
 30
0.0
 11
71.00000082459178
 21
170.97381853678
 31
0.0
  0
ARC
  5
10DA
330
1F
100
AcDbEntity
  8
0
100
AcDbCircle
 10
71.00000082459178
 20
171.97381853678
 30
0.0
 40
1.0
100
AcDbArc
 50
270.0
 51
0.0
  0
LINE
  5
10DB
330
1F
100
AcDbEntity
  8
0
100
AcDbLine
 10
63.10000082459078
 20
191.47381853678
 30
0.0
 11
56.60000082459077
 21
191.47381853678
 31
0.0
  0
LINE
  5
10DC
330
1F
100
AcDbEntity
  8
0
100
AcDbLine
 10
54.50000082459178
 20
192.97381853678
 30
0.0
 11
62.80000082459172
 21
192.97381853678
 31
0.0
  0
LINE
  5
10DD
330
1F
100
AcDbEntity
  8
0
100
AcDbLine
 10
53.70000082459194
 20
193.97381853678
 30
0.0
 11
62.80000082459172
 21
193.97381853678
 31
0.0
  0
LINE
  5
10DE
330
1F
100
AcDbEntity
  8
0
100
AcDbLine
 10
56.60000082459077
 20
185.97381853678
 30
0.0
 11
63.10000082459078
 21
185.97381853678
 31
0.0
  0
LINE
  5
10DF
330
1F
100
AcDbEntity
  8
0
100
AcDbLine
 10
64.00000094650977
 20
185.1738183774364
 30
0.0
 11
52.60000094650877
 21
185.1738183774364
 31
0.0
  0
CIRCLE
  5
10E1
330
1F
100
AcDbEntity
  8
0
100
AcDbCircle
 10
59.67000082459072
 20
189.97381853678
 30
0.0
 40
0.32
  0
LINE
  5
10E2
330
1F
100
AcDbEntity
  8
0
100
AcDbLine
 10
57.60000082459078
 20
189.47381853678
 30
0.0
 11
56.60000082459077
 21
189.47381853678
 31
0.0
  0
CIRCLE
  5
10E3
330
1F
100
AcDbEntity
  8
0
100
AcDbCircle
 10
59.67000082459072
 20
187.47381853678
 30
0.0
 40
0.32
  0
LINE
  5
10E4
330
1F
100
AcDbEntity
  8
0
100
AcDbLine
 10
56.60000082459077
 20
187.97381853678
 30
0.0
 11
57.60000082459078
 21
187.97381853678
 31
0.0
  0
LINE
  5
10E5
330
1F
100
AcDbEntity
  8
0
100
AcDbLine
 10
56.60000082459077
 20
185.97381853678
 30
0.0
 11
57.60000082459078
 21
185.97381853678
 31
0.0
  0
LINE
  5
10E6
330
1F
100
AcDbEntity
  8
0
100
AcDbLine
 10
57.60000082459078
 20
187.97381853678
 30
0.0
 11
57.60000082459078
 21
189.47381853678
 31
0.0
  0
LINE
  5
10E7
330
1F
100
AcDbEntity
  8
0
100
AcDbLine
 10
56.60000082459077
 20
189.47381853678
 30
0.0
 11
56.60000082459077
 21
187.97381853678
 31
0.0
  0
LINE
  5
10E8
330
1F
100
AcDbEntity
  8
0
100
AcDbLine
 10
57.60000082459078
 20
185.97381853678
 30
0.0
 11
57.60000082459078
 21
191.47381853678
 31
0.0
  0
LINE
  5
10E9
330
1F
100
AcDbEntity
  8
0
100
AcDbLine
 10
56.60000082459077
 20
191.47381853678
 30
0.0
 11
56.60000082459077
 21
185.97381853678
 31
0.0
  0
ARC
  5
10EA
330
1F
100
AcDbEntity
  8
0
100
AcDbCircle
 10
54.50000082459178
 20
193.47381853678
 30
0.0
 40
0.5
100
AcDbArc
 50
180.0
 51
270.0
  0
LINE
  5
10EB
330
1F
100
AcDbEntity
  8
0
100
AcDbLine
 10
54.00000082459178
 20
193.97381853678
 30
0.0
 11
54.00000082459178
 21
193.47381853678
 31
0.0
  0
ARC
  5
10EC
330
1F
100
AcDbEntity
  8
0
100
AcDbCircle
 10
59.45000082459194
 20
204.0901016793723
 30
0.0
 40
2.0
100
AcDbArc
 50
284.9999999999943
 51
0.0
  0
LINE
  5
10ED
330
1F
100
AcDbEntity
  8
0
100
AcDbLine
 10
61.45000082459171
 20
197.97381853678
 30
0.0
 11
61.45000082459171
 21
200.37381853678
 31
0.0
  0
ARC
  5
10EE
330
1F
100
AcDbEntity
  8
0
100
AcDbCircle
 10
57.15000082459177
 20
203.47381853678
 30
0.0
 40
2.0
100
AcDbArc
 50
180.0
 51
284.9999999999943
  0
LINE
  5
10EF
330
1F
100
AcDbEntity
  8
0
100
AcDbLine
 10
55.15000082459176
 20
200.37381853678
 30
0.0
 11
55.15000082459176
 21
197.97381853678
 31
0.0
  0
LINE
  5
10F0
330
1F
100
AcDbEntity
  8
0
100
AcDbLine
 10
57.66763891479661
 20
201.5419668842018
 30
0.0
 11
59.96763891479679
 21
202.1582500267923
 31
0.0
  0
LINE
  5
10F1
330
1F
100
AcDbEntity
  8
0
100
AcDbLine
 10
56.70000082459194
 20
202.97381853678
 30
0.0
 11
59.90000082459175
 21
202.97381853678
 31
0.0
  0
LINE
  5
10F2
330
1F
100
AcDbEntity
  8
0
100
AcDbLine
 10
55.15000082459176
 20
200.37381853678
 30
0.0
 11
61.45000082459171
 21
200.37381853678
 31
0.0
  0
LINE
  5
10F3
330
1F
100
AcDbEntity
  8
0
100
AcDbLine
 10
55.15000082459176
 20
198.47381853678
 30
0.0
 11
61.45000082459171
 21
198.47381853678
 31
0.0
  0
LINE
  5
10F4
330
1F
100
AcDbEntity
  8
0
100
AcDbLine
 10
55.15000082459176
 20
197.97381853678
 30
0.0
 11
61.45000082459171
 21
197.97381853678
 31
0.0
  0
CIRCLE
  5
10F5
330
1F
100
AcDbEntity
  8
0
100
AcDbCircle
 10
58.30000082459162
 20
195.9438185367803
 30
0.0
 40
1.399999999999999
  0
LINE
  5
10F7
330
1F
100
AcDbEntity
  8
0
100
AcDbLine
 10
63.10000082459078
 20
185.97381853678
 30
0.0
 11
63.10000082459078
 21
191.47381853678
 31
0.0
  0
LINE
  5
10F8
330
1F
100
AcDbEntity
  8
0
100
AcDbLine
 10
62.80000082459172
 20
210.3038185367813
 30
0.0
 11
63.10000082459158
 21
210.3038185367813
 31
0.0
  0
LINE
  5
10F9
330
1F
100
AcDbEntity
  8
0
100
AcDbLine
 10
62.80000082459172
 20
209.0338185367814
 30
0.0
 11
63.10000082459158
 21
209.0338185367814
 31
0.0
  0
LINE
  5
10FA
330
1F
100
AcDbEntity
  8
0
100
AcDbLine
 10
62.80000082459172
 20
207.7638185367812
 30
0.0
 11
63.10000082459158
 21
207.7638185367812
 31
0.0
  0
LINE
  5
10FB
330
1F
100
AcDbEntity
  8
0
100
AcDbLine
 10
62.80000082459172
 20
207.7638185367812
 30
0.0
 11
63.10000082459158
 21
207.7638185367812
 31
0.0
  0
LINE
  5
10FC
330
1F
100
AcDbEntity
  8
0
100
AcDbLine
 10
62.80000082459172
 20
206.4938185367814
 30
0.0
 11
63.10000082459158
 21
206.4938185367814
 31
0.0
  0
LINE
  5
10FD
330
1F
100
AcDbEntity
  8
0
100
AcDbLine
 10
62.80000082459172
 20
205.2238185367813
 30
0.0
 11
63.10000082459158
 21
205.2238185367813
 31
0.0
  0
LINE
  5
10FE
330
1F
100
AcDbEntity
  8
0
100
AcDbLine
 10
62.80000082459172
 20
203.9538185367812
 30
0.0
 11
63.10000082459158
 21
203.9538185367812
 31
0.0
  0
LINE
  5
10FF
330
1F
100
AcDbEntity
  8
0
100
AcDbLine
 10
62.80000082459172
 20
200.37381853678
 30
0.0
 11
63.10000082459158
 21
200.37381853678
 31
0.0
  0
ARC
  5
1100
330
1F
100
AcDbEntity
  8
0
100
AcDbCircle
 10
62.80000082459172
 20
193.27381853678
 30
0.0
 40
0.3
100
AcDbArc
 50
270.0
 51
0.0
  0
LINE
  5
1101
330
1F
100
AcDbEntity
  8
0
100
AcDbLine
 10
63.10000082459158
 20
200.37381853678
 30
0.0
 11
63.10000082459158
 21
193.27381853678
 31
0.0
  0
ARC
  5
1102
330
1F
100
AcDbEntity
  8
0
100
AcDbCircle
 10
43.00000082459189
 20
359.97381853678
 30
0.0
 40
5.5
100
AcDbArc
 50
294.6199773286481
 51
0.0
  0
LINE
  5
1103
330
1F
100
AcDbEntity
  8
0
100
AcDbLine
 10
18.00000082459177
 20
364.97381853678
 30
0.0
 11
71.00000082459178
 21
364.97381853678
 31
0.0
  0
LINE
  5
1104
330
1F
100
AcDbEntity
  8
0
100
AcDbLine
 10
20.00000082459178
 20
354.97381853678
 30
0.0
 11
72.00000082459178
 21
354.97381853678
 31
0.0
  0
LINE
  5
1105
330
1F
100
AcDbEntity
  8
0
100
AcDbLine
 10
70.00000082459178
 20
352.97381853678
 30
0.0
 11
22.00000082459176
 21
352.97381853678
 31
0.0
  0
LINE
  5
1106
330
1F
100
AcDbEntity
  8
0
100
AcDbLine
 10
69.7000008245908
 20
352.77381853678
 30
0.0
 11
22.10000082459078
 21
352.77381853678
 31
0.0
  0
LINE
  5
1107
330
1F
100
AcDbEntity
  8
0
100
AcDbLine
 10
18.00000082459177
 20
364.97381853678
 30
0.0
 11
71.00000082459178
 21
364.97381853678
 31
0.0
  0
CIRCLE
  5
1108
330
1F
100
AcDbEntity
  8
0
100
AcDbCircle
 10
43.00000082459189
 20
359.97381853678
 30
0.0
 40
2.1
  0
LINE
  5
1109
330
1F
100
AcDbEntity
  8
0
100
AcDbLine
 10
37.50000082459178
 20
359.97381853678
 30
0.0
 11
37.50000082459178
 21
364.97381853678
 31
0.0
  0
LINE
  5
110A
330
1F
100
AcDbEntity
  8
0
100
AcDbLine
 10
38.9450008245908
 20
301.1338185367798
 30
0.0
 11
38.9450008245908
 21
276.9738185367799
 31
0.0
  0
LINE
  5
110B
330
1F
100
AcDbEntity
  8
0
100
AcDbLine
 10
39.40000094650871
 20
302.1738183774363
 30
0.0
 11
39.40000094650871
 21
275.9738183774361
 31
0.0
  0
LINE
  5
110C
330
1F
100
AcDbEntity
  8
0
100
AcDbLine
 10
30.60000082459078
 20
301.1338185367798
 30
0.0
 11
30.60000082459078
 21
276.9738185367799
 31
0.0
  0
LINE
  5
110D
330
1F
100
AcDbEntity
  8
0
100
AcDbLine
 10
37.58500082459078
 20
301.1338185367798
 30
0.0
 11
37.58500082459078
 21
276.9738185367799
 31
0.0
  0
LINE
  5
110E
330
1F
100
AcDbEntity
  8
0
100
AcDbLine
 10
29.60000082459078
 20
301.1338185367798
 30
0.0
 11
29.60000082459078
 21
276.9738185367799
 31
0.0
  0
LINE
  5
110F
330
1F
100
AcDbEntity
  8
0
100
AcDbLine
 10
27.00000094650873
 20
302.1738183774363
 30
0.0
 11
27.00000094650873
 21
275.9738183774361
 31
0.0
  0
LINE
  5
1110
330
1F
100
AcDbEntity
  8
0
100
AcDbLine
 10
28.10000082459179
 20
275.9738183774361
 30
0.0
 11
28.10000082459179
 21
302.1738183774363
 31
0.0
  0
LINE
  5
1111
330
1F
100
AcDbEntity
  8
0
100
AcDbLine
 10
35.10000082459078
 20
252.5438185367802
 30
0.0
 11
35.10000082459078
 21
247.5438185367802
 31
0.0
  0
LINE
  5
1112
330
1F
100
AcDbEntity
  8
0
100
AcDbLine
 10
30.10000082459078
 20
251.7538185367802
 30
0.0
 11
30.10000082459078
 21
248.3338185367796
 31
0.0
  0
LINE
  5
1113
330
1F
100
AcDbEntity
  8
0
100
AcDbLine
 10
37.60000094650877
 20
256.573818377436
 30
0.0
 11
37.60000094650877
 21
243.1738183774364
 31
0.0
  0
LINE
  5
1114
330
1F
100
AcDbEntity
  8
0
100
AcDbLine
 10
36.60000082459077
 20
234.6138185367798
 30
0.0
 11
36.60000082459077
 21
265.1138185367798
 31
0.0
  0
LINE
  5
1115
330
1F
100
AcDbEntity
  8
0
100
AcDbLine
 10
28.10000082459078
 20
270.4738185367799
 30
0.0
 11
28.10000082459078
 21
229.6138185367798
 31
0.0
  0
ARC
  5
1116
330
1F
100
AcDbEntity
  8
0
100
AcDbCircle
 10
32.10000082459078
 20
238.6138185367798
 30
0.0
 40
2.9
100
AcDbArc
 50
133.6028189727078
 51
226.3971810272921
  0
LINE
  5
1117
330
1F
100
AcDbEntity
  8
0
100
AcDbLine
 10
28.10000082459078
 20
229.6138185367798
 30
0.0
 11
35.10000082459078
 21
229.6138185367798
 31
0.0
  0
LINE
  5
1118
330
1F
100
AcDbEntity
  8
0
100
AcDbLine
 10
28.10000082459078
 20
229.6138185367798
 30
0.0
 11
35.10000082459078
 21
229.6138185367798
 31
0.0
  0
LINE
  5
1119
330
1F
100
AcDbEntity
  8
0
100
AcDbLine
 10
36.70000082459079
 20
226.6138185367799
 30
0.0
 11
28.10000082459078
 21
226.6138185367799
 31
0.0
  0
ARC
  5
111A
330
1F
100
AcDbEntity
  8
0
100
AcDbCircle
 10
32.10000082459078
 20
246.2338185367801
 30
0.0
 40
2.9
100
AcDbArc
 50
133.6028189727078
 51
226.3971810272921
  0
LINE
  5
111B
330
1F
100
AcDbEntity
  8
0
100
AcDbLine
 10
28.10000082459078
 20
234.8538185367802
 30
0.0
 11
28.10000082459078
 21
229.6138185367798
 31
0.0
  0
LINE
  5
111C
330
1F
100
AcDbEntity
  8
0
100
AcDbLine
 10
35.10000082459078
 20
229.6138185367798
 30
0.0
 11
35.10000082459078
 21
234.6138185367798
 31
0.0
  0
LINE
  5
111D
330
1F
100
AcDbEntity
  8
0
100
AcDbLine
 10
35.10000082459078
 20
229.6138185367798
 30
0.0
 11
35.10000082459078
 21
234.8538185367802
 31
0.0
  0
CIRCLE
  5
111E
330
1F
100
AcDbEntity
  8
0
100
AcDbCircle
 10
32.10000082459078
 20
223.7438185367814
 30
0.0
 40
1.0
  0
CIRCLE
  5
111F
330
1F
100
AcDbEntity
  8
0
100
AcDbCircle
 10
32.10000082459078
 20
223.7438185367814
 30
0.0
 40
1.5
  0
CIRCLE
  5
1120
330
1F
100
AcDbEntity
  8
0
100
AcDbCircle
 10
32.10000082459078
 20
213.9138185367801
 30
0.0
 40
2.0
  0
CIRCLE
  5
1121
330
1F
100
AcDbEntity
  8
0
100
AcDbCircle
 10
32.10000082459078
 20
213.9138185367801
 30
0.0
 40
2.0
  0
CIRCLE
  5
1122
330
1F
100
AcDbEntity
  8
0
100
AcDbCircle
 10
32.10000082459078
 20
218.9938185367814
 30
0.0
 40
2.0
  0
LINE
  5
1123
330
1F
100
AcDbEntity
  8
0
100
AcDbLine
 10
37.60000094650877
 20
243.1738183774364
 30
0.0
 11
39.20000094650868
 21
243.1738183774364
 31
0.0
  0
LINE
  5
1124
330
1F
100
AcDbEntity
  8
0
100
AcDbLine
 10
36.60000082459077
 20
242.1638185367799
 30
0.0
 11
38.30000082459071
 21
242.1638185367799
 31
0.0
  0
LINE
  5
1125
330
1F
100
AcDbEntity
  8
0
100
AcDbLine
 10
38.30000082459071
 20
240.5638185367802
 30
0.0
 11
36.60000082459077
 21
240.5638185367802
 31
0.0
  0
LINE
  5
1126
330
1F
100
AcDbEntity
  8
0
100
AcDbLine
 10
37.60000094650877
 20
239.5738183774358
 30
0.0
 11
39.20000094650868
 21
239.5738183774358
 31
0.0
  0
LINE
  5
1127
330
1F
100
AcDbEntity
  8
0
100
AcDbLine
 10
34.30000082459071
 20
247.5438185367802
 30
0.0
 11
35.10000082459078
 21
247.5438185367802
 31
0.0
  0
LINE
  5
1128
330
1F
100
AcDbEntity
  8
0
100
AcDbLine
 10
34.30000082459071
 20
244.9238185367803
 30
0.0
 11
35.10000082459078
 21
244.9238185367803
 31
0.0
  0
LINE
  5
1129
330
1F
100
AcDbEntity
  8
0
100
AcDbLine
 10
34.30000082459071
 20
247.5438185367802
 30
0.0
 11
34.30000082459071
 21
244.9238185367803
 31
0.0
  0
CIRCLE
  5
112A
330
1F
100
AcDbEntity
  8
0
100
AcDbCircle
 10
32.10000082459078
 20
246.2338185367801
 30
0.0
 40
0.75
  0
LINE
  5
112B
330
1F
100
AcDbEntity
  8
0
100
AcDbLine
 10
34.30000082459071
 20
239.9238185367803
 30
0.0
 11
35.10000082459078
 21
239.9238185367803
 31
0.0
  0
LINE
  5
112C
330
1F
100
AcDbEntity
  8
0
100
AcDbLine
 10
35.10000082459078
 20
234.6138185367798
 30
0.0
 11
36.60000082459077
 21
234.6138185367798
 31
0.0
  0
LINE
  5
112D
330
1F
100
AcDbEntity
  8
0
100
AcDbLine
 10
34.30000082459071
 20
237.3038185367799
 30
0.0
 11
35.10000082459078
 21
237.3038185367799
 31
0.0
  0
LINE
  5
112E
330
1F
100
AcDbEntity
  8
0
100
AcDbLine
 10
35.10000082459078
 20
237.3038185367799
 30
0.0
 11
35.10000082459078
 21
235.6138185367798
 31
0.0
  0
LINE
  5
112F
330
1F
100
AcDbEntity
  8
0
100
AcDbLine
 10
34.30000082459071
 20
239.9238185367803
 30
0.0
 11
34.30000082459071
 21
237.3038185367799
 31
0.0
  0
LINE
  5
1130
330
1F
100
AcDbEntity
  8
0
100
AcDbLine
 10
30.10000082459078
 20
244.1338185367798
 30
0.0
 11
30.10000082459078
 21
240.7138185367803
 31
0.0
  0
LINE
  5
1131
330
1F
100
AcDbEntity
  8
0
100
AcDbLine
 10
30.10000082459078
 20
236.5138185367798
 30
0.0
 11
30.10000082459078
 21
235.6138185367798
 31
0.0
  0
CIRCLE
  5
1132
330
1F
100
AcDbEntity
  8
0
100
AcDbCircle
 10
32.10000082459078
 20
238.6138185367798
 30
0.0
 40
0.75
  0
CIRCLE
  5
1133
330
1F
100
AcDbEntity
  8
0
100
AcDbCircle
 10
32.0636147641876
 20
232.5138185367798
 30
0.0
 40
0.9
  0
LINE
  5
1134
330
1F
100
AcDbEntity
  8
0
100
AcDbLine
 10
30.10000082459078
 20
235.6138185367798
 30
0.0
 11
35.10000082459078
 21
235.6138185367798
 31
0.0
  0
CIRCLE
  5
1135
330
1F
100
AcDbEntity
  8
0
100
AcDbCircle
 10
32.10000082459078
 20
238.6138185367798
 30
0.0
 40
1.5
  0
CIRCLE
  5
1136
330
1F
100
AcDbEntity
  8
0
100
AcDbCircle
 10
32.0636147641876
 20
232.5138185367798
 30
0.0
 40
2.0
  0
LINE
  5
1137
330
1F
100
AcDbEntity
  8
0
100
AcDbLine
 10
35.10000082459078
 20
244.9238185367803
 30
0.0
 11
35.10000082459078
 21
239.9238185367803
 31
0.0
  0
CIRCLE
  5
1138
330
1F
100
AcDbEntity
  8
0
100
AcDbCircle
 10
32.10000082459078
 20
246.2338185367801
 30
0.0
 40
1.5
  0
LINE
  5
1139
330
1F
100
AcDbEntity
  8
0
100
AcDbLine
 10
38.30000082459071
 20
242.1638185367799
 30
0.0
 11
38.30000082459071
 21
240.5638185367802
 31
0.0
  0
LINE
  5
113A
330
1F
100
AcDbEntity
  8
0
100
AcDbLine
 10
39.20000094650868
 20
243.1738183774364
 30
0.0
 11
39.20000094650868
 21
239.5738183774358
 31
0.0
  0
LINE
  5
113B
330
1F
100
AcDbEntity
  8
0
100
AcDbLine
 10
29.60000082459078
 20
276.9738185367799
 30
0.0
 11
38.9450008245908
 21
276.9738185367799
 31
0.0
  0
LINE
  5
113C
330
1F
100
AcDbEntity
  8
0
100
AcDbLine
 10
27.00000094650873
 20
271.4738183774361
 30
0.0
 11
37.60000094650877
 21
271.4738183774361
 31
0.0
  0
LINE
  5
113D
330
1F
100
AcDbEntity
  8
0
100
AcDbLine
 10
28.10000082459078
 20
270.4738185367799
 30
0.0
 11
35.10000082459078
 21
270.4738185367799
 31
0.0
  0
LINE
  5
113E
330
1F
100
AcDbEntity
  8
0
100
AcDbLine
 10
28.10000082459078
 20
270.4738185367799
 30
0.0
 11
35.10000082459078
 21
270.4738185367799
 31
0.0
  0
ARC
  5
113F
330
1F
100
AcDbEntity
  8
0
100
AcDbCircle
 10
32.10000082459078
 20
253.8538185367801
 30
0.0
 40
2.9
100
AcDbArc
 50
133.6028189727078
 51
226.3971810272921
  0
ARC
  5
1140
330
1F
100
AcDbEntity
  8
0
100
AcDbCircle
 10
32.10000082459078
 20
261.4738185367798
 30
0.0
 40
2.9
100
AcDbArc
 50
133.6028189727078
 51
226.3971810272921
  0
LINE
  5
1141
330
1F
100
AcDbEntity
  8
0
100
AcDbLine
 10
27.00000094650873
 20
275.9738183774361
 30
0.0
 11
39.40000094650871
 21
275.9738183774361
 31
0.0
  0
LINE
  5
1142
330
1F
100
AcDbEntity
  8
0
100
AcDbLine
 10
28.10000082459078
 20
265.2338185367799
 30
0.0
 11
28.10000082459078
 21
270.4738185367799
 31
0.0
  0
LINE
  5
1143
330
1F
100
AcDbEntity
  8
0
100
AcDbLine
 10
29.60000082459078
 20
284.4738185367798
 30
0.0
 11
28.10000082459179
 21
284.4738185367798
 31
0.0
  0
LINE
  5
1144
330
1F
100
AcDbEntity
  8
0
100
AcDbLine
 10
28.10000082459179
 20
283.4738185367798
 30
0.0
 11
29.60000082459078
 21
283.4738185367798
 31
0.0
  0
LINE
  5
1145
330
1F
100
AcDbEntity
  8
0
100
AcDbLine
 10
29.60000082459078
 20
283.4738185367798
 30
0.0
 11
29.60000082459078
 21
284.4738185367798
 31
0.0
  0
LINE
  5
1146
330
1F
100
AcDbEntity
  8
0
100
AcDbLine
 10
29.60000082459078
 20
279.9738185367798
 30
0.0
 11
28.10000082459078
 21
279.9738185367798
 31
0.0
  0
LINE
  5
1147
330
1F
100
AcDbEntity
  8
0
100
AcDbLine
 10
28.10000082459078
 20
276.9738185367799
 30
0.0
 11
29.60000082459078
 21
276.9738185367799
 31
0.0
  0
LINE
  5
1148
330
1F
100
AcDbEntity
  8
0
100
AcDbLine
 10
29.60000082459078
 20
276.9738185367799
 30
0.0
 11
29.60000082459078
 21
277.9738185367798
 31
0.0
  0
LINE
  5
1149
330
1F
100
AcDbEntity
  8
0
100
AcDbLine
 10
29.60000082459078
 20
276.9738185367799
 30
0.0
 11
29.60000082459078
 21
279.9738185367798
 31
0.0
  0
LINE
  5
114A
330
1F
100
AcDbEntity
  8
0
100
AcDbLine
 10
28.10000082459078
 20
279.9738185367798
 30
0.0
 11
28.10000082459078
 21
276.9738185367799
 31
0.0
  0
LINE
  5
114B
330
1F
100
AcDbEntity
  8
0
100
AcDbLine
 10
35.10000082459078
 20
265.4738185367798
 30
0.0
 11
35.10000082459078
 21
270.4738185367799
 31
0.0
  0
LINE
  5
114C
330
1F
100
AcDbEntity
  8
0
100
AcDbLine
 10
35.10000082459078
 20
270.4738185367799
 30
0.0
 11
35.10000082459078
 21
265.2338185367799
 31
0.0
  0
CIRCLE
  5
114D
330
1F
100
AcDbEntity
  8
0
100
AcDbCircle
 10
32.10000082459078
 20
267.5738185367799
 30
0.0
 40
0.9
  0
CIRCLE
  5
114E
330
1F
100
AcDbEntity
  8
0
100
AcDbCircle
 10
32.10000082459078
 20
267.5738185367799
 30
0.0
 40
2.0
  0
LINE
  5
114F
330
1F
100
AcDbEntity
  8
0
100
AcDbLine
 10
37.60000094650877
 20
271.4738183774361
 30
0.0
 11
37.60000094650877
 21
260.1738183774364
 31
0.0
  0
LINE
  5
1150
330
1F
100
AcDbEntity
  8
0
100
AcDbLine
 10
37.60000094650877
 20
260.1738183774364
 30
0.0
 11
39.20000094650868
 21
260.1738183774364
 31
0.0
  0
LINE
  5
1151
330
1F
100
AcDbEntity
  8
0
100
AcDbLine
 10
38.30000082459071
 20
259.1638185367798
 30
0.0
 11
36.60000082459077
 21
259.1638185367798
 31
0.0
  0
LINE
  5
1152
330
1F
100
AcDbEntity
  8
0
100
AcDbLine
 10
37.60000094650877
 20
256.573818377436
 30
0.0
 11
39.20000094650868
 21
256.573818377436
 31
0.0
  0
LINE
  5
1153
330
1F
100
AcDbEntity
  8
0
100
AcDbLine
 10
38.30000082459071
 20
257.5638185367802
 30
0.0
 11
36.60000082459077
 21
257.5638185367802
 31
0.0
  0
LINE
  5
1154
330
1F
100
AcDbEntity
  8
0
100
AcDbLine
 10
35.10000082459078
 20
265.4738185367798
 30
0.0
 11
36.60000082459077
 21
265.4738185367798
 31
0.0
  0
LINE
  5
1155
330
1F
100
AcDbEntity
  8
0
100
AcDbLine
 10
36.60000082459077
 20
265.4738185367798
 30
0.0
 11
36.60000082459077
 21
265.1138185367798
 31
0.0
  0
LINE
  5
1156
330
1F
100
AcDbEntity
  8
0
100
AcDbLine
 10
30.10000082459078
 20
264.1138185367799
 30
0.0
 11
30.10000082459078
 21
263.5738185367799
 31
0.0
  0
LINE
  5
1157
330
1F
100
AcDbEntity
  8
0
100
AcDbLine
 10
35.10000082459078
 20
264.1138185367799
 30
0.0
 11
30.10000082459078
 21
264.1138185367799
 31
0.0
  0
LINE
  5
1158
330
1F
100
AcDbEntity
  8
0
100
AcDbLine
 10
34.30000082459071
 20
262.7838185367799
 30
0.0
 11
35.10000082459078
 21
262.7838185367799
 31
0.0
  0
LINE
  5
1159
330
1F
100
AcDbEntity
  8
0
100
AcDbLine
 10
34.30000082459071
 20
260.1638185367799
 30
0.0
 11
35.10000082459078
 21
260.1638185367799
 31
0.0
  0
LINE
  5
115A
330
1F
100
AcDbEntity
  8
0
100
AcDbLine
 10
34.30000082459071
 20
262.7838185367799
 30
0.0
 11
34.30000082459071
 21
260.1638185367799
 31
0.0
  0
LINE
  5
115B
330
1F
100
AcDbEntity
  8
0
100
AcDbLine
 10
34.30000082459071
 20
255.1638185367801
 30
0.0
 11
35.10000082459078
 21
255.1638185367801
 31
0.0
  0
LINE
  5
115C
330
1F
100
AcDbEntity
  8
0
100
AcDbLine
 10
34.30000082459071
 20
252.5438185367802
 30
0.0
 11
35.10000082459078
 21
252.5438185367802
 31
0.0
  0
LINE
  5
115D
330
1F
100
AcDbEntity
  8
0
100
AcDbLine
 10
34.30000082459071
 20
255.1638185367801
 30
0.0
 11
34.30000082459071
 21
252.5438185367802
 31
0.0
  0
LINE
  5
115E
330
1F
100
AcDbEntity
  8
0
100
AcDbLine
 10
35.10000082459078
 20
260.1638185367799
 30
0.0
 11
35.10000082459078
 21
255.1638185367801
 31
0.0
  0
CIRCLE
  5
115F
330
1F
100
AcDbEntity
  8
0
100
AcDbCircle
 10
32.10000082459078
 20
261.4738185367798
 30
0.0
 40
0.75
  0
CIRCLE
  5
1160
330
1F
100
AcDbEntity
  8
0
100
AcDbCircle
 10
32.10000082459078
 20
253.8538185367801
 30
0.0
 40
0.75
  0
LINE
  5
1161
330
1F
100
AcDbEntity
  8
0
100
AcDbLine
 10
30.10000082459078
 20
259.3738185367801
 30
0.0
 11
30.10000082459078
 21
255.9538185367798
 31
0.0
  0
CIRCLE
  5
1162
330
1F
100
AcDbEntity
  8
0
100
AcDbCircle
 10
32.10000082459078
 20
261.4738185367798
 30
0.0
 40
1.5
  0
CIRCLE
  5
1163
330
1F
100
AcDbEntity
  8
0
100
AcDbCircle
 10
32.10000082459078
 20
253.8538185367801
 30
0.0
 40
1.5
  0
LINE
  5
1164
330
1F
100
AcDbEntity
  8
0
100
AcDbLine
 10
35.10000082459078
 20
264.1138185367799
 30
0.0
 11
35.10000082459078
 21
262.7838185367799
 31
0.0
  0
LINE
  5
1165
330
1F
100
AcDbEntity
  8
0
100
AcDbLine
 10
39.20000094650868
 20
260.1738183774364
 30
0.0
 11
39.20000094650868
 21
256.573818377436
 31
0.0
  0
LINE
  5
1166
330
1F
100
AcDbEntity
  8
0
100
AcDbLine
 10
38.30000082459071
 20
259.1638185367798
 30
0.0
 11
38.30000082459071
 21
257.5638185367802
 31
0.0
  0
LINE
  5
1167
330
1F
100
AcDbEntity
  8
0
100
AcDbLine
 10
34.60000082459078
 20
284.9738185367801
 30
0.0
 11
33.60000082459089
 21
284.9738185367801
 31
0.0
  0
LINE
  5
1168
330
1F
100
AcDbEntity
  8
0
100
AcDbLine
 10
33.60000082459089
 20
282.9738185367798
 30
0.0
 11
34.60000082459078
 21
282.9738185367798
 31
0.0
  0
LINE
  5
1169
330
1F
100
AcDbEntity
  8
0
100
AcDbLine
 10
34.60000082459078
 20
282.9738185367798
 30
0.0
 11
34.60000082459078
 21
284.9738185367801
 31
0.0
  0
LINE
  5
116A
330
1F
100
AcDbEntity
  8
0
100
AcDbLine
 10
33.60000082459089
 20
284.9738185367801
 30
0.0
 11
33.60000082459089
 21
282.9738185367798
 31
0.0
  0
LINE
  5
116B
330
1F
100
AcDbEntity
  8
0
100
AcDbLine
 10
30.60000082459078
 20
277.9738185367798
 30
0.0
 11
37.58500082459078
 21
277.9738185367798
 31
0.0
  0
LINE
  5
116C
330
1F
100
AcDbEntity
  8
0
100
AcDbLine
 10
0.4869123504375922
 20
354.5152221755619
 30
0.0
 11
18.00000082459177
 21
354.97381853678
 31
0.0
  0
ARC
  5
116D
330
1F
100
AcDbEntity
  8
0
100
AcDbCircle
 10
0.5000008245917798
 20
354.0153935130741
 30
0.0
 40
0.5
100
AcDbArc
 50
91.50000000000281
 51
180.0
  0
LINE
  5
116E
330
1F
100
AcDbEntity
  8
0
100
AcDbLine
 10
39.90000094650872
 20
331.0738183774359
 30
0.0
 11
39.90000094650872
 21
322.8738183774361
 31
0.0
  0
LINE
  5
116F
330
1F
100
AcDbEntity
  8
0
100
AcDbLine
 10
38.30000082459172
 20
323.4138185367801
 30
0.0
 11
38.30000082459172
 21
330.05381853678
 31
0.0
  0
LINE
  5
1170
330
1F
100
AcDbEntity
  8
0
100
AcDbLine
 10
28.10000082459179
 20
323.4138185367801
 30
0.0
 11
28.10000082459179
 21
330.05381853678
 31
0.0
  0
LINE
  5
1171
330
1F
100
AcDbEntity
  8
0
100
AcDbLine
 10
27.00000094650873
 20
339.0738183774359
 30
0.0
 11
27.00000094650873
 21
306.0738183774359
 31
0.0
  0
LINE
  5
1172
330
1F
100
AcDbEntity
  8
0
100
AcDbLine
 10
28.10000082459191
 20
306.0738183774359
 30
0.0
 11
28.10000082459179
 21
339.0738183774359
 31
0.0
  0
LINE
  5
1173
330
1F
100
AcDbEntity
  8
0
100
AcDbLine
 10
35.35000082459156
 20
322.4138185367801
 30
0.0
 11
28.10000082459078
 21
322.4138185367801
 31
0.0
  0
LINE
  5
1174
330
1F
100
AcDbEntity
  8
0
100
AcDbLine
 10
38.30000082459172
 20
323.4138185367801
 30
0.0
 11
28.10000082459179
 21
323.4138185367801
 31
0.0
  0
LINE
  5
1175
330
1F
100
AcDbEntity
  8
0
100
AcDbLine
 10
29.60000082459078
 20
301.1338185367798
 30
0.0
 11
30.60000082459078
 21
301.1338185367798
 31
0.0
  0
LINE
  5
1176
330
1F
100
AcDbEntity
  8
0
100
AcDbLine
 10
28.10000082459078
 20
307.0138185367798
 30
0.0
 11
35.35000082459156
 21
307.0138185367798
 31
0.0
  0
LINE
  5
1177
330
1F
100
AcDbEntity
  8
0
100
AcDbLine
 10
27.00000094650873
 20
306.0738183774359
 30
0.0
 11
36.30000094650881
 21
306.0738183774359
 31
0.0
  0
LINE
  5
1178
330
1F
100
AcDbEntity
  8
0
100
AcDbLine
 10
38.9450008245908
 20
301.1338185367798
 30
0.0
 11
29.60000082459078
 21
301.1338185367798
 31
0.0
  0
LINE
  5
1179
330
1F
100
AcDbEntity
  8
0
100
AcDbLine
 10
27.00000094650873
 20
302.1738183774363
 30
0.0
 11
39.40000094650871
 21
302.1738183774363
 31
0.0
  0
LINE
  5
117A
330
1F
100
AcDbEntity
  8
0
100
AcDbLine
 10
29.60000082459078
 20
301.1338185367798
 30
0.0
 11
28.10000082459078
 21
301.1338185367798
 31
0.0
  0
LINE
  5
117B
330
1F
100
AcDbEntity
  8
0
100
AcDbLine
 10
28.10000082459078
 20
298.1338185367798
 30
0.0
 11
29.60000082459078
 21
298.1338185367798
 31
0.0
  0
LINE
  5
117C
330
1F
100
AcDbEntity
  8
0
100
AcDbLine
 10
29.60000082459078
 20
293.6338185367798
 30
0.0
 11
29.60000082459078
 21
294.6338185367798
 31
0.0
  0
LINE
  5
117D
330
1F
100
AcDbEntity
  8
0
100
AcDbLine
 10
28.10000082459179
 20
293.6338185367798
 30
0.0
 11
29.60000082459078
 21
293.6338185367798
 31
0.0
  0
LINE
  5
117E
330
1F
100
AcDbEntity
  8
0
100
AcDbLine
 10
29.60000082459078
 20
294.6338185367798
 30
0.0
 11
28.10000082459179
 21
294.6338185367798
 31
0.0
  0
LINE
  5
117F
330
1F
100
AcDbEntity
  8
0
100
AcDbLine
 10
29.60000082459078
 20
288.55381853678
 30
0.0
 11
29.60000082459078
 21
289.5538185367799
 31
0.0
  0
LINE
  5
1180
330
1F
100
AcDbEntity
  8
0
100
AcDbLine
 10
28.10000082459179
 20
288.55381853678
 30
0.0
 11
29.60000082459078
 21
288.55381853678
 31
0.0
  0
LINE
  5
1181
330
1F
100
AcDbEntity
  8
0
100
AcDbLine
 10
29.60000082459078
 20
289.5538185367799
 30
0.0
 11
28.10000082459179
 21
289.5538185367799
 31
0.0
  0
LINE
  5
1182
330
1F
100
AcDbEntity
  8
0
100
AcDbLine
 10
29.60000082459078
 20
301.1338185367798
 30
0.0
 11
29.60000082459078
 21
300.1338185367798
 31
0.0
  0
LINE
  5
1183
330
1F
100
AcDbEntity
  8
0
100
AcDbLine
 10
29.60000082459078
 20
298.1338185367798
 30
0.0
 11
29.60000082459078
 21
301.1338185367798
 31
0.0
  0
LINE
  5
1184
330
1F
100
AcDbEntity
  8
0
100
AcDbLine
 10
28.10000082459078
 20
301.1338185367798
 30
0.0
 11
28.10000082459078
 21
298.1338185367798
 31
0.0
  0
LINE
  5
1185
330
1F
100
AcDbEntity
  8
0
100
AcDbLine
 10
28.10000082459078
 20
322.4138185367801
 30
0.0
 11
28.10000082459078
 21
307.0138185367798
 31
0.0
  0
LINE
  5
1186
330
1F
100
AcDbEntity
  8
0
100
AcDbLine
 10
38.08500082459078
 20
301.1338185367798
 30
0.0
 11
37.58500082459078
 21
301.1338185367798
 31
0.0
  0
LINE
  5
1187
330
1F
100
AcDbEntity
  8
0
100
AcDbLine
 10
33.60000082459089
 20
293.1338185367798
 30
0.0
 11
34.60000082459078
 21
293.1338185367798
 31
0.0
  0
LINE
  5
1188
330
1F
100
AcDbEntity
  8
0
100
AcDbLine
 10
34.60000082459078
 20
293.1338185367798
 30
0.0
 11
34.60000082459078
 21
295.1338185367798
 31
0.0
  0
LINE
  5
1189
330
1F
100
AcDbEntity
  8
0
100
AcDbLine
 10
34.60000082459078
 20
295.1338185367798
 30
0.0
 11
33.60000082459089
 21
295.1338185367798
 31
0.0
  0
LINE
  5
118A
330
1F
100
AcDbEntity
  8
0
100
AcDbLine
 10
33.60000082459089
 20
295.1338185367798
 30
0.0
 11
33.60000082459089
 21
293.1338185367798
 31
0.0
  0
LINE
  5
118B
330
1F
100
AcDbEntity
  8
0
100
AcDbLine
 10
34.60000082459078
 20
290.0538185367798
 30
0.0
 11
33.60000082459089
 21
290.0538185367798
 31
0.0
  0
LINE
  5
118C
330
1F
100
AcDbEntity
  8
0
100
AcDbLine
 10
33.60000082459089
 20
288.05381853678
 30
0.0
 11
34.60000082459078
 21
288.05381853678
 31
0.0
  0
LINE
  5
118D
330
1F
100
AcDbEntity
  8
0
100
AcDbLine
 10
34.60000082459078
 20
288.05381853678
 30
0.0
 11
34.60000082459078
 21
290.0538185367798
 31
0.0
  0
LINE
  5
118E
330
1F
100
AcDbEntity
  8
0
100
AcDbLine
 10
33.60000082459089
 20
290.0538185367798
 30
0.0
 11
33.60000082459089
 21
288.05381853678
 31
0.0
  0
LINE
  5
118F
330
1F
100
AcDbEntity
  8
0
100
AcDbLine
 10
30.60000082459078
 20
300.1338185367798
 30
0.0
 11
37.58500082459078
 21
300.1338185367798
 31
0.0
  0
LINE
  5
1190
330
1F
100
AcDbEntity
  8
0
100
AcDbLine
 10
36.30000094650881
 20
322.8738183774361
 30
0.0
 11
39.90000094650872
 21
322.8738183774361
 31
0.0
  0
CIRCLE
  5
1191
330
1F
100
AcDbEntity
  8
0
100
AcDbCircle
 10
31.60000082459077
 20
312.9638185367803
 30
0.0
 40
1.0
  0
CIRCLE
  5
1192
330
1F
100
AcDbEntity
  8
0
100
AcDbCircle
 10
31.60000082459077
 20
316.4638185367802
 30
0.0
 40
1.0
  0
CIRCLE
  5
1193
330
1F
100
AcDbEntity
  8
0
100
AcDbCircle
 10
31.60000082459077
 20
309.4638185367803
 30
0.0
 40
1.0
  0
CIRCLE
  5
1194
330
1F
100
AcDbEntity
  8
0
100
AcDbCircle
 10
31.60000082459077
 20
319.9638185367803
 30
0.0
 40
1.0
  0
LINE
  5
1195
330
1F
100
AcDbEntity
  8
0
100
AcDbLine
 10
35.35000082459156
 20
307.0138185367798
 30
0.0
 11
35.35000082459156
 21
322.4138185367801
 31
0.0
  0
LINE
  5
1196
330
1F
100
AcDbEntity
  8
0
100
AcDbLine
 10
36.30000094650881
 20
322.8738183774361
 30
0.0
 11
36.30000094650881
 21
306.0738183774359
 31
0.0
  0
CIRCLE
  5
1197
330
1F
100
AcDbEntity
  8
0
100
AcDbCircle
 10
30.60000094650877
 20
347.7738183774362
 30
0.0
 40
1.399999999999999
  0
CIRCLE
  5
1198
330
1F
100
AcDbEntity
  8
0
100
AcDbCircle
 10
30.60000094650877
 20
342.9738183774361
 30
0.0
 40
1.399999999999999
  0
LINE
  5
1199
330
1F
100
AcDbEntity
  8
0
100
AcDbLine
 10
36.9000009465086
 20
339.0738183774359
 30
0.0
 11
27.00000094650873
 21
339.0738183774359
 31
0.0
  0
LINE
  5
119A
330
1F
100
AcDbEntity
  8
0
100
AcDbLine
 10
36.00000082459075
 20
338.55381853678
 30
0.0
 11
28.10000082459078
 21
338.55381853678
 31
0.0
  0
LINE
  5
119B
330
1F
100
AcDbEntity
  8
0
100
AcDbLine
 10
36.00000082459075
 20
331.0538185367813
 30
0.0
 11
28.10000082459078
 21
331.0538185367813
 31
0.0
  0
LINE
  5
119C
330
1F
100
AcDbEntity
  8
0
100
AcDbLine
 10
38.30000082459172
 20
330.05381853678
 30
0.0
 11
28.10000082459179
 21
330.05381853678
 31
0.0
  0
LINE
  5
119D
330
1F
100
AcDbEntity
  8
0
100
AcDbLine
 10
28.10000082459179
 20
337.6438185367815
 30
0.0
 11
28.50000082459075
 21
337.6438185367815
 31
0.0
  0
LINE
  5
119E
330
1F
100
AcDbEntity
  8
0
100
AcDbLine
 10
28.10000082459179
 20
337.0438185367811
 30
0.0
 11
28.50000082459075
 21
337.0438185367811
 31
0.0
  0
LINE
  5
119F
330
1F
100
AcDbEntity
  8
0
100
AcDbLine
 10
28.10000082459179
 20
335.1038185367813
 30
0.0
 11
28.50000082459075
 21
335.1038185367813
 31
0.0
  0
LINE
  5
11A0
330
1F
100
AcDbEntity
  8
0
100
AcDbLine
 10
28.10000082459179
 20
334.5038185367802
 30
0.0
 11
28.50000082459075
 21
334.5038185367802
 31
0.0
  0
LINE
  5
11A1
330
1F
100
AcDbEntity
  8
0
100
AcDbLine
 10
28.10000082459179
 20
331.9638185367812
 30
0.0
 11
28.50000082459075
 21
331.9638185367812
 31
0.0
  0
LINE
  5
11A2
330
1F
100
AcDbEntity
  8
0
100
AcDbLine
 10
28.10000082459179
 20
332.5638185367811
 30
0.0
 11
28.50000082459075
 21
332.5638185367811
 31
0.0
  0
LINE
  5
11A3
330
1F
100
AcDbEntity
  8
0
100
AcDbLine
 10
28.10000082459078
 20
331.0538185367813
 30
0.0
 11
28.10000082459078
 21
331.9638185367812
 31
0.0
  0
LINE
  5
11A4
330
1F
100
AcDbEntity
  8
0
100
AcDbLine
 10
28.10000082459078
 20
337.6438185367801
 30
0.0
 11
28.10000082459078
 21
338.55381853678
 31
0.0
  0
LINE
  5
11A5
330
1F
100
AcDbEntity
  8
0
100
AcDbLine
 10
28.50000082459075
 20
331.0538185367813
 30
0.0
 11
28.50000082459075
 21
338.55381853678
 31
0.0
  0
LINE
  5
11A6
330
1F
100
AcDbEntity
  8
0
100
AcDbLine
 10
18.00000082459177
 20
354.97381853678
 30
0.0
 11
19.00000082459176
 21
354.9476326152112
 31
0.0
  0
LINE
  5
11A7
330
1F
100
AcDbEntity
  8
0
100
AcDbLine
 10
19.00000082459176
 20
350.97381853678
 30
0.0
 11
19.01308929874471
 21
350.9741612705383
 31
0.0
  0
LINE
  5
11A8
330
1F
100
AcDbEntity
  8
0
100
AcDbLine
 10
20.00000082459178
 20
354.47381853678
 30
0.0
 11
19.00000082459176
 21
354.47381853678
 31
0.0
  0
CIRCLE
  5
11A9
330
1F
100
AcDbEntity
  8
0
100
AcDbCircle
 10
35.70000094650868
 20
342.9738183774361
 30
0.0
 40
1.399999999999999
  0
LINE
  5
11AA
330
1F
100
AcDbEntity
  8
0
100
AcDbLine
 10
38.30000082459172
 20
324.8638185367799
 30
0.0
 11
33.52450589559976
 21
324.8638185367799
 31
0.0
  0
LINE
  5
11AB
330
1F
100
AcDbEntity
  8
0
100
AcDbLine
 10
38.30000082459172
 20
328.6038185367802
 30
0.0
 11
33.52450589559976
 21
328.6038185367802
 31
0.0
  0
LINE
  5
11AC
330
1F
100
AcDbEntity
  8
0
100
AcDbLine
 10
38.30000082459172
 20
327.4038185367798
 30
0.0
 11
35.30000082459173
 21
327.4038185367798
 31
0.0
  0
LINE
  5
11AD
330
1F
100
AcDbEntity
  8
0
100
AcDbLine
 10
38.30000082459172
 20
326.0638185367802
 30
0.0
 11
35.30000082459173
 21
326.0638185367802
 31
0.0
  0
LINE
  5
11AE
330
1F
100
AcDbEntity
  8
0
100
AcDbLine
 10
38.30000082459172
 20
324.8638185367799
 30
0.0
 11
35.30000082459173
 21
324.8638185367799
 31
0.0
  0
LINE
  5
11AF
330
1F
100
AcDbEntity
  8
0
100
AcDbLine
 10
36.9000009465086
 20
331.0738183774359
 30
0.0
 11
39.90000094650872
 21
331.0738183774359
 31
0.0
  0
LINE
  5
11B0
330
1F
100
AcDbEntity
  8
0
100
AcDbLine
 10
35.30000082459173
 20
327.4038185367798
 30
0.0
 11
35.30000082459173
 21
328.6038185367802
 31
0.0
  0
LINE
  5
11B1
330
1F
100
AcDbEntity
  8
0
100
AcDbLine
 10
35.30000082459173
 20
324.8638185367799
 30
0.0
 11
35.30000082459173
 21
326.0638185367802
 31
0.0
  0
LINE
  5
11B2
330
1F
100
AcDbEntity
  8
0
100
AcDbLine
 10
36.80000082459162
 20
326.0638185367802
 30
0.0
 11
36.80000082459162
 21
327.4038185367798
 31
0.0
  0
LINE
  5
11B3
330
1F
100
AcDbEntity
  8
0
100
AcDbLine
 10
37.30000082459162
 20
327.4038185367798
 30
0.0
 11
37.30000082459162
 21
328.6038185367802
 31
0.0
  0
LINE
  5
11B4
330
1F
100
AcDbEntity
  8
0
100
AcDbLine
 10
37.30000082459162
 20
324.8638185367799
 30
0.0
 11
37.30000082459162
 21
326.0638185367802
 31
0.0
  0
LINE
  5
11B5
330
1F
100
AcDbEntity
  8
0
100
AcDbLine
 10
33.52450589559976
 20
328.6038185367802
 30
0.0
 11
33.52450589559976
 21
324.8638185367799
 31
0.0
  0
CIRCLE
  5
11B6
330
1F
100
AcDbEntity
  8
0
100
AcDbCircle
 10
32.25000082459075
 20
334.80381853678
 30
0.0
 40
1.290290050200999
  0
LINE
  5
11B7
330
1F
100
AcDbEntity
  8
0
100
AcDbLine
 10
36.9000009465086
 20
339.0738183774359
 30
0.0
 11
36.9000009465086
 21
331.0738183774359
 31
0.0
  0
LINE
  5
11B8
330
1F
100
AcDbEntity
  8
0
100
AcDbLine
 10
36.00000082459075
 20
331.0538185367813
 30
0.0
 11
36.00000082459075
 21
338.55381853678
 31
0.0
  0
ARC
  5
11B9
330
1F
100
AcDbEntity
  8
0
100
AcDbCircle
 10
43.00000082459189
 20
359.97381853678
 30
0.0
 40
5.5
100
AcDbArc
 50
180.0
 51
245.3800226713518
  0
CIRCLE
  5
11BA
330
1F
100
AcDbEntity
  8
0
100
AcDbCircle
 10
35.70000094650868
 20
347.7738183774362
 30
0.0
 40
1.399999999999999
  0
LINE
  5
11BB
330
1F
100
AcDbEntity
  8
0
100
AcDbLine
 10
18.00000082459177
 20
364.97381853678
 30
0.0
 11
0.9738238762836315
 21
364.527972402589
 31
0.0
  0
ARC
  5
11BC
330
1F
100
AcDbEntity
  8
0
100
AcDbCircle
 10
1.000000824591779
 20
363.5283150776131
 30
0.0
 40
1.0
100
AcDbArc
 50
91.50000000000281
 51
180.0
  0
LINE
  5
11BD
330
1F
100
AcDbEntity
  8
0
100
AcDbLine
 10
48.50000082459178
 20
359.97381853678
 30
0.0
 11
48.50000082459178
 21
364.97381853678
 31
0.0
  0
LINE
  5
11BE
330
1F
100
AcDbEntity
  8
0
100
AcDbLine
 10
63.10000082459158
 20
247.5738185367799
 30
0.0
 11
63.10000082459158
 21
253.4738185367799
 31
0.0
  0
LINE
  5
11BF
330
1F
100
AcDbEntity
  8
0
100
AcDbLine
 10
64.00000094650977
 20
267.573818377436
 30
0.0
 11
64.00000094650977
 21
232.6738183774364
 31
0.0
  0
LINE
  5
11C0
330
1F
100
AcDbEntity
  8
0
100
AcDbLine
 10
63.10000082459158
 20
267.573818377436
 30
0.0
 11
63.10000082459158
 21
232.6738183774364
 31
0.0
  0
LINE
  5
11C1
330
1F
100
AcDbEntity
  8
0
100
AcDbLine
 10
49.20000094650869
 20
263.073818377436
 30
0.0
 11
49.20000094650869
 21
247.073818377436
 31
0.0
  0
LINE
  5
11C2
330
1F
100
AcDbEntity
  8
0
100
AcDbLine
 10
50.30000082459071
 20
247.5738185367799
 30
0.0
 11
50.30000082459071
 21
261.5738185367799
 31
0.0
  0
LINE
  5
11C3
330
1F
100
AcDbEntity
  8
0
100
AcDbLine
 10
63.10000082459078
 20
247.0738185367799
 30
0.0
 11
55.2000008245908
 21
247.0738185367799
 31
0.0
  0
LINE
  5
11C4
330
1F
100
AcDbEntity
  8
0
100
AcDbLine
 10
63.10000082459078
 20
241.5738185367799
 30
0.0
 11
55.85000082459078
 21
241.5738185367799
 31
0.0
  0
LINE
  5
11C5
330
1F
100
AcDbEntity
  8
0
100
AcDbLine
 10
55.2000008245908
 20
242.0738185367798
 30
0.0
 11
63.10000082459078
 21
242.0738185367798
 31
0.0
  0
LINE
  5
11C6
330
1F
100
AcDbEntity
  8
0
100
AcDbLine
 10
55.85000082459078
 20
233.1738185367803
 30
0.0
 11
63.10000082459078
 21
233.1738185367803
 31
0.0
  0
LINE
  5
11C7
330
1F
100
AcDbEntity
  8
0
100
AcDbLine
 10
64.00000094650977
 20
232.6738183774364
 30
0.0
 11
52.60000094650877
 21
232.6738183774364
 31
0.0
  0
LINE
  5
11C8
330
1F
100
AcDbEntity
  8
0
100
AcDbLine
 10
64.00000094650977
 20
230.6738183774364
 30
0.0
 11
52.60000094650877
 21
230.6738183774364
 31
0.0
  0
LINE
  5
11C9
330
1F
100
AcDbEntity
  8
0
100
AcDbLine
 10
54.50000082459178
 20
230.1738185367803
 30
0.0
 11
62.80000082459172
 21
230.1738185367812
 31
0.0
  0
LINE
  5
11CA
330
1F
100
AcDbEntity
  8
0
100
AcDbLine
 10
53.70000082459194
 20
229.1738185367803
 30
0.0
 11
62.80000082459172
 21
229.1738185367803
 31
0.0
  0
LINE
  5
11CB
330
1F
100
AcDbEntity
  8
0
100
AcDbLine
 10
63.10000082459158
 20
247.5738185367799
 30
0.0
 11
50.30000082459071
 21
247.5738185367799
 31
0.0
  0
ARC
  5
11CC
330
1F
100
AcDbEntity
  8
0
100
AcDbCircle
 10
54.50000082459178
 20
229.6738185367803
 30
0.0
 40
0.5
100
AcDbArc
 50
90.0
 51
180.0
  0
LINE
  5
11CD
330
1F
100
AcDbEntity
  8
0
100
AcDbLine
 10
54.00000082459178
 20
229.6738185367803
 30
0.0
 11
54.00000082459178
 21
229.1738185367803
 31
0.0
  0
LINE
  5
11CE
330
1F
100
AcDbEntity
  8
0
100
AcDbLine
 10
61.45000082459171
 20
222.7738185367801
 30
0.0
 11
61.45000082459171
 21
225.1738185367812
 31
0.0
  0
ARC
  5
11CF
330
1F
100
AcDbEntity
  8
0
100
AcDbCircle
 10
59.45000082459194
 20
219.0575353941889
 30
0.0
 40
2.0
100
AcDbArc
 50
0.0
 51
75.00000000000555
  0
LINE
  5
11D0
330
1F
100
AcDbEntity
  8
0
100
AcDbLine
 10
55.15000082459176
 20
225.1738185367812
 30
0.0
 11
55.15000082459176
 21
222.7738185367801
 31
0.0
  0
ARC
  5
11D1
330
1F
100
AcDbEntity
  8
0
100
AcDbCircle
 10
57.15000082459177
 20
219.6738185367803
 30
0.0
 40
2.0
100
AcDbArc
 50
75.00000000000555
 51
180.0
  0
LINE
  5
11D2
330
1F
100
AcDbEntity
  8
0
100
AcDbLine
 10
57.66763891479661
 20
221.6056701893581
 30
0.0
 11
59.96763891479679
 21
220.9893870467672
 31
0.0
  0
LINE
  5
11D3
330
1F
100
AcDbEntity
  8
0
100
AcDbLine
 10
55.15000082459176
 20
222.7738185367801
 30
0.0
 11
61.45000082459171
 21
222.7738185367801
 31
0.0
  0
LINE
  5
11D4
330
1F
100
AcDbEntity
  8
0
100
AcDbLine
 10
55.15000082459176
 20
224.6738185367803
 30
0.0
 11
61.45000082459171
 21
224.6738185367803
 31
0.0
  0
LINE
  5
11D5
330
1F
100
AcDbEntity
  8
0
100
AcDbLine
 10
55.15000082459176
 20
225.1738185367803
 30
0.0
 11
61.45000082459171
 21
225.1738185367803
 31
0.0
  0
LINE
  5
11D6
330
1F
100
AcDbEntity
  8
0
100
AcDbLine
 10
59.90000082459175
 20
220.1738185367803
 30
0.0
 11
56.70000082459194
 21
220.1738185367811
 31
0.0
  0
CIRCLE
  5
11D7
330
1F
100
AcDbEntity
  8
0
100
AcDbCircle
 10
58.30000082459162
 20
227.20381853678
 30
0.0
 40
1.399999999999999
  0
LINE
  5
11D8
330
1F
100
AcDbEntity
  8
0
100
AcDbLine
 10
52.60000094650877
 20
247.073818377436
 30
0.0
 11
52.60000094650877
 21
232.6738183774364
 31
0.0
  0
LINE
  5
11D9
330
1F
100
AcDbEntity
  8
0
100
AcDbLine
 10
52.60000094650877
 20
247.073818377436
 30
0.0
 11
49.20000094650869
 21
247.073818377436
 31
0.0
  0
LINE
  5
11DA
330
1F
100
AcDbEntity
  8
0
100
AcDbLine
 10
58.15000082459061
 20
246.0738185367798
 30
0.0
 11
57.15000082459074
 21
246.0738185367798
 31
0.0
  0
LINE
  5
11DB
330
1F
100
AcDbEntity
  8
0
100
AcDbLine
 10
62.15000082459059
 20
246.0738185367798
 30
0.0
 11
56.15000082459073
 21
246.0738185367798
 31
0.0
  0
CIRCLE
  5
11DC
330
1F
100
AcDbEntity
  8
0
100
AcDbCircle
 10
59.60000082459078
 20
235.6238185367799
 30
0.0
 40
1.0
  0
CIRCLE
  5
11DD
330
1F
100
AcDbEntity
  8
0
100
AcDbCircle
 10
59.60000082459078
 20
239.1238185367799
 30
0.0
 40
1.0
  0
LINE
  5
11DE
330
1F
100
AcDbEntity
  8
0
100
AcDbLine
 10
57.15000082459074
 20
243.07381853678
 30
0.0
 11
58.15000082459061
 21
243.07381853678
 31
0.0
  0
LINE
  5
11DF
330
1F
100
AcDbEntity
  8
0
100
AcDbLine
 10
55.85000082459078
 20
241.5738185367799
 30
0.0
 11
55.85000082459078
 21
233.1738185367803
 31
0.0
  0
LINE
  5
11E0
330
1F
100
AcDbEntity
  8
0
100
AcDbLine
 10
56.15000082459073
 20
243.07381853678
 30
0.0
 11
62.15000082459059
 21
243.07381853678
 31
0.0
  0
LINE
  5
11E1
330
1F
100
AcDbEntity
  8
0
100
AcDbLine
 10
58.9500008245908
 20
243.07381853678
 30
0.0
 11
58.9500008245908
 21
246.0738185367798
 31
0.0
  0
LINE
  5
11E2
330
1F
100
AcDbEntity
  8
0
100
AcDbLine
 10
62.15000082459059
 20
243.07381853678
 30
0.0
 11
62.15000082459059
 21
246.0738185367798
 31
0.0
  0
LINE
  5
11E3
330
1F
100
AcDbEntity
  8
0
100
AcDbLine
 10
56.15000082459073
 20
246.0738185367798
 30
0.0
 11
56.15000082459073
 21
243.07381853678
 31
0.0
  0
LINE
  5
11E4
330
1F
100
AcDbEntity
  8
0
100
AcDbLine
 10
58.15000082459061
 20
243.07381853678
 30
0.0
 11
58.15000082459061
 21
246.0738185367798
 31
0.0
  0
LINE
  5
11E5
330
1F
100
AcDbEntity
  8
0
100
AcDbLine
 10
57.15000082459074
 20
246.0738185367798
 30
0.0
 11
57.15000082459074
 21
243.07381853678
 31
0.0
  0
LINE
  5
11E6
330
1F
100
AcDbEntity
  8
0
100
AcDbLine
 10
55.2000008245908
 20
247.0738185367799
 30
0.0
 11
55.2000008245908
 21
242.0738185367798
 31
0.0
  0
LINE
  5
11E7
330
1F
100
AcDbEntity
  8
0
100
AcDbLine
 10
63.10000082459158
 20
229.8738185367815
 30
0.0
 11
63.10000082459158
 21
222.7738185367801
 31
0.0
  0
LINE
  5
11E8
330
1F
100
AcDbEntity
  8
0
100
AcDbLine
 10
62.80000082459172
 20
222.7738185367801
 30
0.0
 11
63.10000082459158
 21
222.7738185367801
 31
0.0
  0
LINE
  5
11E9
330
1F
100
AcDbEntity
  8
0
100
AcDbLine
 10
62.80000082459172
 20
215.3838185367813
 30
0.0
 11
63.10000082459158
 21
215.3838185367813
 31
0.0
  0
LINE
  5
11EA
330
1F
100
AcDbEntity
  8
0
100
AcDbLine
 10
62.80000082459172
 20
214.1138185367813
 30
0.0
 11
63.10000082459158
 21
214.1138185367813
 31
0.0
  0
LINE
  5
11EB
330
1F
100
AcDbEntity
  8
0
100
AcDbLine
 10
62.80000082459172
 20
217.9238185367811
 30
0.0
 11
63.10000082459158
 21
217.9238185367811
 31
0.0
  0
LINE
  5
11EC
330
1F
100
AcDbEntity
  8
0
100
AcDbLine
 10
62.80000082459172
 20
216.653818536781
 30
0.0
 11
63.10000082459158
 21
216.653818536781
 31
0.0
  0
LINE
  5
11ED
330
1F
100
AcDbEntity
  8
0
100
AcDbLine
 10
62.80000082459172
 20
215.3838185367813
 30
0.0
 11
63.10000082459158
 21
215.3838185367813
 31
0.0
  0
LINE
  5
11EE
330
1F
100
AcDbEntity
  8
0
100
AcDbLine
 10
62.80000082459172
 20
219.1938185367803
 30
0.0
 11
63.10000082459158
 21
219.1938185367803
 31
0.0
  0
LINE
  5
11EF
330
1F
100
AcDbEntity
  8
0
100
AcDbLine
 10
62.80000082459172
 20
217.9238185367811
 30
0.0
 11
63.10000082459158
 21
217.9238185367811
 31
0.0
  0
LINE
  5
11F0
330
1F
100
AcDbEntity
  8
0
100
AcDbLine
 10
62.80000082459172
 20
212.8438185367813
 30
0.0
 11
63.10000082459158
 21
212.8438185367813
 31
0.0
  0
LINE
  5
11F1
330
1F
100
AcDbEntity
  8
0
100
AcDbLine
 10
62.80000082459172
 20
211.5738185367812
 30
0.0
 11
63.10000082459158
 21
211.5738185367812
 31
0.0
  0
ARC
  5
11F2
330
1F
100
AcDbEntity
  8
0
100
AcDbCircle
 10
62.80000082459172
 20
229.8738185367815
 30
0.0
 40
0.3
100
AcDbArc
 50
0.0
 51
90.0
  0
LINE
  5
11F3
330
1F
100
AcDbEntity
  8
0
100
AcDbLine
 10
63.10000082459078
 20
233.1738185367803
 30
0.0
 11
63.10000082459078
 21
241.5738185367799
 31
0.0
  0
LINE
  5
11F4
330
1F
100
AcDbEntity
  8
0
100
AcDbLine
 10
63.10000082459078
 20
242.0738185367798
 30
0.0
 11
63.10000082459078
 21
247.0738185367799
 31
0.0
  0
LINE
  5
11F5
330
1F
100
AcDbEntity
  8
0
100
AcDbLine
 10
64.00000094650977
 20
267.573818377436
 30
0.0
 11
52.60000094650877
 21
267.573818377436
 31
0.0
  0
LINE
  5
11F6
330
1F
100
AcDbEntity
  8
0
100
AcDbLine
 10
63.10000082459078
 20
267.0738185367799
 30
0.0
 11
55.2000008245908
 21
267.0738185367799
 31
0.0
  0
LINE
  5
11F7
330
1F
100
AcDbEntity
  8
0
100
AcDbLine
 10
55.2000008245908
 20
262.07381853678
 30
0.0
 11
63.10000082459078
 21
262.07381853678
 31
0.0
  0
LINE
  5
11F8
330
1F
100
AcDbEntity
  8
0
100
AcDbLine
 10
63.10000082459158
 20
261.5738185367799
 30
0.0
 11
50.30000082459071
 21
261.5738185367799
 31
0.0
  0
LINE
  5
11F9
330
1F
100
AcDbEntity
  8
0
100
AcDbLine
 10
52.60000094650877
 20
263.073818377436
 30
0.0
 11
52.60000094650877
 21
267.573818377436
 31
0.0
  0
CIRCLE
  5
11FA
330
1F
100
AcDbEntity
  8
0
100
AcDbCircle
 10
56.60000082459156
 20
254.5738185367798
 30
0.0
 40
5.5
  0
LINE
  5
11FB
330
1F
100
AcDbEntity
  8
0
100
AcDbLine
 10
52.60000094650877
 20
263.073818377436
 30
0.0
 11
49.20000094650869
 21
263.073818377436
 31
0.0
  0
LINE
  5
11FC
330
1F
100
AcDbEntity
  8
0
100
AcDbLine
 10
58.15000082459061
 20
266.07381853678
 30
0.0
 11
57.15000082459074
 21
266.07381853678
 31
0.0
  0
LINE
  5
11FD
330
1F
100
AcDbEntity
  8
0
100
AcDbLine
 10
62.15000082459059
 20
266.07381853678
 30
0.0
 11
56.15000082459073
 21
266.07381853678
 31
0.0
  0
LINE
  5
11FE
330
1F
100
AcDbEntity
  8
0
100
AcDbLine
 10
57.15000082459074
 20
263.0738185367799
 30
0.0
 11
58.15000082459061
 21
263.0738185367799
 31
0.0
  0
LINE
  5
11FF
330
1F
100
AcDbEntity
  8
0
100
AcDbLine
 10
56.15000082459073
 20
263.0738185367799
 30
0.0
 11
62.15000082459059
 21
263.0738185367799
 31
0.0
  0
LINE
  5
1200
330
1F
100
AcDbEntity
  8
0
100
AcDbLine
 10
62.15000082459059
 20
263.0738185367799
 30
0.0
 11
62.15000082459059
 21
266.07381853678
 31
0.0
  0
LINE
  5
1201
330
1F
100
AcDbEntity
  8
0
100
AcDbLine
 10
58.9500008245908
 20
263.0738185367799
 30
0.0
 11
58.9500008245908
 21
266.07381853678
 31
0.0
  0
LINE
  5
1202
330
1F
100
AcDbEntity
  8
0
100
AcDbLine
 10
58.15000082459061
 20
263.0738185367799
 30
0.0
 11
58.15000082459061
 21
266.07381853678
 31
0.0
  0
LINE
  5
1203
330
1F
100
AcDbEntity
  8
0
100
AcDbLine
 10
57.15000082459074
 20
266.07381853678
 30
0.0
 11
57.15000082459074
 21
263.0738185367799
 31
0.0
  0
LINE
  5
1204
330
1F
100
AcDbEntity
  8
0
100
AcDbLine
 10
56.15000082459073
 20
266.07381853678
 30
0.0
 11
56.15000082459073
 21
263.0738185367799
 31
0.0
  0
LINE
  5
1205
330
1F
100
AcDbEntity
  8
0
100
AcDbLine
 10
55.2000008245908
 20
267.0738185367799
 30
0.0
 11
55.2000008245908
 21
262.07381853678
 31
0.0
  0
LINE
  5
1206
330
1F
100
AcDbEntity
  8
0
100
AcDbLine
 10
63.10000082459158
 20
255.6738185367803
 30
0.0
 11
63.10000082459158
 21
261.5738185367799
 31
0.0
  0
LINE
  5
1207
330
1F
100
AcDbEntity
  8
0
100
AcDbLine
 10
63.10000082459078
 20
262.07381853678
 30
0.0
 11
63.10000082459078
 21
267.0738185367799
 31
0.0
  0
ARC
  5
1208
330
1F
100
AcDbEntity
  8
0
100
AcDbCircle
 10
71.00000082459178
 20
363.97381853678
 30
0.0
 40
1.0
100
AcDbArc
 50
0.0
 51
90.0
  0
ARC
  5
1209
330
1F
100
AcDbEntity
  8
0
100
AcDbCircle
 10
71.00000082459178
 20
363.97381853678
 30
0.0
 40
1.0
100
AcDbArc
 50
0.0
 51
90.0
  0
LINE
  5
120A
330
1F
100
AcDbEntity
  8
0
100
AcDbLine
 10
64.00000094650977
 20
267.573818377436
 30
0.0
 11
52.6000009465098
 21
267.573818377436
 31
0.0
  0
INSERT
  5
120B
330
1F
100
AcDbEntity
  8
0
 62
     0
 48
5.0
100
AcDbBlockReference
  2
A$C5CFD6E8C
 10
61.50000361357149
 20
315.7488167908254
 30
0.0
  0
INSERT
  5
120C
330
1F
100
AcDbEntity
  8
0
 62
     0
 48
5.0
100
AcDbBlockReference
  2
A$C5CFD6E8C
 10
61.50000361357149
 20
310.2488167908254
 30
0.0
  0
LWPOLYLINE
  5
120D
330
1F
100
AcDbEntity
  8
0
 62
     0
100
AcDbPolyline
 90
        4
 70
     1
 43
0.0
 10
61.50000082459155
 20
318.4488192704716
 10
63.1000008245919
 20
318.4488192704716
 10
63.1000008245919
 20
315.7488192704704
 10
61.50000082459155
 20
315.7488192704704
  0
LWPOLYLINE
  5
120E
330
1F
100
AcDbEntity
  8
0
 62
     0
100
AcDbPolyline
 90
        4
 70
     1
 43
0.0
 10
61.50000082459155
 20
312.9488192704716
 10
63.1000008245919
 20
312.9488192704716
 10
63.1000008245919
 20
310.2488192704713
 10
61.50000082459155
 20
310.2488192704713
  0
LINE
  5
120F
330
1F
100
AcDbEntity
  8
0
  6
Continuous
100
AcDbLine
 10
48.03868417274043
 20
301.0481556263821
 30
0.0
 11
48.03868417274122
 21
282.9481552002088
 31
0.0
  0
LINE
  5
1210
330
1F
100
AcDbEntity
  8
0
  6
Continuous
100
AcDbLine
 10
62.34028315003843
 20
301.0481556263821
 30
0.0
 11
62.34028315003921
 21
282.9481552002088
 31
0.0
  0
LINE
  5
1211
330
1F
100
AcDbEntity
  8
0
  6
Continuous
100
AcDbLine
 10
62.34028315003921
 20
282.9481552002088
 30
0.0
 11
48.03868417274122
 21
282.9481552002088
 31
0.0
  0
LINE
  5
1212
330
1F
100
AcDbEntity
  8
0
  6
Continuous
100
AcDbLine
 10
62.34028315003843
 20
301.0481556263821
 30
0.0
 11
48.03868417274043
 21
301.0481556263821
 31
0.0
  0
INSERT
  5
1213
330
1F
100
AcDbEntity
  8
0
100
AcDbBlockReference
  2
A$C57E26210
 10
48.03868417274122
 20
282.9481552002088
 30
0.0
  0
LINE
  5
1219
330
1F
100
AcDbEntity
  8
0
100
AcDbLine
 10
18.00000082459164
 20
5.000004458349049
 30
0.0
 11
72.00000082459165
 21
3.585964693612026
 31
0.0
  0
LINE
  5
121A
330
1F
100
AcDbEntity
  8
0
100
AcDbLine
 10
72.00000082459165
 20
3.585964693612026
 30
0.0
 11
19.00000082459166
 21
4.973818536780071
 31
0.0
  0
LINE
  5
1223
330
1F
100
AcDbEntity
  8
0
100
AcDbLine
 10
20.00000082459166
 20
120.97381853678
 30
0.0
 11
72.00000082459165
 21
120.97381853678
 31
0.0
  0
LINE
  5
1225
330
1F
100
AcDbEntity
  8
0
100
AcDbLine
 10
0.0000008245916661
 20
0.0000044583490677
 30
0.0
 11
72.00000082459165
 21
0.0000044583490534
 31
0.0
  0
LINE
  5
1226
330
1F
100
AcDbEntity
  8
0
100
AcDbLine
 10
0.0000008245916661
 20
79.00000445834907
 30
0.0
 11
0.0000008245916661
 21
54.00000445834907
 31
0.0
  0
LINE
  5
1228
330
1F
100
AcDbEntity
  8
0
100
AcDbLine
 10
19.00000082459166
 20
71.00000445834905
 30
0.0
 11
19.00000082459166
 21
33.00000445834903
 31
0.0
  0
LINE
  5
1229
330
1F
100
AcDbEntity
  8
0
100
AcDbLine
 10
20.00000082459166
 20
32.97381853678103
 30
0.0
 11
20.00000082459166
 21
70.97381853678006
 31
0.0
  0
ARC
  5
122B
330
1F
100
AcDbEntity
  8
0
100
AcDbCircle
 10
1.000000824591664
 20
56.05154523130102
 30
0.0
 40
1.0
100
AcDbArc
 50
93.030476845861
 51
180.0
  0
LINE
  5
122C
330
1F
100
AcDbEntity
  8
0
100
AcDbLine
 10
18.00000082459164
 20
5.000004458349049
 30
0.0
 11
0.0000008245916661
 21
4.528657870103088
 31
0.0
  0
LINE
  5
122D
330
1F
100
AcDbEntity
  8
0
100
AcDbLine
 10
0.0000008245916661
 20
21.17552217499111
 30
0.0
 11
0.0000008245916661
 21
0.0000044583490677
 31
0.0
  0
LINE
  5
122E
330
1F
100
AcDbEntity
  8
0
100
AcDbLine
 10
0.1464474339983326
 20
53.64645106775578
 30
0.0
 11
4.000000824591666
 21
52.00000445834906
 31
0.0
  0
LINE
  5
122F
330
1F
100
AcDbEntity
  8
0
100
AcDbLine
 10
0.4738328464706002
 20
21.6748369423691
 30
0.0
 11
11.57850475895667
 21
22.25680813696907
 31
0.0
  0
LINE
  5
1230
330
1F
100
AcDbEntity
  8
0
100
AcDbLine
 10
0.9471336834516248
 20
29.05014678617011
 30
0.0
 11
11.57930153630273
 21
29.61302626073301
 31
0.0
  0
LINE
  5
1231
330
1F
100
AcDbEntity
  8
0
100
AcDbLine
 10
0.9471336834516248
 20
26.94986213052711
 30
0.0
 11
11.57930153630273
 21
26.38698265596405
 31
0.0
  0
LINE
  5
1232
330
1F
100
AcDbEntity
  8
0
100
AcDbLine
 10
0.9471336834516248
 20
54.94986213052709
 30
0.0
 11
11.57930153630273
 21
54.38698265596406
 31
0.0
  0
LINE
  5
1233
330
1F
100
AcDbEntity
  8
0
100
AcDbLine
 10
0.9471336834516248
 20
50.05014678617008
 30
0.0
 11
11.57930153630273
 21
50.61302626073302
 31
0.0
  0
LINE
  5
1234
330
1F
100
AcDbEntity
  8
0
100
AcDbLine
 10
0.9471336834516248
 20
47.94986213052709
 30
0.0
 11
11.57930153630273
 21
47.38698265596406
 31
0.0
  0
LINE
  5
1235
330
1F
100
AcDbEntity
  8
0
100
AcDbLine
 10
0.9471336834516248
 20
43.05014678617008
 30
0.0
 11
11.57930153630273
 21
43.61302626073302
 31
0.0
  0
LINE
  5
1236
330
1F
100
AcDbEntity
  8
0
100
AcDbLine
 10
0.9471336834516248
 20
40.9498621305271
 30
0.0
 11
11.57930153630273
 21
40.38698265596406
 31
0.0
  0
LINE
  5
1237
330
1F
100
AcDbEntity
  8
0
100
AcDbLine
 10
0.9471336834516248
 20
36.05014678617007
 30
0.0
 11
11.57930153630273
 21
36.61302626073302
 31
0.0
  0
LINE
  5
1238
330
1F
100
AcDbEntity
  8
0
100
AcDbLine
 10
0.9471336834516248
 20
33.9498621305271
 30
0.0
 11
11.57930153630273
 21
33.38698265596406
 31
0.0
  0
POINT
  5
1239
330
1F
100
AcDbEntity
  8
0
100
AcDbPoint
 10
0.0000008245916661
 20
21.65000445834903
 30
0.0
  0
ARC
  5
123A
330
1F
100
AcDbEntity
  8
0
100
AcDbCircle
 10
0.5000008245916661
 20
21.17552217499111
 30
0.0
 40
0.5
100
AcDbArc
 50
92.9999999999991
 51
180.0
  0
LINE
  5
123B
330
1F
100
AcDbEntity
  8
0
100
AcDbLine
 10
0.0000008245916661
 20
28.05154523130103
 30
0.0
 11
0.0000008245916661
 21
27.94846368539607
 31
0.0
  0
ARC
  5
123C
330
1F
100
AcDbEntity
  8
0
100
AcDbCircle
 10
1.000000824591664
 20
28.05154523130103
 30
0.0
 40
1.0
100
AcDbArc
 50
93.030476845861
 51
180.0
  0
ARC
  5
123D
330
1F
100
AcDbEntity
  8
0
100
AcDbCircle
 10
1.000000824591664
 20
27.94846368539607
 30
0.0
 40
1.0
100
AcDbArc
 50
180.0
 51
266.9695231541389
  0
LINE
  5
123E
330
1F
100
AcDbEntity
  8
0
100
AcDbLine
 10
0.0000008245916661
 20
35.05154523130102
 30
0.0
 11
0.0000008245916661
 21
34.94846368539603
 31
0.0
  0
ARC
  5
123F
330
1F
100
AcDbEntity
  8
0
100
AcDbCircle
 10
1.000000824591664
 20
35.05154523130102
 30
0.0
 40
1.0
100
AcDbArc
 50
93.030476845861
 51
180.0
  0
ARC
  5
1240
330
1F
100
AcDbEntity
  8
0
100
AcDbCircle
 10
1.000000824591664
 20
34.94846368539607
 30
0.0
 40
1.0
100
AcDbArc
 50
180.0
 51
266.9695231541389
  0
ARC
  5
1241
330
1F
100
AcDbEntity
  8
0
100
AcDbCircle
 10
0.5000008245916661
 20
54.00000445834907
 30
0.0
 40
0.5
100
AcDbArc
 50
180.0
 51
224.9999999999904
  0
LINE
  5
1242
330
1F
100
AcDbEntity
  8
0
100
AcDbLine
 10
0.0000008245916661
 20
42.05154523130102
 30
0.0
 11
0.0000008245916661
 21
41.94846368539606
 31
0.0
  0
ARC
  5
1243
330
1F
100
AcDbEntity
  8
0
100
AcDbCircle
 10
1.000000824591664
 20
42.05154523130102
 30
0.0
 40
1.0
100
AcDbArc
 50
93.030476845861
 51
180.0
  0
ARC
  5
1244
330
1F
100
AcDbEntity
  8
0
100
AcDbCircle
 10
1.000000824591664
 20
41.94846368539606
 30
0.0
 40
1.0
100
AcDbArc
 50
180.0
 51
266.9695231541389
  0
LINE
  5
1245
330
1F
100
AcDbEntity
  8
0
100
AcDbLine
 10
0.0000008245916661
 20
56.05154523130102
 30
0.0
 11
0.0000008245916661
 21
55.94846368539607
 31
0.0
  0
ARC
  5
1246
330
1F
100
AcDbEntity
  8
0
100
AcDbCircle
 10
1.000000824591664
 20
55.94846368539607
 30
0.0
 40
1.0
100
AcDbArc
 50
180.0
 51
266.9695231541389
  0
LINE
  5
1247
330
1F
100
AcDbEntity
  8
0
100
AcDbLine
 10
0.0000008245916661
 20
49.05154523130102
 30
0.0
 11
0.0000008245916661
 21
48.94846368539607
 31
0.0
  0
ARC
  5
1248
330
1F
100
AcDbEntity
  8
0
100
AcDbCircle
 10
1.000000824591664
 20
49.05154523130102
 30
0.0
 40
1.0
100
AcDbArc
 50
93.030476845861
 51
180.0
  0
ARC
  5
1249
330
1F
100
AcDbEntity
  8
0
100
AcDbCircle
 10
1.000000824591664
 20
48.94846368539607
 30
0.0
 40
1.0
100
AcDbArc
 50
180.0
 51
266.9695231541389
  0
ARC
  5
124A
330
1F
100
AcDbEntity
  8
0
100
AcDbCircle
 10
11.50000082459166
 20
38.11092859303711
 30
0.0
 40
1.5
100
AcDbArc
 50
273.030476845861
 51
0.0
  0
LINE
  5
124B
330
1F
100
AcDbEntity
  8
0
100
AcDbLine
 10
13.00000082459166
 20
31.88908032366009
 30
0.0
 11
13.00000082459166
 21
31.1109285930371
 31
0.0
  0
ARC
  5
124C
330
1F
100
AcDbEntity
  8
0
100
AcDbCircle
 10
11.50000082459166
 20
31.11092859303711
 30
0.0
 40
1.5
100
AcDbArc
 50
273.030476845861
 51
0.0
  0
LINE
  5
124D
330
1F
100
AcDbEntity
  8
0
100
AcDbLine
 10
13.00000082459166
 20
24.88908032366007
 30
0.0
 11
13.00000082459166
 21
23.75475243910102
 31
0.0
  0
ARC
  5
124E
330
1F
100
AcDbEntity
  8
0
100
AcDbCircle
 10
11.50000082459166
 20
24.88908032366011
 30
0.0
 40
1.5
100
AcDbArc
 50
0.0
 51
86.96952315413897
  0
ARC
  5
124F
330
1F
100
AcDbEntity
  8
0
100
AcDbCircle
 10
11.50000082459166
 20
23.75475243910103
 30
0.0
 40
1.5
100
AcDbArc
 50
273.0000000000056
 51
0.0
  0
ARC
  5
1250
330
1F
100
AcDbEntity
  8
0
100
AcDbCircle
 10
11.50000082459166
 20
31.88908032366011
 30
0.0
 40
1.5
100
AcDbArc
 50
0.0
 51
86.96952315413897
  0
LINE
  5
1251
330
1F
100
AcDbEntity
  8
0
  6
Continuous
100
AcDbLine
 10
6.000000824591665
 20
46.50000445834907
 30
0.0
 11
12.86995399957776
 21
46.50000445834907
 31
0.0
  0
LINE
  5
1252
330
1F
100
AcDbEntity
  8
0
  6
Continuous
100
AcDbLine
 10
4.000000824591551
 20
54.78823975246665
 30
0.0
 11
4.000000824591666
 21
54.00000445834907
 31
0.0
  0
LINE
  5
1253
330
1F
100
AcDbEntity
  8
0
  6
Continuous
100
AcDbLine
 10
6.000000824591665
 20
54.6823573995254
 30
0.0
 11
6.000000824591665
 21
50.31765151717174
 31
0.0
  0
LINE
  5
1254
330
1F
100
AcDbEntity
  8
0
100
AcDbLine
 10
2.000000824591665
 20
54.89412210540788
 30
0.0
 11
2.000000824591665
 21
54.85451272255319
 31
0.0
  0
LINE
  5
1255
330
1F
100
AcDbEntity
  8
0
100
AcDbLine
 10
4.000000824591666
 20
47.78823975246665
 30
0.0
 11
4.000000824591666
 21
47.00000445834905
 31
0.0
  0
LINE
  5
1256
330
1F
100
AcDbEntity
  8
0
100
AcDbLine
 10
6.000000824591665
 20
50.31765151717173
 30
0.0
 11
6.000000824591665
 21
54.00000445834907
 31
0.0
  0
LINE
  5
1257
330
1F
100
AcDbEntity
  8
0
  6
Continuous
100
AcDbLine
 10
6.000000824591665
 20
47.68235739952539
 30
0.0
 11
6.000000824591665
 21
46.50000445834907
 31
0.0
  0
LINE
  5
1258
330
1F
100
AcDbEntity
  8
0
100
AcDbLine
 10
2.000000824591665
 20
52.85451272255314
 30
0.0
 11
2.000000824591665
 21
52.00000445834906
 31
0.0
  0
LINE
  5
1259
330
1F
100
AcDbEntity
  8
0
100
AcDbLine
 10
2.000000824591665
 20
54.85451272255319
 30
0.0
 11
4.000000824591666
 21
54.00000445834907
 31
0.0
  0
LINE
  5
125A
330
1F
100
AcDbEntity
  8
0
100
AcDbLine
 10
2.000000824591665
 20
54.85451272255314
 30
0.0
 11
2.000000824591665
 21
54.89412210540788
 31
0.0
  0
ARC
  5
125B
330
1F
100
AcDbEntity
  8
0
100
AcDbCircle
 10
2.500000824591665
 20
52.00000445834906
 30
0.0
 40
0.5
100
AcDbArc
 50
180.0
 51
270.0
  0
ARC
  5
125C
330
1F
100
AcDbEntity
  8
0
100
AcDbCircle
 10
3.500000824591665
 20
52.00000445834906
 30
0.0
 40
0.5
100
AcDbArc
 50
270.0
 51
0.0
  0
LINE
  5
125D
330
1F
100
AcDbEntity
  8
0
100
AcDbLine
 10
2.500000824591665
 20
51.50000445834907
 30
0.0
 11
3.500000824591665
 21
51.50000445834907
 31
0.0
  0
ARC
  5
125E
330
1F
100
AcDbEntity
  8
0
100
AcDbCircle
 10
4.500000824591665
 20
47.00000445834905
 30
0.0
 40
0.5
100
AcDbArc
 50
180.0
 51
270.0
  0
ARC
  5
125F
330
1F
100
AcDbEntity
  8
0
100
AcDbCircle
 10
5.500000824591891
 20
47.00000445834905
 30
0.0
 40
0.5
100
AcDbArc
 50
270.0
 51
0.0
  0
ARC
  5
1260
330
1F
100
AcDbEntity
  8
0
100
AcDbCircle
 10
5.500000824591665
 20
54.00000445834907
 30
0.0
 40
0.5
100
AcDbArc
 50
0.0
 51
90.0
  0
ARC
  5
1261
330
1F
100
AcDbEntity
  8
0
100
AcDbCircle
 10
4.500000824591665
 20
54.00000445834907
 30
0.0
 40
0.5
100
AcDbArc
 50
90.0
 51
180.0
  0
LINE
  5
1262
330
1F
100
AcDbEntity
  8
0
100
AcDbLine
 10
4.000000824591666
 20
52.00000445834918
 30
0.0
 11
4.000000824591666
 21
50.21176916423051
 31
0.0
  0
LINE
  5
1263
330
1F
100
AcDbEntity
  8
0
100
AcDbLine
 10
5.500000824591665
 20
54.50000445834906
 30
0.0
 11
4.500000824591665
 21
54.50000445834906
 31
0.0
  0
LINE
  5
1264
330
1F
100
AcDbEntity
  8
0
100
AcDbLine
 10
6.000000824591892
 20
47.00000445834905
 30
0.0
 11
6.000000824591892
 21
47.68235739952539
 31
0.0
  0
LINE
  5
1265
330
1F
100
AcDbEntity
  8
0
100
AcDbLine
 10
4.500000824591665
 20
46.50000445834907
 30
0.0
 11
5.500000824591891
 21
46.50000445834907
 31
0.0
  0
LINE
  5
1266
330
1F
100
AcDbEntity
  8
0
100
AcDbLine
 10
13.00000082459166
 20
38.88908032366009
 30
0.0
 11
13.00000082459166
 21
38.1109285930371
 31
0.0
  0
LINE
  5
1267
330
1F
100
AcDbEntity
  8
0
100
AcDbLine
 10
12.00000082459166
 20
43.6967150306641
 30
0.0
 11
12.00000082459166
 21
46.50000445834904
 31
0.0
  0
LINE
  5
1268
330
1F
100
AcDbEntity
  8
0
100
AcDbLine
 10
13.00000082459166
 20
45.88908032366009
 30
0.0
 11
13.00000082459166
 21
45.1109285930371
 31
0.0
  0
ARC
  5
1269
330
1F
100
AcDbEntity
  8
0
100
AcDbCircle
 10
11.50000082459166
 20
45.88908032366009
 30
0.0
 40
1.5
100
AcDbArc
 50
0.0
 51
86.96952315413897
  0
ARC
  5
126A
330
1F
100
AcDbEntity
  8
0
100
AcDbCircle
 10
11.50000082459166
 20
45.1109285930371
 30
0.0
 40
1.5
100
AcDbArc
 50
273.030476845861
 51
0.0
  0
ARC
  5
126B
330
1F
100
AcDbEntity
  8
0
100
AcDbCircle
 10
11.50000082459166
 20
38.8890803236601
 30
0.0
 40
1.5
100
AcDbArc
 50
0.0
 51
86.96952315413897
  0
LINE
  5
126C
330
1F
100
AcDbEntity
  8
0
100
AcDbLine
 10
13.00000082459166
 20
52.88908032366009
 30
0.0
 11
13.00000082459166
 21
52.1109285930371
 31
0.0
  0
ARC
  5
126D
330
1F
100
AcDbEntity
  8
0
100
AcDbCircle
 10
11.50000082459166
 20
52.88908032366009
 30
0.0
 40
1.5
100
AcDbArc
 50
0.0
 51
86.96952315413897
  0
ARC
  5
126E
330
1F
100
AcDbEntity
  8
0
100
AcDbCircle
 10
11.50000082459166
 20
52.1109285930371
 30
0.0
 40
1.5
100
AcDbArc
 50
273.030476845861
 51
0.0
  0
LINE
  5
126F
330
1F
100
AcDbEntity
  8
0
100
AcDbLine
 10
19.00000082459166
 20
21.00000445834905
 30
0.0
 11
19.00000082459166
 21
4.973818536779043
 31
0.0
  0
LINE
  5
1270
330
1F
100
AcDbEntity
  8
0
100
AcDbLine
 10
20.00000082459166
 20
4.92144669364205
 30
0.0
 11
20.00000082459166
 21
20.97381853678006
 31
0.0
  0
LINE
  5
1271
330
1F
100
AcDbEntity
  8
0
100
AcDbLine
 10
45.2912886720686
 20
4.259171013684066
 30
0.0
 11
45.2912886720686
 21
21.97381853678006
 31
0.0
  0
LINE
  5
1272
330
1F
100
AcDbEntity
  8
0
100
AcDbLine
 10
40.70871297711358
 20
4.379169981417017
 30
0.0
 11
40.70871297711358
 21
21.97381853678109
 31
0.0
  0
LINE
  5
1273
330
1F
100
AcDbEntity
  8
0
100
AcDbLine
 10
40.90000082459061
 20
3.800004458348038
 30
0.0
 11
40.90000082459061
 21
0.0000044583490534
 31
0.0
  0
LINE
  5
1274
330
1F
100
AcDbEntity
  8
0
100
AcDbLine
 10
45.10000082459156
 20
3.800004458348038
 30
0.0
 11
45.10000082459156
 21
0.0000044583490534
 31
0.0
  0
LINE
  5
1275
330
1F
100
AcDbEntity
  8
0
100
AcDbLine
 10
37.50000082459166
 20
3.800004458348038
 30
0.0
 11
48.50000082459166
 21
3.800004458348038
 31
0.0
  0
LINE
  5
1276
330
1F
100
AcDbEntity
  8
0
100
AcDbLine
 10
37.50000082459166
 20
4.489378987749089
 30
0.0
 11
37.50000082459166
 21
3.800004458348038
 31
0.0
  0
LINE
  5
1277
330
1F
100
AcDbEntity
  8
0
100
AcDbLine
 10
48.50000082459166
 20
4.201333850489048
 30
0.0
 11
48.50000082459166
 21
3.800004458348038
 31
0.0
  0
LINE
  5
127B
330
1F
100
AcDbEntity
  8
0
100
AcDbLine
 10
23.50000082459164
 20
23.00000445834905
 30
0.0
 11
22.00000082459063
 21
23.00000445834905
 31
0.0
  0
LINE
  5
127C
330
1F
100
AcDbEntity
  8
0
100
AcDbLine
 10
23.70000082459056
 20
22.47381853678005
 30
0.0
 11
22.00000082459063
 21
22.47381853678005
 31
0.0
  0
LINE
  5
127D
330
1F
100
AcDbEntity
  8
0
100
AcDbLine
 10
19.00000082459166
 20
21.00000445834905
 30
0.0
 11
17.70000082459169
 21
21.00000445834905
 31
0.0
  0
LINE
  5
127E
330
1F
100
AcDbEntity
  8
0
100
AcDbLine
 10
20.00000082459166
 20
20.97381853678006
 30
0.0
 11
19.00000082459166
 21
20.97381853678006
 31
0.0
  0
LINE
  5
127F
330
1F
100
AcDbEntity
  8
0
100
AcDbLine
 10
23.50000082459164
 20
31.00000445834905
 30
0.0
 11
22.00000082459063
 21
31.00000445834905
 31
0.0
  0
LINE
  5
1280
330
1F
100
AcDbEntity
  8
0
100
AcDbLine
 10
19.00000082459166
 20
33.00000445834903
 30
0.0
 11
17.70000082459169
 21
33.00000445834903
 31
0.0
  0
LINE
  5
1281
330
1F
100
AcDbEntity
  8
0
100
AcDbLine
 10
23.70000082459056
 20
31.47381853678007
 30
0.0
 11
22.00000082459063
 21
31.47381853678007
 31
0.0
  0
LINE
  5
1282
330
1F
100
AcDbEntity
  8
0
100
AcDbLine
 10
20.00000082459166
 20
32.97381853678103
 30
0.0
 11
19.00000082459166
 21
32.97381853678103
 31
0.0
  0
LINE
  5
1283
330
1F
100
AcDbEntity
  8
0
100
AcDbLine
 10
22.10000082459157
 20
31.00000445834905
 30
0.0
 11
22.10000082459157
 21
23.00000445834905
 31
0.0
  0
LINE
  5
1284
330
1F
100
AcDbEntity
  8
0
100
AcDbLine
 10
22.70000082459169
 20
31.00000445834905
 30
0.0
 11
22.70000082459169
 21
23.00000445834905
 31
0.0
  0
LINE
  5
1285
330
1F
100
AcDbEntity
  8
0
100
AcDbLine
 10
23.50000082459164
 20
31.00000445834905
 30
0.0
 11
23.50000082459164
 21
23.00000445834905
 31
0.0
  0
LINE
  5
1286
330
1F
100
AcDbEntity
  8
0
100
AcDbLine
 10
17.70000082459169
 20
33.00000445834903
 30
0.0
 11
17.70000082459169
 21
21.10000445834804
 31
0.0
  0
LINE
  5
1287
330
1F
100
AcDbEntity
  8
0
100
AcDbLine
 10
18.50000082459166
 20
33.00000445834903
 30
0.0
 11
18.50000082459166
 21
21.00000445834905
 31
0.0
  0
LINE
  5
1288
330
1F
100
AcDbEntity
  8
0
100
AcDbLine
 10
19.00000082459166
 20
33.00000445834903
 30
0.0
 11
19.00000082459166
 21
21.00000445834802
 31
0.0
  0
LINE
  5
1289
330
1F
100
AcDbEntity
  8
0
100
AcDbLine
 10
22.00000082459063
 20
31.47381853678007
 30
0.0
 11
22.00000082459063
 21
22.47381853678005
 31
0.0
  0
LINE
  5
128A
330
1F
100
AcDbEntity
  8
0
100
AcDbLine
 10
23.70000082459056
 20
31.47381853678007
 30
0.0
 11
23.70000082459056
 21
22.47381853678005
 31
0.0
  0
LINE
  5
128D
330
1F
100
AcDbEntity
  8
0
100
AcDbLine
 10
0.0000008245916661
 20
120.5286578701029
 30
0.0
 11
18.00000082459461
 21
121.0000044583479
 31
0.0
  0
LINE
  5
128E
330
1F
100
AcDbEntity
  8
0
100
AcDbLine
 10
10.80000082459263
 20
96.42823975246608
 30
0.0
 11
10.80000082459263
 21
92.57176916423112
 31
0.0
  0
LINE
  5
128F
330
1F
100
AcDbEntity
  8
0
100
AcDbLine
 10
13.00000082459166
 20
94.88908032366008
 30
0.0
 11
13.00000082459166
 21
94.11092859303707
 31
0.0
  0
LINE
  5
1290
330
1F
100
AcDbEntity
  8
0
100
AcDbLine
 10
0.1464474339983326
 20
79.35355784894234
 30
0.0
 11
4.000000824591666
 21
81.00000445834906
 31
0.0
  0
LINE
  5
1291
330
1F
100
AcDbEntity
  8
0
100
AcDbLine
 10
0.9471336834516248
 20
64.05014678617011
 30
0.0
 11
11.57930153630273
 21
64.61302626073302
 31
0.0
  0
LINE
  5
1292
330
1F
100
AcDbEntity
  8
0
100
AcDbLine
 10
0.9471336834516248
 20
61.94986213052709
 30
0.0
 11
11.57930153630273
 21
61.38698265596406
 31
0.0
  0
LINE
  5
1293
330
1F
100
AcDbEntity
  8
0
100
AcDbLine
 10
0.9471336834516248
 20
57.05014678617009
 30
0.0
 11
11.57930153630273
 21
57.61302626073303
 31
0.0
  0
LINE
  5
1294
330
1F
100
AcDbEntity
  8
0
100
AcDbLine
 10
0.9471336834516248
 20
92.05014678617009
 30
0.0
 11
11.57930153630273
 21
92.613026260733
 31
0.0
  0
LINE
  5
1295
330
1F
100
AcDbEntity
  8
0
100
AcDbLine
 10
0.9471336834516248
 20
89.94986213052708
 30
0.0
 11
11.57930153630273
 21
89.38698265596405
 31
0.0
  0
LINE
  5
1296
330
1F
100
AcDbEntity
  8
0
100
AcDbLine
 10
0.9471336834516248
 20
85.05014678617008
 30
0.0
 11
11.57930153630273
 21
85.61302626073301
 31
0.0
  0
LINE
  5
1297
330
1F
100
AcDbEntity
  8
0
100
AcDbLine
 10
0.9471336834516248
 20
82.94986213052709
 30
0.0
 11
11.57930153630273
 21
82.38698265596406
 31
0.0
  0
LINE
  5
1298
330
1F
100
AcDbEntity
  8
0
100
AcDbLine
 10
0.9471336834516248
 20
78.05014678617009
 30
0.0
 11
11.57930153630273
 21
78.613026260733
 31
0.0
  0
LINE
  5
1299
330
1F
100
AcDbEntity
  8
0
100
AcDbLine
 10
0.9471336834516248
 20
75.9498621305271
 30
0.0
 11
11.57930153630273
 21
75.38698265596406
 31
0.0
  0
LINE
  5
129A
330
1F
100
AcDbEntity
  8
0
100
AcDbLine
 10
0.9471336834516248
 20
71.05014678617009
 30
0.0
 11
11.57930153630273
 21
71.613026260733
 31
0.0
  0
LINE
  5
129B
330
1F
100
AcDbEntity
  8
0
100
AcDbLine
 10
0.9471336834516248
 20
68.94986213052709
 30
0.0
 11
11.57930153630273
 21
68.38698265596406
 31
0.0
  0
LINE
  5
129C
330
1F
100
AcDbEntity
  8
0
100
AcDbLine
 10
0.0000008245916661
 20
63.05154523130102
 30
0.0
 11
0.0000008245916661
 21
62.94846368539605
 31
0.0
  0
ARC
  5
129D
330
1F
100
AcDbEntity
  8
0
100
AcDbCircle
 10
1.000000824591664
 20
63.05154523130102
 30
0.0
 40
1.0
100
AcDbArc
 50
93.030476845861
 51
180.0
  0
ARC
  5
129E
330
1F
100
AcDbEntity
  8
0
100
AcDbCircle
 10
1.000000824591664
 20
62.94846368539605
 30
0.0
 40
1.0
100
AcDbArc
 50
180.0
 51
266.9695231541389
  0
LINE
  5
129F
330
1F
100
AcDbEntity
  8
0
100
AcDbLine
 10
0.0000008245916661
 20
70.05154523130102
 30
0.0
 11
0.0000008245916661
 21
69.94846368539606
 31
0.0
  0
ARC
  5
12A0
330
1F
100
AcDbEntity
  8
0
100
AcDbCircle
 10
1.000000824591664
 20
70.05154523130102
 30
0.0
 40
1.0
100
AcDbArc
 50
93.030476845861
 51
180.0
  0
ARC
  5
12A1
330
1F
100
AcDbEntity
  8
0
100
AcDbCircle
 10
1.000000824591664
 20
69.94846368539606
 30
0.0
 40
1.0
100
AcDbArc
 50
180.0
 51
266.9695231541389
  0
ARC
  5
12A2
330
1F
100
AcDbEntity
  8
0
100
AcDbCircle
 10
0.5000008245916661
 20
79.00000445834907
 30
0.0
 40
0.5
100
AcDbArc
 50
134.9999999999726
 51
180.0
  0
LINE
  5
12A3
330
1F
100
AcDbEntity
  8
0
100
AcDbLine
 10
0.0000008245916661
 20
77.05154523130101
 30
0.0
 11
0.0000008245916661
 21
76.94846368539606
 31
0.0
  0
ARC
  5
12A4
330
1F
100
AcDbEntity
  8
0
100
AcDbCircle
 10
1.000000824591664
 20
77.05154523130101
 30
0.0
 40
1.0
100
AcDbArc
 50
93.030476845861
 51
180.0
  0
ARC
  5
12A5
330
1F
100
AcDbEntity
  8
0
100
AcDbCircle
 10
1.000000824591664
 20
76.94846368539606
 30
0.0
 40
1.0
100
AcDbArc
 50
180.0
 51
266.9695231541389
  0
LINE
  5
12A6
330
1F
100
AcDbEntity
  8
0
100
AcDbLine
 10
0.0000008245916661
 20
84.05154523130105
 30
0.0
 11
0.0000008245916661
 21
83.94846368539607
 31
0.0
  0
ARC
  5
12A7
330
1F
100
AcDbEntity
  8
0
100
AcDbCircle
 10
1.000000824591664
 20
84.05154523130105
 30
0.0
 40
1.0
100
AcDbArc
 50
93.030476845861
 51
180.0
  0
ARC
  5
12A8
330
1F
100
AcDbEntity
  8
0
100
AcDbCircle
 10
1.000000824591664
 20
83.94846368539607
 30
0.0
 40
1.0
100
AcDbArc
 50
180.0
 51
266.9695231541389
  0
LINE
  5
12A9
330
1F
100
AcDbEntity
  8
0
100
AcDbLine
 10
0.0000008245916661
 20
91.05154523130101
 30
0.0
 11
0.0000008245916661
 21
90.94846368539606
 31
0.0
  0
ARC
  5
12AA
330
1F
100
AcDbEntity
  8
0
100
AcDbCircle
 10
1.000000824591664
 20
91.05154523130101
 30
0.0
 40
1.0
100
AcDbArc
 50
93.030476845861
 51
180.0
  0
ARC
  5
12AB
330
1F
100
AcDbEntity
  8
0
100
AcDbCircle
 10
1.000000824591664
 20
90.94846368539606
 30
0.0
 40
1.0
100
AcDbArc
 50
180.0
 51
266.9695231541389
  0
LINE
  5
12AC
330
1F
100
AcDbEntity
  8
0
  6
Continuous
100
AcDbLine
 10
4.000000824591666
 20
75.78823975246667
 30
0.0
 11
4.000000824591666
 21
71.2117691642305
 31
0.0
  0
LINE
  5
12AD
330
1F
100
AcDbEntity
  8
0
  6
Continuous
100
AcDbLine
 10
6.000000824591665
 20
75.6823573995254
 30
0.0
 11
6.000000824591665
 21
71.31765151717171
 31
0.0
  0
LINE
  5
12AE
330
1F
100
AcDbEntity
  8
0
100
AcDbLine
 10
2.000000824591665
 20
71.1058868112893
 30
0.0
 11
2.000000824591665
 21
75.89412210540789
 31
0.0
  0
LINE
  5
12AF
330
1F
100
AcDbEntity
  8
0
100
AcDbLine
 10
2.000000824592004
 20
75.89412210540785
 30
0.0
 11
2.000000824591888
 21
71.1058868112893
 31
0.0
  0
ARC
  5
12B0
330
1F
100
AcDbEntity
  8
0
100
AcDbCircle
 10
11.50000082459166
 20
73.8890803236601
 30
0.0
 40
1.5
100
AcDbArc
 50
0.0
 51
86.96952315413897
  0
LINE
  5
12B1
330
1F
100
AcDbEntity
  8
0
  6
Continuous
100
AcDbLine
 10
4.000000824591666
 20
61.78823975246666
 30
0.0
 11
4.000000824591666
 21
57.21176916423051
 31
0.0
  0
LINE
  5
12B2
330
1F
100
AcDbEntity
  8
0
  6
Continuous
100
AcDbLine
 10
4.000000824591666
 20
68.78823975246667
 30
0.0
 11
4.000000824591666
 21
64.21176916423053
 31
0.0
  0
LINE
  5
12B3
330
1F
100
AcDbEntity
  8
0
  6
Continuous
100
AcDbLine
 10
6.000000824591665
 20
68.68235739952543
 30
0.0
 11
6.000000824591665
 21
64.31765151717174
 31
0.0
  0
LINE
  5
12B4
330
1F
100
AcDbEntity
  8
0
100
AcDbLine
 10
2.000000824591665
 20
61.89412210540789
 30
0.0
 11
2.000000824591665
 21
57.10588681128931
 31
0.0
  0
LINE
  5
12B5
330
1F
100
AcDbEntity
  8
0
100
AcDbLine
 10
2.000000824591665
 20
64.10588681128931
 30
0.0
 11
2.000000824591665
 21
68.89412210540789
 31
0.0
  0
LINE
  5
12B6
330
1F
100
AcDbEntity
  8
0
  6
Continuous
100
AcDbLine
 10
6.000000824591665
 20
61.68235739952542
 30
0.0
 11
6.000000824591665
 21
57.31765151717175
 31
0.0
  0
LINE
  5
12B7
330
1F
100
AcDbEntity
  8
0
100
AcDbLine
 10
2.000000824591665
 20
57.10588681128931
 30
0.0
 11
2.000000824591665
 21
61.89412210540789
 31
0.0
  0
LINE
  5
12B8
330
1F
100
AcDbEntity
  8
0
100
AcDbLine
 10
2.000000824591888
 20
68.89412210540789
 30
0.0
 11
2.000000824591665
 21
64.10588681128931
 31
0.0
  0
LINE
  5
12B9
330
1F
100
AcDbEntity
  8
0
100
AcDbLine
 10
13.00000082459166
 20
59.88908032366007
 30
0.0
 11
13.00000082459166
 21
59.1109285930371
 31
0.0
  0
ARC
  5
12BA
330
1F
100
AcDbEntity
  8
0
100
AcDbCircle
 10
11.50000082459166
 20
59.88908032366007
 30
0.0
 40
1.5
100
AcDbArc
 50
0.0
 51
86.96952315413897
  0
ARC
  5
12BB
330
1F
100
AcDbEntity
  8
0
100
AcDbCircle
 10
11.50000082459166
 20
59.1109285930371
 30
0.0
 40
1.5
100
AcDbArc
 50
273.030476845861
 51
0.0
  0
LINE
  5
12BC
330
1F
100
AcDbEntity
  8
0
100
AcDbLine
 10
13.00000082459166
 20
66.88908032366008
 30
0.0
 11
13.00000082459166
 21
66.1109285930371
 31
0.0
  0
ARC
  5
12BD
330
1F
100
AcDbEntity
  8
0
100
AcDbCircle
 10
11.50000082459166
 20
66.88908032366008
 30
0.0
 40
1.5
100
AcDbArc
 50
0.0
 51
86.96952315413897
  0
LINE
  5
12BE
330
1F
100
AcDbEntity
  8
0
100
AcDbLine
 10
13.00000082459166
 20
73.8890803236601
 30
0.0
 11
13.00000082459166
 21
73.11092859303709
 31
0.0
  0
ARC
  5
12BF
330
1F
100
AcDbEntity
  8
0
100
AcDbCircle
 10
11.50000082459166
 20
73.11092859303709
 30
0.0
 40
1.5
100
AcDbArc
 50
273.030476845861
 51
0.0
  0
ARC
  5
12C0
330
1F
100
AcDbEntity
  8
0
100
AcDbCircle
 10
11.50000082459166
 20
66.1109285930371
 30
0.0
 40
1.5
100
AcDbArc
 50
273.030476845861
 51
0.0
  0
LWPOLYLINE
  5
12C1
330
1F
100
AcDbEntity
  8
0
100
AcDbPolyline
 90
        3
 70
     0
 43
0.0
 10
12.86995399957822
 20
86.50000445834905
 10
6.000000824591665
 20
86.50000445834905
 10
6.000000824591665
 20
85.31765151717173
  0
LINE
  5
12C2
330
1F
100
AcDbEntity
  8
0
  6
Continuous
100
AcDbLine
 10
4.000000824591666
 20
79.00000445834907
 30
0.0
 11
4.000000824591666
 21
78.21176916423052
 31
0.0
  0
LINE
  5
12C3
330
1F
100
AcDbEntity
  8
0
  6
Continuous
100
AcDbLine
 10
6.000000824591665
 20
82.68235739952542
 30
0.0
 11
6.000000824591665
 21
78.31765151717171
 31
0.0
  0
LINE
  5
12C4
330
1F
100
AcDbEntity
  8
0
100
AcDbLine
 10
2.000000824591665
 20
78.1058868112893
 30
0.0
 11
2.000000824591665
 21
78.14549619414498
 31
0.0
  0
LINE
  5
12C5
330
1F
100
AcDbEntity
  8
0
100
AcDbLine
 10
4.000000824591666
 20
82.78823975246664
 30
0.0
 11
4.000000824591666
 21
81.00000445834906
 31
0.0
  0
LINE
  5
12C6
330
1F
100
AcDbEntity
  8
0
100
AcDbLine
 10
6.000000824591665
 20
85.31765151717172
 30
0.0
 11
6.000000824591665
 21
86.00000445834906
 31
0.0
  0
LINE
  5
12C7
330
1F
100
AcDbEntity
  8
0
100
AcDbLine
 10
2.000000824592119
 20
78.14549619414522
 30
0.0
 11
2.000000824592004
 21
78.10588681128931
 31
0.0
  0
LINE
  5
12C8
330
1F
100
AcDbEntity
  8
0
100
AcDbLine
 10
2.000000824592119
 20
78.14549619414522
 30
0.0
 11
4.000000824591666
 21
79.00000445834907
 31
0.0
  0
ARC
  5
12C9
330
1F
100
AcDbEntity
  8
0
100
AcDbCircle
 10
3.500000824591892
 20
81.00000445834906
 30
0.0
 40
0.5
100
AcDbArc
 50
0.0
 51
90.0
  0
ARC
  5
12CA
330
1F
100
AcDbEntity
  8
0
100
AcDbCircle
 10
2.500000824591892
 20
81.00000445834906
 30
0.0
 40
0.5
100
AcDbArc
 50
90.0
 51
180.0
  0
LINE
  5
12CB
330
1F
100
AcDbEntity
  8
0
100
AcDbLine
 10
2.000000824591888
 20
81.00000445834906
 30
0.0
 11
2.000000824592119
 21
80.14549619414522
 31
0.0
  0
LINE
  5
12CC
330
1F
100
AcDbEntity
  8
0
100
AcDbLine
 10
3.500000824591892
 20
81.50000445834907
 30
0.0
 11
2.500000824591892
 21
81.50000445834907
 31
0.0
  0
ARC
  5
12CD
330
1F
100
AcDbEntity
  8
0
100
AcDbCircle
 10
4.500000824591665
 20
79.00000445834907
 30
0.0
 40
0.5
100
AcDbArc
 50
180.0
 51
270.0
  0
ARC
  5
12CE
330
1F
100
AcDbEntity
  8
0
100
AcDbCircle
 10
5.500000824591891
 20
79.00000445834907
 30
0.0
 40
0.5
100
AcDbArc
 50
270.0
 51
0.0
  0
ARC
  5
12CF
330
1F
100
AcDbEntity
  8
0
100
AcDbCircle
 10
5.500000824591665
 20
86.00000445834906
 30
0.0
 40
0.5
100
AcDbArc
 50
0.0
 51
90.0
  0
ARC
  5
12D0
330
1F
100
AcDbEntity
  8
0
100
AcDbCircle
 10
4.500000824591665
 20
86.00000445834906
 30
0.0
 40
0.5
100
AcDbArc
 50
90.0
 51
180.0
  0
LINE
  5
12D1
330
1F
100
AcDbEntity
  8
0
100
AcDbLine
 10
4.000000824591666
 20
86.00000445834906
 30
0.0
 11
4.000000824591666
 21
85.21176916423051
 31
0.0
  0
LINE
  5
12D2
330
1F
100
AcDbEntity
  8
0
100
AcDbLine
 10
5.500000824591665
 20
86.50000445834905
 30
0.0
 11
4.500000824591665
 21
86.50000445834905
 31
0.0
  0
LINE
  5
12D3
330
1F
100
AcDbEntity
  8
0
100
AcDbLine
 10
6.000000824591892
 20
79.00000445834907
 30
0.0
 11
6.000000824591665
 21
82.6823573995254
 31
0.0
  0
LINE
  5
12D4
330
1F
100
AcDbEntity
  8
0
100
AcDbLine
 10
4.500000824591665
 20
78.50000445834907
 30
0.0
 11
5.500000824591891
 21
78.50000445834907
 31
0.0
  0
LINE
  5
12D5
330
1F
100
AcDbEntity
  8
0
  6
Continuous
100
AcDbLine
 10
6.000000824591665
 20
86.50000445834905
 30
0.0
 11
6.000000824591665
 21
85.31765151717173
 31
0.0
  0
LINE
  5
12D6
330
1F
100
AcDbEntity
  8
0
100
AcDbLine
 10
13.00000082459166
 20
80.88908032366008
 30
0.0
 11
13.00000082459166
 21
80.11092859303714
 31
0.0
  0
ARC
  5
12D7
330
1F
100
AcDbEntity
  8
0
100
AcDbCircle
 10
11.50000082459166
 20
80.11092859303714
 30
0.0
 40
1.5
100
AcDbArc
 50
273.030476845861
 51
0.0
  0
LINE
  5
12D8
330
1F
100
AcDbEntity
  8
0
100
AcDbLine
 10
12.00000082459166
 20
86.50000445834905
 30
0.0
 11
12.00000082459166
 21
89.30329388603309
 31
0.0
  0
LINE
  5
12D9
330
1F
100
AcDbEntity
  8
0
100
AcDbLine
 10
10.80000082459263
 20
89.04896693267003
 30
0.0
 11
12.00000082459166
 21
89.01754382678713
 31
0.0
  0
LINE
  5
12DA
330
1F
100
AcDbEntity
  8
0
100
AcDbLine
 10
13.00000082459166
 20
87.88908032366007
 30
0.0
 11
13.00000082459166
 21
87.11092859303709
 31
0.0
  0
ARC
  5
12DB
330
1F
100
AcDbEntity
  8
0
100
AcDbCircle
 10
11.50000082459166
 20
87.11092859303709
 30
0.0
 40
1.5
100
AcDbArc
 50
273.030476845861
 51
0.0
  0
ARC
  5
12DC
330
1F
100
AcDbEntity
  8
0
100
AcDbCircle
 10
11.50000082459166
 20
94.11092859303707
 30
0.0
 40
1.5
100
AcDbArc
 50
273.030476845861
 51
0.0
  0
LINE
  5
12DD
330
1F
100
AcDbEntity
  8
0
100
AcDbLine
 10
10.80000082459263
 20
89.42823975246607
 30
0.0
 11
10.80000082459263
 21
89.04896693267003
 31
0.0
  0
ARC
  5
12DE
330
1F
100
AcDbEntity
  8
0
100
AcDbCircle
 10
11.50000082459166
 20
87.88908032366007
 30
0.0
 40
1.5
100
AcDbArc
 50
0.0
 51
86.96952315413897
  0
ARC
  5
12DF
330
1F
100
AcDbEntity
  8
0
100
AcDbCircle
 10
11.50000082459166
 20
80.88908032366008
 30
0.0
 40
1.5
100
AcDbArc
 50
0.0
 51
86.96952315413897
  0
LINE
  5
12E0
330
1F
100
AcDbEntity
  8
0
100
AcDbLine
 10
0.9471336834516248
 20
96.94986213052715
 30
0.0
 11
11.57930153630273
 21
96.38698265596408
 31
0.0
  0
LINE
  5
12E1
330
1F
100
AcDbEntity
  8
0
100
AcDbLine
 10
0.4738328464706002
 20
104.3251719743288
 30
0.0
 11
11.57850475895667
 21
103.7432007797289
 31
0.0
  0
LINE
  5
12E2
330
1F
100
AcDbEntity
  8
0
100
AcDbLine
 10
0.9471336834516248
 20
99.05014678617009
 30
0.0
 11
11.57930153630273
 21
99.61302626073305
 31
0.0
  0
LINE
  5
12E3
330
1F
100
AcDbEntity
  8
0
100
AcDbLine
 10
0.0000008245916661
 20
104.824486741706
 30
0.0
 11
0.0000008245916661
 21
120.5286578701029
 31
0.0
  0
LINE
  5
12E4
330
1F
100
AcDbEntity
  8
0
100
AcDbLine
 10
0.0000008245916661
 20
98.051545231301
 30
0.0
 11
0.0000008245916661
 21
97.94846368539609
 31
0.0
  0
POINT
  5
12E5
330
1F
100
AcDbEntity
  8
0
100
AcDbPoint
 10
0.0000008245916661
 20
104.3500044583479
 30
0.0
  0
ARC
  5
12E6
330
1F
100
AcDbEntity
  8
0
100
AcDbCircle
 10
0.5000008245916661
 20
104.824486741706
 30
0.0
 40
0.5
100
AcDbArc
 50
180.0
 51
266.9999999999942
  0
ARC
  5
12E7
330
1F
100
AcDbEntity
  8
0
100
AcDbCircle
 10
1.000000824591664
 20
98.051545231301
 30
0.0
 40
1.0
100
AcDbArc
 50
93.030476845861
 51
180.0
  0
ARC
  5
12E8
330
1F
100
AcDbEntity
  8
0
100
AcDbCircle
 10
1.000000824591664
 20
97.94846368539609
 30
0.0
 40
1.0
100
AcDbArc
 50
180.0
 51
266.9695231541389
  0
ARC
  5
12E9
330
1F
100
AcDbEntity
  8
0
100
AcDbCircle
 10
11.50000082459166
 20
94.88908032366008
 30
0.0
 40
1.5
100
AcDbArc
 50
0.0
 51
86.96952315413897
  0
LINE
  5
12EA
330
1F
100
AcDbEntity
  8
0
100
AcDbLine
 10
10.80000082459263
 20
103.7840004420919
 30
0.0
 11
10.80000082459263
 21
99.56600847460505
 31
0.0
  0
LINE
  5
12EB
330
1F
100
AcDbEntity
  8
0
100
AcDbLine
 10
13.00000082459166
 20
102.2452564775969
 30
0.0
 11
13.00000082459166
 21
101.1109285930368
 31
0.0
  0
ARC
  5
12EC
330
1F
100
AcDbEntity
  8
0
100
AcDbCircle
 10
11.50000082459166
 20
102.2452564775969
 30
0.0
 40
1.5
100
AcDbArc
 50
0.0
 51
87.00000000000093
  0
ARC
  5
12ED
330
1F
100
AcDbEntity
  8
0
100
AcDbCircle
 10
11.50000082459166
 20
101.1109285930368
 30
0.0
 40
1.5
100
AcDbArc
 50
273.030476845861
 51
0.0
  0
LINE
  5
12EF
330
1F
100
AcDbEntity
  8
0
100
AcDbLine
 10
19.00000082459166
 20
110.4710235162229
 30
0.0
 11
19.00000082459166
 21
83.00000445834907
 31
0.0
  0
LINE
  5
12F0
330
1F
100
AcDbEntity
  8
0
100
AcDbLine
 10
20.00000082459166
 20
82.97381853678103
 30
0.0
 11
20.00000082459166
 21
109.6057379634778
 31
0.0
  0
LINE
  5
12FD
330
1F
100
AcDbEntity
  8
0
100
AcDbLine
 10
22.10000082459157
 20
81.00000445834906
 30
0.0
 11
22.10000082459157
 21
73.00000445834905
 31
0.0
  0
LINE
  5
12FE
330
1F
100
AcDbEntity
  8
0
100
AcDbLine
 10
22.70000082459169
 20
81.00000445834906
 30
0.0
 11
22.70000082459169
 21
73.00000445834905
 31
0.0
  0
LINE
  5
12FF
330
1F
100
AcDbEntity
  8
0
100
AcDbLine
 10
23.50000082459164
 20
81.00000445834906
 30
0.0
 11
23.50000082459164
 21
73.00000445834905
 31
0.0
  0
LINE
  5
1300
330
1F
100
AcDbEntity
  8
0
100
AcDbLine
 10
22.00000082459063
 20
81.47381853678004
 30
0.0
 11
22.00000082459063
 21
72.47381853678006
 31
0.0
  0
LINE
  5
1301
330
1F
100
AcDbEntity
  8
0
100
AcDbLine
 10
23.70000082459056
 20
81.47381853678004
 30
0.0
 11
23.70000082459056
 21
72.47381853678006
 31
0.0
  0
LINE
  5
1302
330
1F
100
AcDbEntity
  8
0
100
AcDbLine
 10
17.70000082459169
 20
83.00000445834907
 30
0.0
 11
17.70000082459169
 21
71.10000445834804
 31
0.0
  0
LINE
  5
1303
330
1F
100
AcDbEntity
  8
0
100
AcDbLine
 10
18.50000082459166
 20
83.00000445834907
 30
0.0
 11
18.50000082459166
 21
71.00000445834905
 31
0.0
  0
LINE
  5
1304
330
1F
100
AcDbEntity
  8
0
100
AcDbLine
 10
19.00000082459166
 20
71.00000445834803
 30
0.0
 11
19.00000082459166
 21
83.00000445834907
 31
0.0
  0
LINE
  5
1305
330
1F
100
AcDbEntity
  8
0
100
AcDbLine
 10
19.00000082459166
 20
71.00000445834905
 30
0.0
 11
17.70000082459169
 21
71.00000445834905
 31
0.0
  0
LINE
  5
1306
330
1F
100
AcDbEntity
  8
0
100
AcDbLine
 10
20.00000082459166
 20
70.97381853678006
 30
0.0
 11
19.00000082459166
 21
70.97381853678006
 31
0.0
  0
LINE
  5
1307
330
1F
100
AcDbEntity
  8
0
100
AcDbLine
 10
23.50000082459164
 20
73.00000445834905
 30
0.0
 11
22.00000082459063
 21
73.00000445834905
 31
0.0
  0
LINE
  5
1308
330
1F
100
AcDbEntity
  8
0
100
AcDbLine
 10
23.70000082459056
 20
72.47381853678006
 30
0.0
 11
22.00000082459063
 21
72.47381853678006
 31
0.0
  0
LINE
  5
1309
330
1F
100
AcDbEntity
  8
0
100
AcDbLine
 10
23.50000082459164
 20
81.00000445834906
 30
0.0
 11
22.00000082459063
 21
81.00000445834906
 31
0.0
  0
LINE
  5
130A
330
1F
100
AcDbEntity
  8
0
100
AcDbLine
 10
19.00000082459166
 20
83.00000445834907
 30
0.0
 11
17.70000082459169
 21
83.00000445834907
 31
0.0
  0
LINE
  5
130B
330
1F
100
AcDbEntity
  8
0
100
AcDbLine
 10
23.70000082459056
 20
81.47381853678004
 30
0.0
 11
22.00000082459063
 21
81.47381853678004
 31
0.0
  0
LINE
  5
130C
330
1F
100
AcDbEntity
  8
0
100
AcDbLine
 10
20.00000082459166
 20
82.97381853678103
 30
0.0
 11
19.00000082459166
 21
82.97381853678103
 31
0.0
  0
LINE
  5
1315
330
1F
100
AcDbEntity
  8
0
100
AcDbLine
 10
28.10000082459157
 20
121.97381853678
 30
0.0
 11
36.70000082459079
 21
121.97381853678
 31
0.0
  0
LINE
  5
1316
330
1F
100
AcDbEntity
  8
0
100
AcDbLine
 10
29.20000082459067
 20
126.27381853678
 30
0.0
 11
35.10000082459066
 21
126.27381853678
 31
0.0
  0
LINE
  5
1317
330
1F
100
AcDbEntity
  8
0
100
AcDbLine
 10
29.60000082459066
 20
127.5738185367798
 30
0.0
 11
38.94500082459067
 21
127.5738185367798
 31
0.0
  0
LINE
  5
1318
330
1F
100
AcDbEntity
  8
0
100
AcDbLine
 10
22.00000082459164
 20
111.0000044583486
 30
0.0
 11
22.00000082459164
 21
120.8952607720719
 31
0.0
  0
LINE
  5
1319
330
1F
100
AcDbEntity
  8
0
100
AcDbLine
 10
23.00000082459164
 20
120.97381853678
 30
0.0
 11
23.00000082459164
 21
110.1347189056029
 31
0.0
  0
LINE
  5
131A
330
1F
100
AcDbEntity
  8
0
100
AcDbLine
 10
22.00000082459164
 20
120.4738185367798
 30
0.0
 11
22.00000082459164
 21
110.9738185367809
 31
0.0
  0
LINE
  5
131B
330
1F
100
AcDbEntity
  8
0
100
AcDbLine
 10
22.00000082459164
 20
111.0000044583486
 30
0.0
 11
19.00000082459166
 21
110.4710235162229
 31
0.0
  0
LINE
  5
131C
330
1F
100
AcDbEntity
  8
0
100
AcDbLine
 10
23.00000082459164
 20
110.1347189056029
 30
0.0
 11
20.00000082459166
 21
109.6057379634778
 31
0.0
  0
LINE
  5
131D
330
1F
100
AcDbEntity
  8
0
100
AcDbLine
 10
19.00000082459166
 20
110.4448375946549
 30
0.0
 11
22.00000082459164
 21
110.9738185367809
 31
0.0
  0
LINE
  5
131E
330
1F
100
AcDbEntity
  8
0
100
AcDbLine
 10
18.00000082459164
 20
121.0000044583489
 30
0.0
 11
22.00000082459164
 21
120.8952607720719
 31
0.0
  0
LINE
  5
131F
330
1F
100
AcDbEntity
  8
0
100
AcDbLine
 10
22.00000082459164
 20
120.4738185367798
 30
0.0
 11
23.00000082459164
 21
120.4738185367798
 31
0.0
  0
LINE
  5
1320
330
1F
100
AcDbEntity
  8
0
100
AcDbLine
 10
20.00000082459166
 20
120.97381853678
 30
0.0
 11
20.00000082459166
 21
120.9476326152109
 31
0.0
  0
LINE
  5
1321
330
1F
100
AcDbEntity
  8
0
100
AcDbLine
 10
20.00000082459166
 20
120.97381853678
 30
0.0
 11
20.00000082459166
 21
120.9476326152103
 31
0.0
  0
LINE
  5
1322
330
1F
100
AcDbEntity
  8
0
100
AcDbLine
 10
28.10000082459157
 20
120.97381853678
 30
0.0
 11
28.10000082459157
 21
121.97381853678
 31
0.0
  0
LINE
  5
1323
330
1F
100
AcDbEntity
  8
0
100
AcDbLine
 10
29.20000082459067
 20
121.97381853678
 30
0.0
 11
29.20000082459067
 21
126.27381853678
 31
0.0
  0
LINE
  5
1324
330
1F
100
AcDbEntity
  8
0
100
AcDbLine
 10
29.60000082459066
 20
126.2738185367799
 30
0.0
 11
29.60000082459066
 21
127.5738185367798
 31
0.0
  0
LINE
  5
1325
330
1F
100
AcDbEntity
  8
0
100
AcDbLine
 10
39.20000082459171
 20
107.47381853678
 30
0.0
 11
39.20000082459171
 21
115.4738185367799
 31
0.0
  0
LINE
  5
1326
330
1F
100
AcDbEntity
  8
0
100
AcDbLine
 10
42.20000082459171
 20
105.4738185367799
 30
0.0
 11
42.20000082459171
 21
117.4738185367798
 31
0.0
  0
LINE
  5
1327
330
1F
100
AcDbEntity
  8
0
100
AcDbLine
 10
42.20000082459171
 20
105.4738185367799
 30
0.0
 11
34.00000082459166
 21
105.4738185367799
 31
0.0
  0
LINE
  5
1328
330
1F
100
AcDbEntity
  8
0
100
AcDbLine
 10
37.20000082459171
 20
109.47381853678
 30
0.0
 11
37.20000082459171
 21
107.47381853678
 31
0.0
  0
LINE
  5
1329
330
1F
100
AcDbEntity
  8
0
100
AcDbLine
 10
37.20000082459171
 20
107.47381853678
 30
0.0
 11
39.20000082459171
 21
107.47381853678
 31
0.0
  0
LINE
  5
132A
330
1F
100
AcDbEntity
  8
0
100
AcDbLine
 10
34.00000082459166
 20
109.47381853678
 30
0.0
 11
34.00000082459166
 21
105.4738185367799
 31
0.0
  0
LINE
  5
132B
330
1F
100
AcDbEntity
  8
0
100
AcDbLine
 10
34.00000082459166
 20
109.47381853678
 30
0.0
 11
37.20000082459171
 21
109.47381853678
 31
0.0
  0
LINE
  5
132D
330
1F
100
AcDbEntity
  8
0
100
AcDbLine
 10
34.00000082459166
 20
117.4738185367798
 30
0.0
 11
42.20000082459171
 21
117.4738185367798
 31
0.0
  0
LINE
  5
132E
330
1F
100
AcDbEntity
  8
0
100
AcDbLine
 10
36.70000082459079
 20
121.97381853678
 30
0.0
 11
36.70000082459079
 21
120.97381853678
 31
0.0
  0
LINE
  5
132F
330
1F
100
AcDbEntity
  8
0
100
AcDbLine
 10
35.10000082459066
 20
126.27381853678
 30
0.0
 11
35.10000082459066
 21
121.97381853678
 31
0.0
  0
LINE
  5
1330
330
1F
100
AcDbEntity
  8
0
100
AcDbLine
 10
38.94500082459067
 20
127.5738185367798
 30
0.0
 11
38.94500082459067
 21
120.97381853678
 31
0.0
  0
LINE
  5
1331
330
1F
100
AcDbEntity
  8
0
100
AcDbLine
 10
37.20000082459171
 20
113.47381853678
 30
0.0
 11
37.20000082459171
 21
115.4738185367799
 31
0.0
  0
LINE
  5
1332
330
1F
100
AcDbEntity
  8
0
100
AcDbLine
 10
37.20000082459171
 20
115.4738185367799
 30
0.0
 11
39.20000082459171
 21
115.4738185367799
 31
0.0
  0
LINE
  5
1333
330
1F
100
AcDbEntity
  8
0
100
AcDbLine
 10
34.00000082459166
 20
113.47381853678
 30
0.0
 11
34.00000082459166
 21
117.4738185367798
 31
0.0
  0
LINE
  5
1334
330
1F
100
AcDbEntity
  8
0
100
AcDbLine
 10
34.00000082459166
 20
113.47381853678
 30
0.0
 11
37.20000082459171
 21
113.47381853678
 31
0.0
  0
LINE
  5
1339
330
1F
100
AcDbEntity
  8
0
100
AcDbLine
 10
72.00000082459165
 20
3.585964693612026
 30
0.0
 11
72.00000082459165
 21
120.97381853678
 31
0.0
  0
LINE
  5
133A
330
1F
100
AcDbEntity
  8
0
100
AcDbLine
 10
72.00000082459165
 20
0.0000044583490534
 30
0.0
 11
72.00000082459165
 21
3.585964693612026
 31
0.0
  0
LINE
  5
136B
330
1F
100
AcDbEntity
  8
0
100
AcDbLine
 10
55.15000082459176
 20
124.37381853678
 30
0.0
 11
61.45000082459171
 21
124.37381853678
 31
0.0
  0
LINE
  5
136C
330
1F
100
AcDbEntity
  8
0
100
AcDbLine
 10
55.15000082459176
 20
120.97381853678
 30
0.0
 11
55.15000082459176
 21
124.37381853678
 31
0.0
  0
LINE
  5
136D
330
1F
100
AcDbEntity
  8
0
100
AcDbLine
 10
61.45000082459171
 20
124.37381853678
 30
0.0
 11
61.45000082459171
 21
120.97381853678
 31
0.0
  0
LINE
  5
1373
330
1F
100
AcDbEntity
  8
0
100
AcDbLine
 10
20.00000082459166
 20
120.97381853678
 30
0.0
 11
72.00000082459165
 21
120.97381853678
 31
0.0
  0
LINE
  5
1374
330
1F
100
AcDbEntity
  8
0
100
AcDbLine
 10
55.15000082459176
 20
120.97381853678
 30
0.0
 11
55.15000082459176
 21
124.37381853678
 31
0.0
  0
LINE
  5
1375
330
1F
100
AcDbEntity
  8
0
100
AcDbLine
 10
55.15000082459176
 20
124.37381853678
 30
0.0
 11
61.45000082459171
 21
124.37381853678
 31
0.0
  0
LINE
  5
1376
330
1F
100
AcDbEntity
  8
0
100
AcDbLine
 10
61.45000082459171
 20
124.37381853678
 30
0.0
 11
61.45000082459171
 21
120.97381853678
 31
0.0
  0
LINE
  5
13D6
330
1F
100
AcDbEntity
  8
2_カバ_
  6
Continuous
100
AcDbLine
 10
47.00000082459189
 20
75.97381853678036
 30
0.0
 11
30.00000082459191
 21
75.97381853678036
 31
0.0
  0
LINE
  5
13D7
330
1F
100
AcDbEntity
  8
2_カバ_
  6
Continuous
100
AcDbLine
 10
47.00000082459189
 20
77.97381853678039
 30
0.0
 11
30.00000082459191
 21
77.97381853678039
 31
0.0
  0
LINE
  5
13D8
330
1F
100
AcDbEntity
  8
2_カバ_
  6
Continuous
100
AcDbLine
 10
47.00000082459189
 20
82.97381853678036
 30
0.0
 11
30.00000082459191
 21
82.97381853678036
 31
0.0
  0
LINE
  5
13D9
330
1F
100
AcDbEntity
  8
2_カバ_
  6
Continuous
100
AcDbLine
 10
47.00000082459189
 20
84.9738185367804
 30
0.0
 11
30.00000082459191
 21
84.9738185367804
 31
0.0
  0
LINE
  5
13DA
330
1F
100
AcDbEntity
  8
2_カバ_
  6
Continuous
100
AcDbLine
 10
47.00000082459189
 20
89.97381853678032
 30
0.0
 11
30.00000082459191
 21
89.97381853678032
 31
0.0
  0
LINE
  5
13DB
330
1F
100
AcDbEntity
  8
2_カバ_
  6
Continuous
100
AcDbLine
 10
47.00000082459189
 20
91.97381853678034
 30
0.0
 11
30.00000082459191
 21
91.97381853678034
 31
0.0
  0
LINE
  5
13DC
330
1F
100
AcDbEntity
  8
2_カバ_
  6
Continuous
100
AcDbLine
 10
47.00000082459189
 20
47.97381853678035
 30
0.0
 11
30.00000082459189
 21
47.97381853678035
 31
0.0
  0
LINE
  5
13DD
330
1F
100
AcDbEntity
  8
2_カバ_
  6
Continuous
100
AcDbLine
 10
47.00000082459189
 20
49.97381853678035
 30
0.0
 11
30.00000082459189
 21
49.97381853678035
 31
0.0
  0
LINE
  5
13DE
330
1F
100
AcDbEntity
  8
2_カバ_
  6
Continuous
100
AcDbLine
 10
71.00000082459185
 20
54.97381853678035
 30
0.0
 11
30.00000082459189
 21
54.97381853678035
 31
0.0
  0
LINE
  5
13DF
330
1F
100
AcDbEntity
  8
2_カバ_
  6
Continuous
100
AcDbLine
 10
71.00000082459185
 20
56.97381853678034
 30
0.0
 11
30.00000082459189
 21
56.97381853678034
 31
0.0
  0
LINE
  5
13E0
330
1F
100
AcDbEntity
  8
2_カバ_
  6
Continuous
100
AcDbLine
 10
71.00000082459185
 20
61.97381853678034
 30
0.0
 11
30.00000082459189
 21
61.97381853678034
 31
0.0
  0
LINE
  5
13E1
330
1F
100
AcDbEntity
  8
2_カバ_
  6
Continuous
100
AcDbLine
 10
71.00000082459185
 20
63.97381853678036
 30
0.0
 11
30.00000082459189
 21
63.97381853678133
 31
0.0
  0
LINE
  5
13E2
330
1F
100
AcDbEntity
  8
2_カバ_
  6
Continuous
100
AcDbLine
 10
71.00000082459185
 20
68.97381853678038
 30
0.0
 11
30.00000082459189
 21
68.97381853678038
 31
0.0
  0
LINE
  5
13E3
330
1F
100
AcDbEntity
  8
2_カバ_
  6
Continuous
100
AcDbLine
 10
71.00000082459185
 20
70.97381853678036
 30
0.0
 11
30.00000082459189
 21
70.97381853678036
 31
0.0
  0
LINE
  5
13E4
330
1F
100
AcDbEntity
  8
2_カバ_
  6
Continuous
100
AcDbLine
 10
71.00000082459185
 20
96.97381853678038
 30
0.0
 11
30.00000082459191
 21
96.97381853678038
 31
0.0
  0
LINE
  5
13E5
330
1F
100
AcDbEntity
  8
2_カバ_
  6
Continuous
100
AcDbLine
 10
71.00000082459185
 20
98.97381853678034
 30
0.0
 11
30.00000082459191
 21
98.97381853678034
 31
0.0
  0
LINE
  5
13E6
330
1F
100
AcDbEntity
  8
2_カバ_
  6
Continuous
100
AcDbLine
 10
30.00000082459191
 20
103.97381853678
 30
0.0
 11
72.00000082459165
 21
103.97381853678
 31
0.0
  0
LINE
  5
13E7
330
1F
100
AcDbEntity
  8
0
100
AcDbLine
 10
71.00000082459168
 20
26.97381853678046
 30
0.0
 11
30.00000082459176
 21
26.97381853678046
 31
0.0
  0
LINE
  5
13E8
330
1F
100
AcDbEntity
  8
0
100
AcDbLine
 10
71.00000082459168
 20
28.97381853678046
 30
0.0
 11
30.00000082459176
 21
28.97381853678046
 31
0.0
  0
LINE
  5
13E9
330
1F
100
AcDbEntity
  8
0
100
AcDbLine
 10
71.00000082459168
 20
33.97381853678048
 30
0.0
 11
30.00000082459176
 21
33.97381853678048
 31
0.0
  0
LINE
  5
13EA
330
1F
100
AcDbEntity
  8
0
100
AcDbLine
 10
71.00000082459168
 20
35.97381853678047
 30
0.0
 11
30.00000082459176
 21
35.97381853678047
 31
0.0
  0
LINE
  5
13EB
330
1F
100
AcDbEntity
  8
0
100
AcDbLine
 10
71.00000082459168
 20
40.97381853678046
 30
0.0
 11
30.00000082459176
 21
40.97381853678046
 31
0.0
  0
LINE
  5
13EC
330
1F
100
AcDbEntity
  8
0
100
AcDbLine
 10
71.00000082459168
 20
42.97381853678047
 30
0.0
 11
30.00000082459176
 21
42.97381853678047
 31
0.0
  0
LINE
  5
13ED
330
1F
100
AcDbEntity
  8
0
100
AcDbLine
 10
30.00000082459176
 20
21.97381853678046
 30
0.0
 11
72.00000082459165
 21
21.97381853678046
 31
0.0
  0
LINE
  5
13EE
330
1F
100
AcDbEntity
  8
0
100
AcDbLine
 10
30.00000082459176
 20
103.97381853678
 30
0.0
 11
30.00000082459176
 21
21.97381853678046
 31
0.0
  0
LINE
  5
13EF
330
1F
100
AcDbEntity
  8
2_カバ_
  6
Continuous
100
AcDbLine
 10
69.00000082459185
 20
75.97381853678036
 30
0.0
 11
69.00000082459185
 21
77.97381853678134
 31
0.0
  0
LINE
  5
13F0
330
1F
100
AcDbEntity
  8
2_カバ_
  6
Continuous
100
AcDbLine
 10
70.00000082459187
 20
75.97381853678036
 30
0.0
 11
70.00000082459187
 21
77.97381853678134
 31
0.0
  0
LINE
  5
13F1
330
1F
100
AcDbEntity
  8
2_カバ_
  6
Continuous
100
AcDbLine
 10
68.50000082459185
 20
96.97381853678038
 30
0.0
 11
68.50000082459185
 21
70.97381853678133
 31
0.0
  0
LINE
  5
13F2
330
1F
100
AcDbEntity
  8
2_カバ_
  6
Continuous
100
AcDbLine
 10
47.00000082459189
 20
75.97381853678036
 30
0.0
 11
47.00000082459189
 21
77.97381853678039
 31
0.0
  0
LINE
  5
13F3
330
1F
100
AcDbEntity
  8
2_カバ_
  6
Continuous
100
AcDbLine
 10
47.50000082459187
 20
70.97381853678036
 30
0.0
 11
47.50000082459187
 21
96.97381853678038
 31
0.0
  0
LINE
  5
13F4
330
1F
100
AcDbEntity
  8
0
100
AcDbLine
 10
71.00000082459168
 20
21.97381853678046
 30
0.0
 11
71.00000082459168
 21
103.97381853678
 31
0.0
  0
LINE
  5
13F5
330
1F
100
AcDbEntity
  8
0
100
AcDbLine
 10
70.00000082459165
 20
26.97381853678046
 30
0.0
 11
70.00000082459165
 21
28.97381853678046
 31
0.0
  0
LINE
  5
13F6
330
1F
100
AcDbEntity
  8
0
100
AcDbLine
 10
69.00000082459165
 20
26.97381853678046
 30
0.0
 11
69.00000082459165
 21
28.97381853678046
 31
0.0
  0
LINE
  5
13F7
330
1F
100
AcDbEntity
  8
0
100
AcDbLine
 10
70.00000082459165
 20
33.97381853678048
 30
0.0
 11
70.00000082459165
 21
35.97381853678047
 31
0.0
  0
LINE
  5
13F8
330
1F
100
AcDbEntity
  8
0
100
AcDbLine
 10
69.00000082459165
 20
33.97381853678048
 30
0.0
 11
69.00000082459165
 21
35.97381853678047
 31
0.0
  0
LINE
  5
13F9
330
1F
100
AcDbEntity
  8
0
100
AcDbLine
 10
70.00000082459165
 20
40.97381853678046
 30
0.0
 11
70.00000082459165
 21
42.97381853678047
 31
0.0
  0
LINE
  5
13FA
330
1F
100
AcDbEntity
  8
0
100
AcDbLine
 10
69.00000082459165
 20
40.97381853678046
 30
0.0
 11
69.00000082459165
 21
42.97381853678047
 31
0.0
  0
LINE
  5
13FB
330
1F
100
AcDbEntity
  8
2_カバ_
  6
Continuous
100
AcDbLine
 10
53.00000082459185
 20
49.97381853678035
 30
0.0
 11
63.00000082459167
 21
49.97381853678035
 31
0.0
  0
LINE
  5
13FC
330
1F
100
AcDbEntity
  8
2_カバ_
  6
Continuous
100
AcDbLine
 10
63.00000082459167
 20
53.47381853678036
 30
0.0
 11
53.00000082459185
 21
53.47381853678036
 31
0.0
  0
LINE
  5
13FD
330
1F
100
AcDbEntity
  8
2_カバ_
  6
Continuous
100
AcDbLine
 10
68.50000082459185
 20
48.97381853678036
 30
0.0
 11
47.50000082459187
 21
48.97381853678036
 31
0.0
  0
LINE
  5
13FE
330
1F
100
AcDbEntity
  8
2_カバ_
  6
Continuous
100
AcDbLine
 10
47.50000082459187
 20
56.97381853678034
 30
0.0
 11
47.50000082459187
 21
61.97381853678034
 31
0.0
  0
LINE
  5
13FF
330
1F
100
AcDbEntity
  8
2_カバ_
  6
Continuous
100
AcDbLine
 10
47.50000082459187
 20
48.97381853678036
 30
0.0
 11
47.50000082459187
 21
54.97381853678035
 31
0.0
  0
LINE
  5
1400
330
1F
100
AcDbEntity
  8
2_カバ_
  6
Continuous
100
AcDbLine
 10
47.00000082459189
 20
47.97381853678035
 30
0.0
 11
47.00000082459189
 21
49.97381853678035
 31
0.0
  0
ARC
  5
1401
330
1F
100
AcDbEntity
  8
2_カバ_
  6
Continuous
100
AcDbCircle
 10
53.00000082459185
 20
52.97381853678134
 30
0.0
 40
0.5
100
AcDbArc
 50
90.0
 51
180.0
  0
LINE
  5
1402
330
1F
100
AcDbEntity
  8
2_カバ_
  6
Continuous
100
AcDbLine
 10
52.50000082459187
 20
52.97381853678134
 30
0.0
 11
52.50000082459187
 21
50.47381853678036
 31
0.0
  0
ARC
  5
1403
330
1F
100
AcDbEntity
  8
2_カバ_
  6
Continuous
100
AcDbCircle
 10
53.00000082459185
 20
50.47381853678036
 30
0.0
 40
0.5
100
AcDbArc
 50
180.0
 51
270.0
  0
LINE
  5
1404
330
1F
100
AcDbEntity
  8
2_カバ_
  6
Continuous
100
AcDbLine
 10
47.50000082459187
 20
63.97381853678036
 30
0.0
 11
47.50000082459187
 21
68.97381853678038
 31
0.0
  0
LINE
  5
1405
330
1F
100
AcDbEntity
  8
2_カバ_
  6
Continuous
100
AcDbLine
 10
68.50000082459185
 20
61.97381853678034
 30
0.0
 11
68.50000082459185
 21
56.97381853678134
 31
0.0
  0
ARC
  5
1406
330
1F
100
AcDbEntity
  8
2_カバ_
  6
Continuous
100
AcDbCircle
 10
63.00000082459167
 20
52.97381853678036
 30
0.0
 40
0.5
100
AcDbArc
 50
0.0
 51
90.0
  0
LINE
  5
1407
330
1F
100
AcDbEntity
  8
2_カバ_
  6
Continuous
100
AcDbLine
 10
63.50000082459185
 20
50.47381853678036
 30
0.0
 11
63.50000082459185
 21
52.97381853678036
 31
0.0
  0
ARC
  5
1408
330
1F
100
AcDbEntity
  8
2_カバ_
  6
Continuous
100
AcDbCircle
 10
63.00000082459167
 20
50.47381853678036
 30
0.0
 40
0.5
100
AcDbArc
 50
270.0
 51
0.0
  0
LINE
  5
1409
330
1F
100
AcDbEntity
  8
2_カバ_
  6
Continuous
100
AcDbLine
 10
68.50000082459185
 20
54.97381853678035
 30
0.0
 11
68.50000082459185
 21
48.97381853678036
 31
0.0
  0
LINE
  5
140A
330
1F
100
AcDbEntity
  8
2_カバ_
  6
Continuous
100
AcDbLine
 10
71.00000082459185
 20
47.97381853678035
 30
0.0
 11
69.00000082459185
 21
47.97381853678035
 31
0.0
  0
LINE
  5
140B
330
1F
100
AcDbEntity
  8
2_カバ_
  6
Continuous
100
AcDbLine
 10
71.00000082459185
 20
49.97381853678035
 30
0.0
 11
69.00000082459185
 21
49.97381853678035
 31
0.0
  0
LINE
  5
140C
330
1F
100
AcDbEntity
  8
2_カバ_
  6
Continuous
100
AcDbLine
 10
69.00000082459185
 20
47.97381853678035
 30
0.0
 11
69.00000082459185
 21
49.97381853678035
 31
0.0
  0
LINE
  5
140D
330
1F
100
AcDbEntity
  8
2_カバ_
  6
Continuous
100
AcDbLine
 10
70.00000082459187
 20
47.97381853678035
 30
0.0
 11
70.00000082459187
 21
49.97381853678035
 31
0.0
  0
LINE
  5
140E
330
1F
100
AcDbEntity
  8
2_カバ_
  6
Continuous
100
AcDbLine
 10
69.00000082459185
 20
54.97381853678035
 30
0.0
 11
69.00000082459185
 21
56.97381853678034
 31
0.0
  0
LINE
  5
140F
330
1F
100
AcDbEntity
  8
2_カバ_
  6
Continuous
100
AcDbLine
 10
70.00000082459187
 20
54.97381853678035
 30
0.0
 11
70.00000082459187
 21
56.97381853678034
 31
0.0
  0
LINE
  5
1410
330
1F
100
AcDbEntity
  8
2_カバ_
  6
Continuous
100
AcDbLine
 10
69.00000082459185
 20
68.97381853678038
 30
0.0
 11
69.00000082459185
 21
70.97381853678036
 31
0.0
  0
LINE
  5
1411
330
1F
100
AcDbEntity
  8
2_カバ_
  6
Continuous
100
AcDbLine
 10
70.00000082459187
 20
68.97381853678038
 30
0.0
 11
70.00000082459187
 21
70.97381853678036
 31
0.0
  0
LINE
  5
1412
330
1F
100
AcDbEntity
  8
2_カバ_
  6
Continuous
100
AcDbLine
 10
69.00000082459185
 20
61.97381853678034
 30
0.0
 11
69.00000082459185
 21
63.97381853678036
 31
0.0
  0
LINE
  5
1413
330
1F
100
AcDbEntity
  8
2_カバ_
  6
Continuous
100
AcDbLine
 10
70.00000082459187
 20
61.97381853678034
 30
0.0
 11
70.00000082459187
 21
63.97381853678036
 31
0.0
  0
LINE
  5
1414
330
1F
100
AcDbEntity
  8
2_カバ_
  6
Continuous
100
AcDbLine
 10
68.50000082459185
 20
68.97381853678038
 30
0.0
 11
68.50000082459185
 21
63.97381853678036
 31
0.0
  0
LINE
  5
1415
330
1F
100
AcDbEntity
  8
2_カバ_
  6
Continuous
100
AcDbLine
 10
71.00000082459185
 20
75.97381853678036
 30
0.0
 11
69.00000082459185
 21
75.97381853678036
 31
0.0
  0
CIRCLE
  5
1416
330
1F
100
AcDbEntity
  8
2_カバ_
  6
Continuous
100
AcDbCircle
 10
49.50000082459189
 20
81.97381853678136
 30
0.0
 40
1.25
  0
LINE
  5
1417
330
1F
100
AcDbEntity
  8
2_カバ_
  6
DASHDOT
100
AcDbLine
 10
52.16147381653789
 20
81.97381853678136
 30
0.0
 11
41.60032784350693
 21
81.97381853678136
 31
0.0
  0
LINE
  5
1418
330
1F
100
AcDbEntity
  8
2_カバ_
  6
DASHDOT
100
AcDbLine
 10
49.50000082459189
 20
85.10321911316937
 30
0.0
 11
49.50000082459189
 21
79.01837777944931
 31
0.0
  0
LINE
  5
1419
330
1F
100
AcDbEntity
  8
2_カバ_
  6
Continuous
100
AcDbLine
 10
47.00000082459189
 20
82.97381853678036
 30
0.0
 11
47.00000082459189
 21
84.9738185367804
 31
0.0
  0
LINE
  5
141A
330
1F
100
AcDbEntity
  8
2_カバ_
  6
Continuous
100
AcDbLine
 10
47.00000082459189
 20
89.97381853678032
 30
0.0
 11
47.00000082459189
 21
91.97381853678034
 31
0.0
  0
LINE
  5
141B
330
1F
100
AcDbEntity
  8
2_カバ_
  6
Continuous
100
AcDbLine
 10
47.50000082459187
 20
98.97381853678034
 30
0.0
 11
47.50000082459187
 21
103.97381853678
 31
0.0
  0
LINE
  5
141C
330
1F
100
AcDbEntity
  8
2_カバ_
  6
DASHDOT
100
AcDbLine
 10
62.92111094254089
 20
89.47381853678034
 30
0.0
 11
69.66961894859585
 21
89.47381853678034
 31
0.0
  0
LINE
  5
141D
330
1F
100
AcDbEntity
  8
2_カバ_
  6
Continuous
100
AcDbLine
 10
67.00000082459165
 20
86.47381853678034
 30
0.0
 11
64.50000082459187
 21
86.47381853678034
 31
0.0
  0
LINE
  5
141E
330
1F
100
AcDbEntity
  8
2_カバ_
  6
Continuous
100
AcDbLine
 10
67.00000082459165
 20
92.47381853678032
 30
0.0
 11
64.50000082459187
 21
92.47381853678131
 31
0.0
  0
ARC
  5
141F
330
1F
100
AcDbEntity
  8
2_カバ_
  6
Continuous
100
AcDbCircle
 10
64.50000082459187
 20
91.97381853678136
 30
0.0
 40
0.5
100
AcDbArc
 50
89.99999999999673
 51
180.0
  0
ARC
  5
1420
330
1F
100
AcDbEntity
  8
2_カバ_
  6
Continuous
100
AcDbCircle
 10
64.50000082459187
 20
86.97381853678034
 30
0.0
 40
0.5
100
AcDbArc
 50
180.0
 51
270.0
  0
LINE
  5
1421
330
1F
100
AcDbEntity
  8
2_カバ_
  6
Continuous
100
AcDbLine
 10
64.00000082459165
 20
91.97381853678136
 30
0.0
 11
64.00000082459165
 21
86.97381853678034
 31
0.0
  0
LINE
  5
1422
330
1F
100
AcDbEntity
  8
2_カバ_
  6
Continuous
100
AcDbLine
 10
71.00000082459185
 20
84.9738185367804
 30
0.0
 11
69.00000082459185
 21
84.9738185367804
 31
0.0
  0
LINE
  5
1423
330
1F
100
AcDbEntity
  8
2_カバ_
  6
Continuous
100
AcDbLine
 10
71.00000082459185
 20
77.97381853678039
 30
0.0
 11
69.00000082459185
 21
77.97381853678039
 31
0.0
  0
LINE
  5
1424
330
1F
100
AcDbEntity
  8
2_カバ_
  6
Continuous
100
AcDbLine
 10
71.00000082459185
 20
82.97381853678036
 30
0.0
 11
69.00000082459185
 21
82.97381853678036
 31
0.0
  0
LINE
  5
1425
330
1F
100
AcDbEntity
  8
2_カバ_
  6
Continuous
100
AcDbLine
 10
69.00000082459185
 20
82.97381853678036
 30
0.0
 11
69.00000082459185
 21
84.9738185367804
 31
0.0
  0
LINE
  5
1426
330
1F
100
AcDbEntity
  8
2_カバ_
  6
Continuous
100
AcDbLine
 10
70.00000082459187
 20
82.97381853678036
 30
0.0
 11
70.00000082459187
 21
84.9738185367804
 31
0.0
  0
LINE
  5
1427
330
1F
100
AcDbEntity
  8
2_カバ_
  6
Continuous
100
AcDbLine
 10
71.00000082459185
 20
91.97381853678034
 30
0.0
 11
69.00000082459185
 21
91.97381853678034
 31
0.0
  0
LINE
  5
1428
330
1F
100
AcDbEntity
  8
2_カバ_
  6
Continuous
100
AcDbLine
 10
71.00000082459185
 20
89.97381853678032
 30
0.0
 11
69.00000082459185
 21
89.97381853678032
 31
0.0
  0
ARC
  5
1429
330
1F
100
AcDbEntity
  8
2_カバ_
  6
Continuous
100
AcDbCircle
 10
67.00000082459165
 20
91.97381853678034
 30
0.0
 40
0.5
100
AcDbArc
 50
0.0
 51
90.0
  0
ARC
  5
142A
330
1F
100
AcDbEntity
  8
2_カバ_
  6
Continuous
100
AcDbCircle
 10
67.00000082459165
 20
86.97381853678034
 30
0.0
 40
0.5
100
AcDbArc
 50
270.0
 51
0.0
  0
LINE
  5
142B
330
1F
100
AcDbEntity
  8
2_カバ_
  6
Continuous
100
AcDbLine
 10
69.00000082459185
 20
89.97381853678032
 30
0.0
 11
69.00000082459185
 21
91.97381853678034
 31
0.0
  0
LINE
  5
142C
330
1F
100
AcDbEntity
  8
2_カバ_
  6
Continuous
100
AcDbLine
 10
67.50000082459187
 20
86.97381853678034
 30
0.0
 11
67.50000082459187
 21
91.97381853678034
 31
0.0
  0
LINE
  5
142D
330
1F
100
AcDbEntity
  8
2_カバ_
  6
Continuous
100
AcDbLine
 10
70.00000082459187
 20
89.97381853678032
 30
0.0
 11
70.00000082459187
 21
91.97381853678034
 31
0.0
  0
LINE
  5
142E
330
1F
100
AcDbEntity
  8
2_カバ_
  6
Continuous
100
AcDbLine
 10
68.50000082459185
 20
103.97381853678
 30
0.0
 11
68.50000082459185
 21
98.97381853678034
 31
0.0
  0
LINE
  5
142F
330
1F
100
AcDbEntity
  8
2_カバ_
  6
Continuous
100
AcDbLine
 10
69.00000082459185
 20
96.97381853678038
 30
0.0
 11
69.00000082459185
 21
98.97381853678034
 31
0.0
  0
LINE
  5
1430
330
1F
100
AcDbEntity
  8
2_カバ_
  6
Continuous
100
AcDbLine
 10
70.00000082459187
 20
96.97381853678038
 30
0.0
 11
70.00000082459187
 21
98.97381853678034
 31
0.0
  0
LINE
  5
1431
330
1F
100
AcDbEntity
  8
0
100
AcDbLine
 10
293.0000008245908
 20
364.842888928934
 30
0.0
 11
293.0000008245908
 21
171.1047481446259
 31
0.0
  0
LINE
  5
1432
330
1F
100
AcDbEntity
  8
0
100
AcDbLine
 10
288.0000008245908
 20
170.97381853678
 30
0.0
 11
288.0000008245908
 21
180.97381853678
 31
0.0
  0
LINE
  5
1433
330
1F
100
AcDbEntity
  8
0
100
AcDbLine
 10
172.0000008245916
 20
180.97381853678
 30
0.0
 11
172.0000008245916
 21
354.97381853678
 31
0.0
  0
LINE
  5
1434
330
1F
100
AcDbEntity
  8
0
100
AcDbLine
 10
172.0000008245916
 20
354.97381853678
 30
0.0
 11
288.0000008245908
 21
354.97381853678
 31
0.0
  0
LINE
  5
1435
330
1F
100
AcDbEntity
  8
0
100
AcDbLine
 10
172.0000008245916
 20
180.97381853678
 30
0.0
 11
288.0000008245908
 21
180.97381853678
 31
0.0
  0
LINE
  5
1436
330
1F
100
AcDbEntity
  8
0
100
AcDbLine
 10
288.0000008245908
 20
364.97381853678
 30
0.0
 11
293.0000008245908
 21
364.842888928934
 31
0.0
  0
LINE
  5
1437
330
1F
100
AcDbEntity
  8
0
100
AcDbLine
 10
289.4140405893276
 20
364.936790602405
 30
0.0
 11
289.4140405893267
 21
171.0108464711549
 31
0.0
  0
LINE
  5
1438
330
1F
100
AcDbEntity
  8
0
100
AcDbLine
 10
288.0000008245908
 20
170.97381853678
 30
0.0
 11
293.0000008245908
 21
171.1047481446259
 31
0.0
  0
LINE
  5
1439
330
1F
100
AcDbEntity
  8
0
100
AcDbLine
 10
172.0000008245916
 20
180.97381853678
 30
0.0
 11
172.0000008245916
 21
354.97381853678
 31
0.0
  0
LINE
  5
143A
330
1F
100
AcDbEntity
  8
0
100
AcDbLine
 10
172.0000008245916
 20
354.97381853678
 30
0.0
 11
289.3878546677597
 21
354.97381853678
 31
0.0
  0
LINE
  5
143B
330
1F
100
AcDbEntity
  8
0
100
AcDbLine
 10
189.0000008245916
 20
180.97381853678
 30
0.0
 11
189.0000008245916
 21
354.97381853678
 31
0.0
  0
LINE
  5
143C
330
1F
100
AcDbEntity
  8
0
100
AcDbLine
 10
271.0000008245916
 20
180.97381853678
 30
0.0
 11
271.0000008245916
 21
354.97381853678
 31
0.0
  0
LINE
  5
143D
330
1F
100
AcDbEntity
  8
0
100
AcDbLine
 10
189.0000008245916
 20
353.97381853678
 30
0.0
 11
271.0000008245916
 21
353.97381853678
 31
0.0
  0
LINE
  5
143E
330
1F
100
AcDbEntity
  8
0
100
AcDbLine
 10
194.0000008245916
 20
351.97381853678
 30
0.0
 11
196.0000008245916
 21
351.97381853678
 31
0.0
  0
LINE
  5
143F
330
1F
100
AcDbEntity
  8
0
100
AcDbLine
 10
194.0000008245916
 20
181.97381853678
 30
0.0
 11
194.0000008245916
 21
235.22381853678
 31
0.0
  0
LINE
  5
1440
330
1F
100
AcDbEntity
  8
0
100
AcDbLine
 10
196.0000008245916
 20
181.97381853678
 30
0.0
 11
196.0000008245916
 21
235.22381853678
 31
0.0
  0
LINE
  5
1441
330
1F
100
AcDbEntity
  8
0
100
AcDbLine
 10
194.0000008245916
 20
300.7238185367798
 30
0.0
 11
196.0000008245916
 21
300.7238185367798
 31
0.0
  0
LINE
  5
1442
330
1F
100
AcDbEntity
  8
0
100
AcDbLine
 10
194.0000008245916
 20
235.22381853678
 30
0.0
 11
196.0000008245916
 21
235.22381853678
 31
0.0
  0
LINE
  5
1443
330
1F
100
AcDbEntity
  8
0
100
AcDbLine
 10
189.0000008245916
 20
181.97381853678
 30
0.0
 11
271.0000008245916
 21
181.97381853678
 31
0.0
  0
LINE
  5
1444
330
1F
100
AcDbEntity
  8
0
100
AcDbLine
 10
194.0000008245916
 20
183.97381853678
 30
0.0
 11
196.0000008245916
 21
183.97381853678
 31
0.0
  0
LINE
  5
1445
330
1F
100
AcDbEntity
  8
0
100
AcDbLine
 10
194.0000008245916
 20
300.7238185367798
 30
0.0
 11
194.0000008245916
 21
353.97381853678
 31
0.0
  0
LINE
  5
1446
330
1F
100
AcDbEntity
  8
0
100
AcDbLine
 10
196.0000008245916
 20
300.7238185367798
 30
0.0
 11
196.0000008245916
 21
353.97381853678
 31
0.0
  0
LINE
  5
1447
330
1F
100
AcDbEntity
  8
0
100
AcDbLine
 10
201.0000008245916
 20
351.97381853678
 30
0.0
 11
203.0000008245916
 21
351.97381853678
 31
0.0
  0
LINE
  5
1448
330
1F
100
AcDbEntity
  8
0
100
AcDbLine
 10
201.0000008245916
 20
181.97381853678
 30
0.0
 11
201.0000008245916
 21
235.22381853678
 31
0.0
  0
LINE
  5
1449
330
1F
100
AcDbEntity
  8
0
100
AcDbLine
 10
203.0000008245916
 20
181.97381853678
 30
0.0
 11
203.0000008245916
 21
235.22381853678
 31
0.0
  0
LINE
  5
144A
330
1F
100
AcDbEntity
  8
0
100
AcDbLine
 10
201.0000008245916
 20
300.7238185367798
 30
0.0
 11
203.0000008245916
 21
300.7238185367798
 31
0.0
  0
LINE
  5
144B
330
1F
100
AcDbEntity
  8
0
100
AcDbLine
 10
201.0000008245916
 20
235.22381853678
 30
0.0
 11
203.0000008245916
 21
235.22381853678
 31
0.0
  0
LINE
  5
144C
330
1F
100
AcDbEntity
  8
0
100
AcDbLine
 10
201.0000008245916
 20
183.97381853678
 30
0.0
 11
203.0000008245916
 21
183.97381853678
 31
0.0
  0
LINE
  5
144D
330
1F
100
AcDbEntity
  8
0
100
AcDbLine
 10
201.0000008245916
 20
300.7238185367798
 30
0.0
 11
201.0000008245916
 21
353.97381853678
 31
0.0
  0
LINE
  5
144E
330
1F
100
AcDbEntity
  8
0
100
AcDbLine
 10
203.0000008245916
 20
300.7238185367798
 30
0.0
 11
203.0000008245916
 21
353.97381853678
 31
0.0
  0
LINE
  5
144F
330
1F
100
AcDbEntity
  8
0
100
AcDbLine
 10
208.0000008245916
 20
351.97381853678
 30
0.0
 11
210.0000008245916
 21
351.97381853678
 31
0.0
  0
LINE
  5
1450
330
1F
100
AcDbEntity
  8
0
100
AcDbLine
 10
208.0000008245916
 20
181.97381853678
 30
0.0
 11
208.0000008245916
 21
235.22381853678
 31
0.0
  0
LINE
  5
1451
330
1F
100
AcDbEntity
  8
0
100
AcDbLine
 10
210.0000008245916
 20
181.97381853678
 30
0.0
 11
210.0000008245916
 21
235.22381853678
 31
0.0
  0
LINE
  5
1452
330
1F
100
AcDbEntity
  8
0
100
AcDbLine
 10
208.0000008245916
 20
300.7238185367798
 30
0.0
 11
210.0000008245916
 21
300.7238185367798
 31
0.0
  0
LINE
  5
1453
330
1F
100
AcDbEntity
  8
0
100
AcDbLine
 10
208.0000008245916
 20
235.22381853678
 30
0.0
 11
210.0000008245916
 21
235.22381853678
 31
0.0
  0
LINE
  5
1454
330
1F
100
AcDbEntity
  8
0
100
AcDbLine
 10
208.0000008245916
 20
183.97381853678
 30
0.0
 11
210.0000008245916
 21
183.97381853678
 31
0.0
  0
LINE
  5
1455
330
1F
100
AcDbEntity
  8
0
100
AcDbLine
 10
208.0000008245916
 20
300.7238185367798
 30
0.0
 11
208.0000008245916
 21
353.97381853678
 31
0.0
  0
LINE
  5
1456
330
1F
100
AcDbEntity
  8
0
100
AcDbLine
 10
210.0000008245916
 20
300.7238185367798
 30
0.0
 11
210.0000008245916
 21
353.97381853678
 31
0.0
  0
LINE
  5
1457
330
1F
100
AcDbEntity
  8
0
100
AcDbLine
 10
215.0000008245916
 20
181.97381853678
 30
0.0
 11
215.0000008245916
 21
235.22381853678
 31
0.0
  0
LINE
  5
1458
330
1F
100
AcDbEntity
  8
0
100
AcDbLine
 10
217.0000008245916
 20
181.97381853678
 30
0.0
 11
217.0000008245916
 21
235.22381853678
 31
0.0
  0
LINE
  5
1459
330
1F
100
AcDbEntity
  8
0
100
AcDbLine
 10
215.0000008245916
 20
300.7238185367798
 30
0.0
 11
217.0000008245916
 21
300.7238185367798
 31
0.0
  0
LINE
  5
145A
330
1F
100
AcDbEntity
  8
0
100
AcDbLine
 10
215.0000008245916
 20
235.22381853678
 30
0.0
 11
217.0000008245916
 21
235.22381853678
 31
0.0
  0
LINE
  5
145B
330
1F
100
AcDbEntity
  8
0
100
AcDbLine
 10
215.0000008245916
 20
183.97381853678
 30
0.0
 11
217.0000008245916
 21
183.97381853678
 31
0.0
  0
LINE
  5
145C
330
1F
100
AcDbEntity
  8
0
100
AcDbLine
 10
215.0000008245916
 20
300.7238185367798
 30
0.0
 11
215.0000008245916
 21
353.97381853678
 31
0.0
  0
LINE
  5
145D
330
1F
100
AcDbEntity
  8
0
100
AcDbLine
 10
217.0000008245916
 20
300.7238185367798
 30
0.0
 11
217.0000008245916
 21
353.97381853678
 31
0.0
  0
LINE
  5
145E
330
1F
100
AcDbEntity
  8
0
100
AcDbLine
 10
222.0000008245916
 20
351.97381853678
 30
0.0
 11
224.0000008245916
 21
351.97381853678
 31
0.0
  0
LINE
  5
145F
330
1F
100
AcDbEntity
  8
0
100
AcDbLine
 10
222.0000008245916
 20
181.97381853678
 30
0.0
 11
222.0000008245916
 21
235.22381853678
 31
0.0
  0
LINE
  5
1460
330
1F
100
AcDbEntity
  8
0
100
AcDbLine
 10
224.0000008245916
 20
181.97381853678
 30
0.0
 11
224.0000008245916
 21
235.22381853678
 31
0.0
  0
LINE
  5
1461
330
1F
100
AcDbEntity
  8
0
100
AcDbLine
 10
222.0000008245916
 20
300.7238185367798
 30
0.0
 11
224.0000008245916
 21
300.7238185367798
 31
0.0
  0
LINE
  5
1462
330
1F
100
AcDbEntity
  8
0
100
AcDbLine
 10
222.0000008245916
 20
235.22381853678
 30
0.0
 11
224.0000008245916
 21
235.22381853678
 31
0.0
  0
LINE
  5
1463
330
1F
100
AcDbEntity
  8
0
100
AcDbLine
 10
222.0000008245916
 20
183.97381853678
 30
0.0
 11
224.0000008245916
 21
183.97381853678
 31
0.0
  0
LINE
  5
1464
330
1F
100
AcDbEntity
  8
0
100
AcDbLine
 10
222.0000008245916
 20
300.7238185367798
 30
0.0
 11
222.0000008245916
 21
353.97381853678
 31
0.0
  0
LINE
  5
1465
330
1F
100
AcDbEntity
  8
0
100
AcDbLine
 10
224.0000008245916
 20
300.7238185367798
 30
0.0
 11
224.0000008245916
 21
353.97381853678
 31
0.0
  0
LINE
  5
1466
330
1F
100
AcDbEntity
  8
0
100
AcDbLine
 10
229.0000008245915
 20
351.97381853678
 30
0.0
 11
231.0000008245916
 21
351.97381853678
 31
0.0
  0
LINE
  5
1467
330
1F
100
AcDbEntity
  8
0
100
AcDbLine
 10
229.0000008245915
 20
181.97381853678
 30
0.0
 11
229.0000008245915
 21
235.22381853678
 31
0.0
  0
LINE
  5
1468
330
1F
100
AcDbEntity
  8
0
100
AcDbLine
 10
231.0000008245916
 20
181.97381853678
 30
0.0
 11
231.0000008245916
 21
235.22381853678
 31
0.0
  0
LINE
  5
1469
330
1F
100
AcDbEntity
  8
0
100
AcDbLine
 10
229.0000008245915
 20
300.7238185367798
 30
0.0
 11
231.0000008245916
 21
300.7238185367798
 31
0.0
  0
LINE
  5
146A
330
1F
100
AcDbEntity
  8
0
100
AcDbLine
 10
229.0000008245915
 20
235.22381853678
 30
0.0
 11
231.0000008245916
 21
235.22381853678
 31
0.0
  0
LINE
  5
146B
330
1F
100
AcDbEntity
  8
0
100
AcDbLine
 10
229.0000008245915
 20
183.97381853678
 30
0.0
 11
231.0000008245916
 21
183.97381853678
 31
0.0
  0
LINE
  5
146C
330
1F
100
AcDbEntity
  8
0
100
AcDbLine
 10
229.0000008245915
 20
300.7238185367798
 30
0.0
 11
229.0000008245915
 21
353.97381853678
 31
0.0
  0
LINE
  5
146D
330
1F
100
AcDbEntity
  8
0
100
AcDbLine
 10
231.0000008245916
 20
300.7238185367798
 30
0.0
 11
231.0000008245916
 21
353.97381853678
 31
0.0
  0
LINE
  5
146E
330
1F
100
AcDbEntity
  8
0
100
AcDbLine
 10
236.0000008245918
 20
351.97381853678
 30
0.0
 11
238.0000008245918
 21
351.97381853678
 31
0.0
  0
LINE
  5
146F
330
1F
100
AcDbEntity
  8
0
100
AcDbLine
 10
236.0000008245918
 20
181.97381853678
 30
0.0
 11
236.0000008245918
 21
235.22381853678
 31
0.0
  0
LINE
  5
1470
330
1F
100
AcDbEntity
  8
0
100
AcDbLine
 10
238.0000008245918
 20
181.97381853678
 30
0.0
 11
238.0000008245918
 21
235.22381853678
 31
0.0
  0
LINE
  5
1471
330
1F
100
AcDbEntity
  8
0
100
AcDbLine
 10
236.0000008245918
 20
300.7238185367798
 30
0.0
 11
238.0000008245918
 21
300.7238185367798
 31
0.0
  0
LINE
  5
1472
330
1F
100
AcDbEntity
  8
0
100
AcDbLine
 10
236.0000008245918
 20
235.22381853678
 30
0.0
 11
238.0000008245918
 21
235.22381853678
 31
0.0
  0
LINE
  5
1473
330
1F
100
AcDbEntity
  8
0
100
AcDbLine
 10
236.0000008245918
 20
183.97381853678
 30
0.0
 11
238.0000008245918
 21
183.97381853678
 31
0.0
  0
LINE
  5
1474
330
1F
100
AcDbEntity
  8
0
100
AcDbLine
 10
236.0000008245918
 20
300.7238185367798
 30
0.0
 11
236.0000008245918
 21
353.97381853678
 31
0.0
  0
LINE
  5
1475
330
1F
100
AcDbEntity
  8
0
100
AcDbLine
 10
238.0000008245918
 20
300.7238185367798
 30
0.0
 11
238.0000008245918
 21
353.97381853678
 31
0.0
  0
LINE
  5
1476
330
1F
100
AcDbEntity
  8
0
100
AcDbLine
 10
243.0000008245916
 20
351.97381853678
 30
0.0
 11
245.0000008245916
 21
351.97381853678
 31
0.0
  0
LINE
  5
1477
330
1F
100
AcDbEntity
  8
0
100
AcDbLine
 10
243.0000008245916
 20
181.97381853678
 30
0.0
 11
243.0000008245916
 21
235.22381853678
 31
0.0
  0
LINE
  5
1478
330
1F
100
AcDbEntity
  8
0
100
AcDbLine
 10
245.0000008245916
 20
181.97381853678
 30
0.0
 11
245.0000008245916
 21
235.22381853678
 31
0.0
  0
LINE
  5
1479
330
1F
100
AcDbEntity
  8
0
100
AcDbLine
 10
243.0000008245916
 20
300.7238185367798
 30
0.0
 11
245.0000008245916
 21
300.7238185367798
 31
0.0
  0
LINE
  5
147A
330
1F
100
AcDbEntity
  8
0
100
AcDbLine
 10
243.0000008245916
 20
235.22381853678
 30
0.0
 11
245.0000008245916
 21
235.22381853678
 31
0.0
  0
LINE
  5
147B
330
1F
100
AcDbEntity
  8
0
100
AcDbLine
 10
243.0000008245916
 20
183.97381853678
 30
0.0
 11
245.0000008245916
 21
183.97381853678
 31
0.0
  0
LINE
  5
147C
330
1F
100
AcDbEntity
  8
0
100
AcDbLine
 10
243.0000008245916
 20
300.7238185367798
 30
0.0
 11
243.0000008245916
 21
353.97381853678
 31
0.0
  0
LINE
  5
147D
330
1F
100
AcDbEntity
  8
0
100
AcDbLine
 10
245.0000008245916
 20
300.7238185367798
 30
0.0
 11
245.0000008245916
 21
353.97381853678
 31
0.0
  0
LINE
  5
147E
330
1F
100
AcDbEntity
  8
0
100
AcDbLine
 10
250.0000008245915
 20
351.97381853678
 30
0.0
 11
252.0000008245915
 21
351.97381853678
 31
0.0
  0
LINE
  5
147F
330
1F
100
AcDbEntity
  8
0
100
AcDbLine
 10
250.0000008245915
 20
181.97381853678
 30
0.0
 11
250.0000008245915
 21
235.22381853678
 31
0.0
  0
LINE
  5
1480
330
1F
100
AcDbEntity
  8
0
100
AcDbLine
 10
252.0000008245915
 20
181.97381853678
 30
0.0
 11
252.0000008245915
 21
235.22381853678
 31
0.0
  0
LINE
  5
1481
330
1F
100
AcDbEntity
  8
0
100
AcDbLine
 10
250.0000008245915
 20
300.7238185367798
 30
0.0
 11
252.0000008245915
 21
300.7238185367798
 31
0.0
  0
LINE
  5
1482
330
1F
100
AcDbEntity
  8
0
100
AcDbLine
 10
250.0000008245915
 20
235.22381853678
 30
0.0
 11
252.0000008245915
 21
235.22381853678
 31
0.0
  0
LINE
  5
1483
330
1F
100
AcDbEntity
  8
0
100
AcDbLine
 10
250.0000008245915
 20
183.97381853678
 30
0.0
 11
252.0000008245915
 21
183.97381853678
 31
0.0
  0
LINE
  5
1484
330
1F
100
AcDbEntity
  8
0
100
AcDbLine
 10
250.0000008245915
 20
300.7238185367798
 30
0.0
 11
250.0000008245915
 21
353.97381853678
 31
0.0
  0
LINE
  5
1485
330
1F
100
AcDbEntity
  8
0
100
AcDbLine
 10
252.0000008245915
 20
300.7238185367798
 30
0.0
 11
252.0000008245915
 21
353.97381853678
 31
0.0
  0
LINE
  5
1486
330
1F
100
AcDbEntity
  8
0
100
AcDbLine
 10
257.0000008245918
 20
351.97381853678
 30
0.0
 11
259.0000008245918
 21
351.97381853678
 31
0.0
  0
LINE
  5
1487
330
1F
100
AcDbEntity
  8
0
100
AcDbLine
 10
257.0000008245918
 20
181.97381853678
 30
0.0
 11
257.0000008245918
 21
235.22381853678
 31
0.0
  0
LINE
  5
1488
330
1F
100
AcDbEntity
  8
0
100
AcDbLine
 10
259.0000008245918
 20
181.97381853678
 30
0.0
 11
259.0000008245918
 21
235.22381853678
 31
0.0
  0
LINE
  5
1489
330
1F
100
AcDbEntity
  8
0
100
AcDbLine
 10
257.0000008245918
 20
300.7238185367798
 30
0.0
 11
259.0000008245918
 21
300.7238185367798
 31
0.0
  0
LINE
  5
148A
330
1F
100
AcDbEntity
  8
0
100
AcDbLine
 10
257.0000008245918
 20
235.22381853678
 30
0.0
 11
259.0000008245918
 21
235.22381853678
 31
0.0
  0
LINE
  5
148B
330
1F
100
AcDbEntity
  8
0
100
AcDbLine
 10
257.0000008245918
 20
183.97381853678
 30
0.0
 11
259.0000008245918
 21
183.97381853678
 31
0.0
  0
LINE
  5
148C
330
1F
100
AcDbEntity
  8
0
100
AcDbLine
 10
257.0000008245918
 20
300.7238185367798
 30
0.0
 11
257.0000008245918
 21
353.97381853678
 31
0.0
  0
LINE
  5
148D
330
1F
100
AcDbEntity
  8
0
100
AcDbLine
 10
259.0000008245918
 20
300.7238185367798
 30
0.0
 11
259.0000008245918
 21
353.97381853678
 31
0.0
  0
LINE
  5
148E
330
1F
100
AcDbEntity
  8
0
100
AcDbLine
 10
264.0000008245916
 20
351.97381853678
 30
0.0
 11
266.0000008245916
 21
351.97381853678
 31
0.0
  0
LINE
  5
148F
330
1F
100
AcDbEntity
  8
0
100
AcDbLine
 10
264.0000008245916
 20
181.97381853678
 30
0.0
 11
264.0000008245916
 21
235.22381853678
 31
0.0
  0
LINE
  5
1490
330
1F
100
AcDbEntity
  8
0
100
AcDbLine
 10
266.0000008245916
 20
181.97381853678
 30
0.0
 11
266.0000008245916
 21
235.22381853678
 31
0.0
  0
LINE
  5
1491
330
1F
100
AcDbEntity
  8
0
100
AcDbLine
 10
264.0000008245916
 20
300.7238185367798
 30
0.0
 11
266.0000008245916
 21
300.7238185367798
 31
0.0
  0
LINE
  5
1492
330
1F
100
AcDbEntity
  8
0
100
AcDbLine
 10
264.0000008245916
 20
235.22381853678
 30
0.0
 11
266.0000008245916
 21
235.22381853678
 31
0.0
  0
LINE
  5
1493
330
1F
100
AcDbEntity
  8
0
100
AcDbLine
 10
264.0000008245916
 20
183.97381853678
 30
0.0
 11
266.0000008245916
 21
183.97381853678
 31
0.0
  0
LINE
  5
1494
330
1F
100
AcDbEntity
  8
0
100
AcDbLine
 10
264.0000008245916
 20
300.7238185367798
 30
0.0
 11
264.0000008245916
 21
353.97381853678
 31
0.0
  0
LINE
  5
1495
330
1F
100
AcDbEntity
  8
0
100
AcDbLine
 10
266.0000008245916
 20
300.7238185367798
 30
0.0
 11
266.0000008245916
 21
353.97381853678
 31
0.0
  0
LINE
  5
1496
330
1F
100
AcDbEntity
  8
0
100
AcDbLine
 10
194.0000008245916
 20
329.4738185367798
 30
0.0
 11
196.0000008245916
 21
329.4738185367798
 31
0.0
  0
LINE
  5
1497
330
1F
100
AcDbEntity
  8
0
100
AcDbLine
 10
194.0000008245916
 20
326.4738185367798
 30
0.0
 11
196.0000008245916
 21
326.4738185367798
 31
0.0
  0
LINE
  5
1498
330
1F
100
AcDbEntity
  8
0
100
AcDbLine
 10
194.0000008245916
 20
209.47381853678
 30
0.0
 11
196.0000008245916
 21
209.47381853678
 31
0.0
  0
LINE
  5
1499
330
1F
100
AcDbEntity
  8
0
100
AcDbLine
 10
194.0000008245916
 20
206.47381853678
 30
0.0
 11
196.0000008245916
 21
206.47381853678
 31
0.0
  0
LINE
  5
149A
330
1F
100
AcDbEntity
  8
0
100
AcDbLine
 10
201.0000008245916
 20
329.4738185367798
 30
0.0
 11
203.0000008245916
 21
329.4738185367798
 31
0.0
  0
LINE
  5
149B
330
1F
100
AcDbEntity
  8
0
100
AcDbLine
 10
201.0000008245916
 20
326.4738185367798
 30
0.0
 11
203.0000008245916
 21
326.4738185367798
 31
0.0
  0
LINE
  5
149C
330
1F
100
AcDbEntity
  8
0
100
AcDbLine
 10
201.0000008245916
 20
209.47381853678
 30
0.0
 11
203.0000008245916
 21
209.47381853678
 31
0.0
  0
LINE
  5
149D
330
1F
100
AcDbEntity
  8
0
100
AcDbLine
 10
201.0000008245916
 20
206.47381853678
 30
0.0
 11
203.0000008245916
 21
206.47381853678
 31
0.0
  0
LINE
  5
149E
330
1F
100
AcDbEntity
  8
0
100
AcDbLine
 10
208.0000008245916
 20
329.4738185367798
 30
0.0
 11
210.0000008245916
 21
329.4738185367798
 31
0.0
  0
LINE
  5
149F
330
1F
100
AcDbEntity
  8
0
100
AcDbLine
 10
208.0000008245916
 20
326.4738185367798
 30
0.0
 11
210.0000008245916
 21
326.4738185367798
 31
0.0
  0
LINE
  5
14A0
330
1F
100
AcDbEntity
  8
0
100
AcDbLine
 10
208.0000008245916
 20
209.47381853678
 30
0.0
 11
210.0000008245916
 21
209.47381853678
 31
0.0
  0
LINE
  5
14A1
330
1F
100
AcDbEntity
  8
0
100
AcDbLine
 10
208.0000008245916
 20
206.47381853678
 30
0.0
 11
210.0000008245916
 21
206.47381853678
 31
0.0
  0
LINE
  5
14A2
330
1F
100
AcDbEntity
  8
0
100
AcDbLine
 10
215.0000008245916
 20
329.4738185367798
 30
0.0
 11
217.0000008245916
 21
329.4738185367798
 31
0.0
  0
LINE
  5
14A3
330
1F
100
AcDbEntity
  8
0
100
AcDbLine
 10
215.0000008245916
 20
326.4738185367798
 30
0.0
 11
217.0000008245916
 21
326.4738185367798
 31
0.0
  0
LINE
  5
14A4
330
1F
100
AcDbEntity
  8
0
100
AcDbLine
 10
215.0000008245916
 20
209.47381853678
 30
0.0
 11
217.0000008245916
 21
209.47381853678
 31
0.0
  0
LINE
  5
14A5
330
1F
100
AcDbEntity
  8
0
100
AcDbLine
 10
215.0000008245916
 20
206.47381853678
 30
0.0
 11
217.0000008245916
 21
206.47381853678
 31
0.0
  0
LINE
  5
14A6
330
1F
100
AcDbEntity
  8
0
100
AcDbLine
 10
222.0000008245916
 20
329.4738185367798
 30
0.0
 11
224.0000008245916
 21
329.4738185367798
 31
0.0
  0
LINE
  5
14A7
330
1F
100
AcDbEntity
  8
0
100
AcDbLine
 10
222.0000008245916
 20
326.4738185367798
 30
0.0
 11
224.0000008245916
 21
326.4738185367798
 31
0.0
  0
LINE
  5
14A8
330
1F
100
AcDbEntity
  8
0
100
AcDbLine
 10
222.0000008245916
 20
209.47381853678
 30
0.0
 11
224.0000008245916
 21
209.47381853678
 31
0.0
  0
LINE
  5
14A9
330
1F
100
AcDbEntity
  8
0
100
AcDbLine
 10
222.0000008245916
 20
206.47381853678
 30
0.0
 11
224.0000008245916
 21
206.47381853678
 31
0.0
  0
LINE
  5
14AA
330
1F
100
AcDbEntity
  8
0
100
AcDbLine
 10
229.0000008245915
 20
329.4738185367798
 30
0.0
 11
231.0000008245916
 21
329.4738185367798
 31
0.0
  0
LINE
  5
14AB
330
1F
100
AcDbEntity
  8
0
100
AcDbLine
 10
229.0000008245915
 20
326.4738185367798
 30
0.0
 11
231.0000008245916
 21
326.4738185367798
 31
0.0
  0
LINE
  5
14AC
330
1F
100
AcDbEntity
  8
0
100
AcDbLine
 10
229.0000008245915
 20
209.47381853678
 30
0.0
 11
231.0000008245916
 21
209.47381853678
 31
0.0
  0
LINE
  5
14AD
330
1F
100
AcDbEntity
  8
0
100
AcDbLine
 10
229.0000008245915
 20
206.47381853678
 30
0.0
 11
231.0000008245916
 21
206.47381853678
 31
0.0
  0
LINE
  5
14AE
330
1F
100
AcDbEntity
  8
0
100
AcDbLine
 10
236.0000008245918
 20
329.4738185367798
 30
0.0
 11
238.0000008245918
 21
329.4738185367798
 31
0.0
  0
LINE
  5
14AF
330
1F
100
AcDbEntity
  8
0
100
AcDbLine
 10
236.0000008245918
 20
326.4738185367798
 30
0.0
 11
238.0000008245918
 21
326.4738185367798
 31
0.0
  0
LINE
  5
14B0
330
1F
100
AcDbEntity
  8
0
100
AcDbLine
 10
236.0000008245918
 20
209.47381853678
 30
0.0
 11
238.0000008245918
 21
209.47381853678
 31
0.0
  0
LINE
  5
14B1
330
1F
100
AcDbEntity
  8
0
100
AcDbLine
 10
236.0000008245918
 20
206.47381853678
 30
0.0
 11
238.0000008245918
 21
206.47381853678
 31
0.0
  0
LINE
  5
14B2
330
1F
100
AcDbEntity
  8
0
100
AcDbLine
 10
243.0000008245916
 20
329.4738185367798
 30
0.0
 11
245.0000008245916
 21
329.4738185367798
 31
0.0
  0
LINE
  5
14B3
330
1F
100
AcDbEntity
  8
0
100
AcDbLine
 10
243.0000008245916
 20
326.4738185367798
 30
0.0
 11
245.0000008245916
 21
326.4738185367798
 31
0.0
  0
LINE
  5
14B4
330
1F
100
AcDbEntity
  8
0
100
AcDbLine
 10
243.0000008245916
 20
209.47381853678
 30
0.0
 11
245.0000008245916
 21
209.47381853678
 31
0.0
  0
LINE
  5
14B5
330
1F
100
AcDbEntity
  8
0
100
AcDbLine
 10
243.0000008245916
 20
206.47381853678
 30
0.0
 11
245.0000008245916
 21
206.47381853678
 31
0.0
  0
LINE
  5
14B6
330
1F
100
AcDbEntity
  8
0
100
AcDbLine
 10
250.0000008245915
 20
329.4738185367798
 30
0.0
 11
252.0000008245915
 21
329.4738185367798
 31
0.0
  0
LINE
  5
14B7
330
1F
100
AcDbEntity
  8
0
100
AcDbLine
 10
250.0000008245915
 20
326.4738185367798
 30
0.0
 11
252.0000008245915
 21
326.4738185367798
 31
0.0
  0
LINE
  5
14B8
330
1F
100
AcDbEntity
  8
0
100
AcDbLine
 10
250.0000008245915
 20
209.47381853678
 30
0.0
 11
252.0000008245915
 21
209.47381853678
 31
0.0
  0
LINE
  5
14B9
330
1F
100
AcDbEntity
  8
0
100
AcDbLine
 10
250.0000008245915
 20
206.47381853678
 30
0.0
 11
252.0000008245915
 21
206.47381853678
 31
0.0
  0
LINE
  5
14BA
330
1F
100
AcDbEntity
  8
0
100
AcDbLine
 10
257.0000008245918
 20
329.4738185367798
 30
0.0
 11
259.0000008245918
 21
329.4738185367798
 31
0.0
  0
LINE
  5
14BB
330
1F
100
AcDbEntity
  8
0
100
AcDbLine
 10
257.0000008245918
 20
326.4738185367798
 30
0.0
 11
259.0000008245918
 21
326.4738185367798
 31
0.0
  0
LINE
  5
14BC
330
1F
100
AcDbEntity
  8
0
100
AcDbLine
 10
257.0000008245918
 20
209.47381853678
 30
0.0
 11
259.0000008245918
 21
209.47381853678
 31
0.0
  0
LINE
  5
14BD
330
1F
100
AcDbEntity
  8
0
100
AcDbLine
 10
257.0000008245918
 20
206.47381853678
 30
0.0
 11
259.0000008245918
 21
206.47381853678
 31
0.0
  0
LINE
  5
14BE
330
1F
100
AcDbEntity
  8
0
100
AcDbLine
 10
264.0000008245916
 20
329.4738185367798
 30
0.0
 11
266.0000008245916
 21
329.4738185367798
 31
0.0
  0
LINE
  5
14BF
330
1F
100
AcDbEntity
  8
0
100
AcDbLine
 10
264.0000008245916
 20
326.4738185367798
 30
0.0
 11
266.0000008245916
 21
326.4738185367798
 31
0.0
  0
LINE
  5
14C0
330
1F
100
AcDbEntity
  8
0
100
AcDbLine
 10
264.0000008245916
 20
209.47381853678
 30
0.0
 11
266.0000008245916
 21
209.47381853678
 31
0.0
  0
LINE
  5
14C1
330
1F
100
AcDbEntity
  8
0
100
AcDbLine
 10
264.0000008245916
 20
206.47381853678
 30
0.0
 11
266.0000008245916
 21
206.47381853678
 31
0.0
  0
LINE
  5
14C4
330
1F
100
AcDbEntity
  8
0
100
AcDbLine
 10
289.3878546677587
 20
180.97381853678
 30
0.0
 11
289.3878546677597
 21
354.97381853678
 31
0.0
  0
LINE
  5
14C5
330
1F
100
AcDbEntity
  8
0
100
AcDbLine
 10
168.6000008245919
 20
221.6738192704704
 30
0.0
 11
168.6000008245919
 21
201.4738192704703
 31
0.0
  0
LINE
  5
14C6
330
1F
100
AcDbEntity
  8
0
100
AcDbLine
 10
169.5000008245916
 20
197.9738192704703
 30
0.0
 11
169.0000008245917
 21
198.47381927047
 31
0.0
  0
LINE
  5
14C7
330
1F
100
AcDbEntity
  8
0
100
AcDbLine
 10
169.0000008245919
 20
199.3738192704704
 30
0.0
 11
169.0000008245917
 21
198.47381927047
 31
0.0
  0
LINE
  5
14C8
330
1F
100
AcDbEntity
  8
0
100
AcDbLine
 10
170.3000008245919
 20
197.9738192704703
 30
0.0
 11
169.5000008245916
 21
197.9738192704703
 31
0.0
  0
ARC
  5
14C9
330
1F
100
AcDbEntity
  8
0
100
AcDbCircle
 10
170.0000008245918
 20
199.3738192704703
 30
0.0
 40
1.0
100
AcDbArc
 50
90.0
 51
180.0
  0
LINE
  5
14CA
330
1F
100
AcDbEntity
  8
0
100
AcDbLine
 10
172.0000008245916
 20
200.3738192704703
 30
0.0
 11
170.0000008245918
 21
200.3738192704703
 31
0.0
  0
LINE
  5
14CB
330
1F
100
AcDbEntity
  8
0
100
AcDbLine
 10
172.0000008245916
 20
199.1738192704703
 30
0.0
 11
170.3000008245919
 21
199.1738192704703
 31
0.0
  0
LINE
  5
14CC
330
1F
100
AcDbEntity
  8
0
100
AcDbLine
 10
172.0000008245916
 20
201.4738192704703
 30
0.0
 11
168.6000008245919
 21
201.4738192704703
 31
0.0
  0
LINE
  5
14CD
330
1F
100
AcDbEntity
  8
0
100
AcDbLine
 10
170.3000008245919
 20
197.9738192704703
 30
0.0
 11
170.3000008245919
 21
199.1738192704703
 31
0.0
  0
LINE
  5
14CE
330
1F
100
AcDbEntity
  8
0
100
AcDbLine
 10
169.5000008245918
 20
225.1738192704704
 30
0.0
 11
169.000000824592
 21
224.6738192704703
 31
0.0
  0
LINE
  5
14CF
330
1F
100
AcDbEntity
  8
0
100
AcDbLine
 10
169.000000824592
 20
224.6738192704703
 30
0.0
 11
169.000000824592
 21
223.7738192704703
 31
0.0
  0
LINE
  5
14D0
330
1F
100
AcDbEntity
  8
0
100
AcDbLine
 10
170.3000008245919
 20
225.1738192704704
 30
0.0
 11
169.5000008245918
 21
225.1738192704704
 31
0.0
  0
ARC
  5
14D1
330
1F
100
AcDbEntity
  8
0
100
AcDbCircle
 10
170.000000824592
 20
223.7738192704703
 30
0.0
 40
1.0
100
AcDbArc
 50
180.0
 51
270.0
  0
LINE
  5
14D2
330
1F
100
AcDbEntity
  8
0
100
AcDbLine
 10
172.0000008245916
 20
222.7738192704704
 30
0.0
 11
170.000000824592
 21
222.7738192704704
 31
0.0
  0
LINE
  5
14D3
330
1F
100
AcDbEntity
  8
0
100
AcDbLine
 10
168.6000008245919
 20
221.6738192704704
 30
0.0
 11
172.0000008245916
 21
221.6738192704704
 31
0.0
  0
LINE
  5
14D4
330
1F
100
AcDbEntity
  8
0
100
AcDbLine
 10
172.0000008245916
 20
223.97381927047
 30
0.0
 11
170.3000008245918
 21
223.97381927047
 31
0.0
  0
LINE
  5
14D5
330
1F
100
AcDbEntity
  8
0
100
AcDbLine
 10
170.3000008245919
 20
223.97381927047
 30
0.0
 11
170.3000008245919
 21
225.1738192704704
 31
0.0
  0
LINE
  5
14D6
330
1F
100
AcDbEntity
  8
0
100
AcDbLine
 10
172.0000008245916
 20
185.97381927047
 30
0.0
 11
169.5000008245916
 21
185.97381927047
 31
0.0
  0
LINE
  5
14D7
330
1F
100
AcDbEntity
  8
0
100
AcDbLine
 10
169.5000008245916
 20
185.97381927047
 30
0.0
 11
169.5000008245916
 21
191.4738192704703
 31
0.0
  0
LINE
  5
14D8
330
1F
100
AcDbEntity
  8
0
100
AcDbLine
 10
169.5000008245916
 20
191.4738192704703
 30
0.0
 11
172.0000008245916
 21
191.4738192704703
 31
0.0
  0
LINE
  5
14D9
330
1F
100
AcDbEntity
  8
0
100
AcDbLine
 10
172.0000008245916
 20
226.6138185367799
 30
0.0
 11
171.0000008245916
 21
226.6138185367799
 31
0.0
  0
LINE
  5
14DA
330
1F
100
AcDbEntity
  8
0
100
AcDbLine
 10
171.0000008245916
 20
226.6138185367799
 30
0.0
 11
171.0000008245916
 21
223.97381927047
 31
0.0
  0
LINE
  5
14DB
330
1F
100
AcDbEntity
  8
0
100
AcDbLine
 10
165.4000008245914
 20
276.9738185367799
 30
0.0
 11
172.0000008245916
 21
276.9738185367799
 31
0.0
  0
LINE
  5
14DC
330
1F
100
AcDbEntity
  8
0
100
AcDbLine
 10
172.0000008245916
 20
301.1338185367801
 30
0.0
 11
165.4000008245914
 21
301.1338185367801
 31
0.0
  0
LINE
  5
14DD
330
1F
100
AcDbEntity
  8
0
100
AcDbLine
 10
165.4000008245914
 20
301.1338185367801
 30
0.0
 11
165.4000008245914
 21
276.9738185367799
 31
0.0
  0
LINE
  5
14DE
330
1F
100
AcDbEntity
  8
0
100
AcDbLine
 10
166.7000008245915
 20
235.8138185367799
 30
0.0
 11
166.7000008245915
 21
264.2738185367799
 31
0.0
  0
LINE
  5
14DF
330
1F
100
AcDbEntity
  8
0
100
AcDbLine
 10
166.7000008245915
 20
239.9238185367801
 30
0.0
 11
171.0000008245916
 21
239.9238185367801
 31
0.0
  0
LINE
  5
14E0
330
1F
100
AcDbEntity
  8
0
100
AcDbLine
 10
171.0000008245916
 20
235.8138185367799
 30
0.0
 11
166.7000008245915
 21
235.8138185367799
 31
0.0
  0
LINE
  5
14E1
330
1F
100
AcDbEntity
  8
0
100
AcDbLine
 10
166.7000008245915
 20
260.1638185367799
 30
0.0
 11
172.0000008245916
 21
260.1638185367799
 31
0.0
  0
LINE
  5
14E2
330
1F
100
AcDbEntity
  8
0
100
AcDbLine
 10
166.7000008245915
 20
255.1638185367801
 30
0.0
 11
172.0000008245916
 21
255.1638185367801
 31
0.0
  0
LINE
  5
14E3
330
1F
100
AcDbEntity
  8
0
100
AcDbLine
 10
166.7000008245915
 20
247.5438185367801
 30
0.0
 11
172.0000008245916
 21
247.5438185367801
 31
0.0
  0
LINE
  5
14E4
330
1F
100
AcDbEntity
  8
0
100
AcDbLine
 10
166.7000008245915
 20
252.54381853678
 30
0.0
 11
172.0000008245916
 21
252.54381853678
 31
0.0
  0
LINE
  5
14E5
330
1F
100
AcDbEntity
  8
0
100
AcDbLine
 10
166.7000008245915
 20
244.92381853678
 30
0.0
 11
171.2000008245919
 21
244.92381853678
 31
0.0
  0
LINE
  5
14E6
330
1F
100
AcDbEntity
  8
0
100
AcDbLine
 10
171.2000008245919
 20
264.2738185367799
 30
0.0
 11
166.7000008245915
 21
264.2738185367799
 31
0.0
  0
LINE
  5
14E7
330
1F
100
AcDbEntity
  8
0
100
AcDbLine
 10
215.0000008245916
 20
351.97381853678
 30
0.0
 11
217.0000008245916
 21
351.97381853678
 31
0.0
  0
LINE
  5
14E8
330
1F
100
AcDbEntity
  8
0
100
AcDbLine
 10
288.0000008245908
 20
354.97381853678
 30
0.0
 11
288.0000008245908
 21
364.97381853678
 31
0.0
  0
LINE
  5
14E9
330
1F
100
AcDbEntity
  8
0
100
AcDbLine
 10
172.0000008245916
 20
180.97381853678
 30
0.0
 11
289.3878546677597
 21
180.97381853678
 31
0.0
  0
LINE
  5
14F1
330
1F
100
AcDbEntity
  8
0
100
AcDbLine
 10
171.0000008245916
 20
222.7738192704704
 30
0.0
 11
171.0000008245916
 21
221.6738192704704
 31
0.0
  0
LINE
  5
14F2
330
1F
100
AcDbEntity
  8
0
100
AcDbLine
 10
171.0000008245916
 20
201.4738192704703
 30
0.0
 11
171.0000008245916
 21
200.3738192704703
 31
0.0
  0
LINE
  5
14F3
330
1F
100
AcDbEntity
  8
0
100
AcDbLine
 10
171.0000008245916
 20
199.1738192704703
 30
0.0
 11
171.0000008245916
 21
191.4738192704703
 31
0.0
  0
LINE
  5
14F4
330
1F
100
AcDbEntity
  8
0
100
AcDbLine
 10
172.0000008245916
 20
322.4138185367801
 30
0.0
 11
170.9956388837406
 21
322.4138185367801
 31
0.0
  0
LINE
  5
14F5
330
1F
100
AcDbEntity
  8
0
100
AcDbLine
 10
172.0000008245916
 20
233.1738192704704
 30
0.0
 11
171.0000008245916
 21
233.1738192704704
 31
0.0
  0
LINE
  5
14F6
330
1F
100
AcDbEntity
  8
0
100
AcDbLine
 10
171.0000008245916
 20
233.1738192704704
 30
0.0
 11
171.0000008245916
 21
241.5738192704703
 31
0.0
  0
LINE
  5
14F7
330
1F
100
AcDbEntity
  8
0
100
AcDbLine
 10
171.0000008245916
 20
241.5738192704703
 30
0.0
 11
172.0000008245916
 21
241.5738192704703
 31
0.0
  0
LINE
  5
14F8
330
1F
100
AcDbEntity
  8
0
100
AcDbLine
 10
172.0000008245916
 20
243.0738192704704
 30
0.0
 11
171.2000008245919
 21
243.0738192704704
 31
0.0
  0
LINE
  5
14F9
330
1F
100
AcDbEntity
  8
0
100
AcDbLine
 10
171.2000008245919
 20
243.0738192704704
 30
0.0
 11
171.2000008245919
 21
246.0738192704705
 31
0.0
  0
LINE
  5
14FA
330
1F
100
AcDbEntity
  8
0
100
AcDbLine
 10
171.2000008245919
 20
246.0738192704705
 30
0.0
 11
172.0000008245916
 21
246.0738192704705
 31
0.0
  0
LINE
  5
14FB
330
1F
100
AcDbEntity
  8
0
100
AcDbLine
 10
172.0000008245916
 20
263.0738192704705
 30
0.0
 11
171.2000008245919
 21
263.0738192704705
 31
0.0
  0
LINE
  5
14FC
330
1F
100
AcDbEntity
  8
0
100
AcDbLine
 10
171.2000008245919
 20
263.0738192704705
 30
0.0
 11
171.2000008245919
 21
266.0738192704704
 31
0.0
  0
LINE
  5
14FD
330
1F
100
AcDbEntity
  8
0
100
AcDbLine
 10
171.2000008245919
 20
266.0738192704704
 30
0.0
 11
172.0000008245916
 21
266.0738192704704
 31
0.0
  0
LINE
  5
14FE
330
1F
100
AcDbEntity
  8
0
  6
Continuous
100
AcDbLine
 10
170.9956388837406
 20
322.4138185367801
 30
0.0
 11
170.9956388837406
 21
307.0138185367801
 31
0.0
  0
LINE
  5
14FF
330
1F
100
AcDbEntity
  8
0
  6
Continuous
100
AcDbLine
 10
170.9956388837406
 20
307.0138185367801
 30
0.0
 11
172.0000008245916
 21
307.0138185367801
 31
0.0
  0
MTEXT
  5
152E
330
1F
100
AcDbEntity
  8
0
100
AcDbMText
 10
-1.449360691602123
 20
411.8904267135821
 30
0.0
 40
10.0
 41
0.0
 71
     1
 72
     5
  1
SCON-CA-400I~750I-EP/PRT-*-1/2\PSCON-CA-100SI~750SI-EP/PRT-*-1/2
 73
     1
 44
1.0
1001
ACAD
1000
MTEXTBEGIN
1070
    73
1070
     1
1070
    44
1040
1.0
1070
    74
1070
     0
1000
MTEXTEND
1000
MTEXTBEGIN
1070
    73
1070
     1
1070
    44
1040
1.0
1070
    74
1070
     0
1000
MTEXTEND
1000
MTEXTBEGIN
1070
    73
1070
     1
1070
    44
1040
1.0
1070
    74
1070
     0
1000
MTEXTEND
1000
MTEXTBEGIN
1070
    73
1070
     1
1070
    44
1040
1.0
1070
    74
1070
     0
1000
MTEXTEND
  0
ENDSEC
  0
SECTION
  2
OBJECTS
  0
DICTIONARY
  5
C
330
0
100
AcDbDictionary
281
     1
  3
ACAD_GROUP
350
D
  3
ACAD_LAYOUT
350
1A
  3
ACAD_MLINESTYLE
350
17
  3
ACAD_PLOTSETTINGS
350
19
  3
ACAD_PLOTSTYLENAME
350
E
  3
ACDBHEADERROUNDTRIPXREC
350
16AF
  3
ACDBVARIABLEDICTIONARY
350
7CA
  0
DICTIONARY
  5
480
330
2
100
AcDbDictionary
280
     1
281
     1
  3
ACAD_LAYERSTATES
360
481
  0
DICTIONARY
  5
AE7
330
1F
100
AcDbDictionary
280
     1
281
     1
  3
ACAD_LAYOUTSELFREF
360
15F4
  0
DICTIONARY
  5
AE5
330
1B
100
AcDbDictionary
280
     1
281
     1
  3
ACAD_LAYOUTSELFREF
360
15F3
  0
DICTIONARY
  5
D
102
{ACAD_REACTORS
330
C
102
}
330
C
100
AcDbDictionary
281
     1
  0
DICTIONARY
  5
1A
102
{ACAD_REACTORS
330
C
102
}
330
C
100
AcDbDictionary
281
     1
  3
Model
350
15F7
  3
ﾚｲｱｳﾄ1
350
15F8
  0
DICTIONARY
  5
17
102
{ACAD_REACTORS
330
C
102
}
330
C
100
AcDbDictionary
281
     1
  3
STANDARD
350
18
  0
DICTIONARY
  5
19
102
{ACAD_REACTORS
330
C
102
}
330
C
100
AcDbDictionary
281
     1
  0
ACDBDICTIONARYWDFLT
  5
E
102
{ACAD_REACTORS
330
C
102
}
330
C
100
AcDbDictionary
281
     1
  3
Normal
350
F
100
AcDbDictionaryWithDefault
340
F
  0
DICTIONARY
  5
16AF
102
{ACAD_REACTORS
330
C
102
}
330
C
100
AcDbDictionary
281
     1
  3
CEPSNTYPE
350
16B9
  3
FINGERPRINTGUID
350
16BA
  3
HYPERLINKBASE
350
16B2
  3
INSUNITS
350
16B8
  3
LAYOUTDICT
350
16B4
  3
LWETCUNION
350
16B7
  3
PLOTSETDICT
350
16B5
  3
PLOTSTYLNAMDICT
350
16B6
  3
PSVPSCALE
350
16BC
  3
PUCSBASE
350
16BF
  3
PUCSORGBACK
350
16C5
  3
PUCSORGBOTTOM
350
16C1
  3
PUCSORGFRONT
350
16C4
  3
PUCSORGLEFT
350
16C2
  3
PUCSORGRIGHT
350
16C3
  3
PUCSORGTOP
350
16C0
  3
PUCSORTHOREF
350
16BD
  3
PUCSORTHOVIEW
350
16BE
  3
STYLESHEET
350
16B3
  3
TSTACKALIGN
350
16B0
  3
TSTACKSIZE
350
16B1
  3
UCSBASE
350
16C8
  3
UCSORGBACK
350
16CE
  3
UCSORGBOTTOM
350
16CA
  3
UCSORGFRONT
350
16CD
  3
UCSORGLEFT
350
16CB
  3
UCSORGRIGHT
350
16CC
  3
UCSORGTOP
350
16C9
  3
UCSORTHOREF
350
16C6
  3
UCSORTHOVIEW
350
16C7
  3
VERSIONGUID
350
16BB
  0
DICTIONARY
  5
7CA
102
{ACAD_REACTORS
330
C
102
}
330
C
100
AcDbDictionary
281
     1
  3
DIMASSOC
350
7CC
  3
HIDETEXT
350
7CB
  0
DICTIONARY
  5
481
102
{ACAD_REACTORS
330
480
102
}
330
480
100
AcDbDictionary
281
     1
  0
XRECORD
  5
15F4
102
{ACAD_REACTORS
330
AE7
102
}
330
AE7
100
AcDbXrecord
280
     1
340
1F
  0
XRECORD
  5
15F3
102
{ACAD_REACTORS
330
AE5
102
}
330
AE5
100
AcDbXrecord
280
     1
340
1B
  0
LAYOUT
  5
15F7
102
{ACAD_REACTORS
330
1A
102
}
330
1A
100
AcDbPlotSettings
  1

  2
8F大型複合機B_C7780
  4
A4
  6

 40
4.900083065032958
 41
4.900057315826416
 42
4.90008544921875
 43
4.90008544921875
 44
210.0156707763671
 45
297.0106506347656
 46
0.0
 47
0.0
 48
-46.93449174224634
 49
-16.81559627799538
140
413.8205376755759
141
440.4923527541801
142
1.0
143
2.284078624608613
 70
 11952
 72
     1
 73
     1
 74
     4
  7

 75
     0
147
0.4378132999564996
148
46.93449174224634
149
16.81559627799538
100
AcDbLayout
  1
Model
 70
     1
 71
     0
 10
0.0
 20
0.0
 11
12.0
 21
9.0
 12
0.0
 22
0.0
 32
0.0
 14
0.0
 24
0.0
 34
0.0
 15
0.0
 25
0.0
 35
0.0
146
0.0
 13
0.0
 23
0.0
 33
0.0
 16
1.0
 26
0.0
 36
0.0
 17
0.0
 27
1.0
 37
0.0
 76
     0
330
1F
  0
LAYOUT
  5
15F8
102
{ACAD_REACTORS
330
1A
102
}
330
1A
100
AcDbPlotSettings
  1

  2
8F大型複合機B_C7780
  4

  6

 40
0.0
 41
0.0
 42
0.0
 43
0.0
 44
0.0
 45
0.0
 46
0.0
 47
0.0
 48
0.0
 49
0.0
140
0.0
141
0.0
142
1.0
143
1.0
 70
   688
 72
     0
 73
     0
 74
     5
  7

 75
    16
147
1.0
148
0.0
149
0.0
100
AcDbLayout
  1
ﾚｲｱｳﾄ1
 70
     1
 71
     1
 10
0.0
 20
0.0
 11
420.0
 21
297.0
 12
0.0
 22
0.0
 32
0.0
 14
1.000000000000000E+20
 24
1.000000000000000E+20
 34
1.000000000000000E+20
 15
-1.000000000000000E+20
 25
-1.000000000000000E+20
 35
-1.000000000000000E+20
146
0.0
 13
0.0
 23
0.0
 33
0.0
 16
1.0
 26
0.0
 36
0.0
 17
0.0
 27
1.0
 37
0.0
 76
     0
330
1B
  0
MLINESTYLE
  5
18
102
{ACAD_REACTORS
330
17
102
}
330
17
100
AcDbMlineStyle
  2
STANDARD
 70
     0
  3

 62
   256
 51
90.0
 52
90.0
 71
     2
 49
0.5
 62
   256
  6
BYLAYER
 49
-0.5
 62
   256
  6
BYLAYER
  0
ACDBPLACEHOLDER
  5
F
102
{ACAD_REACTORS
330
E
102
}
330
E
  0
XRECORD
  5
16B9
102
{ACAD_REACTORS
330
16AF
102
}
330
16AF
100
AcDbXrecord
280
     1
 90
        0
  0
XRECORD
  5
16BA
102
{ACAD_REACTORS
330
16AF
102
}
330
16AF
100
AcDbXrecord
280
     1
  1
{59234AB0-AE73-4C98-BD35-D00B5BF71858}
  0
XRECORD
  5
16B2
102
{ACAD_REACTORS
330
16AF
102
}
330
16AF
100
AcDbXrecord
280
     1
  1

  0
XRECORD
  5
16B8
102
{ACAD_REACTORS
330
16AF
102
}
330
16AF
100
AcDbXrecord
280
     1
 90
        4
  0
XRECORD
  5
16B4
102
{ACAD_REACTORS
330
16AF
102
}
330
16AF
100
AcDbXrecord
280
     1
340
1A
  0
XRECORD
  5
16B7
102
{ACAD_REACTORS
330
16AF
102
}
330
16AF
100
AcDbXrecord
280
     1
 90
    10781
  0
XRECORD
  5
16B5
102
{ACAD_REACTORS
330
16AF
102
}
330
16AF
100
AcDbXrecord
280
     1
340
19
  0
XRECORD
  5
16B6
102
{ACAD_REACTORS
330
16AF
102
}
330
16AF
100
AcDbXrecord
280
     1
340
E
  0
XRECORD
  5
16BC
102
{ACAD_REACTORS
330
16AF
102
}
330
16AF
100
AcDbXrecord
280
     1
 40
0.0
  0
XRECORD
  5
16BF
102
{ACAD_REACTORS
330
16AF
102
}
330
16AF
100
AcDbXrecord
280
     1
340
0
  0
XRECORD
  5
16C5
102
{ACAD_REACTORS
330
16AF
102
}
330
16AF
100
AcDbXrecord
280
     1
 10
0.0
 20
0.0
 30
0.0
  0
XRECORD
  5
16C1
102
{ACAD_REACTORS
330
16AF
102
}
330
16AF
100
AcDbXrecord
280
     1
 10
0.0
 20
0.0
 30
0.0
  0
XRECORD
  5
16C4
102
{ACAD_REACTORS
330
16AF
102
}
330
16AF
100
AcDbXrecord
280
     1
 10
0.0
 20
0.0
 30
0.0
  0
XRECORD
  5
16C2
102
{ACAD_REACTORS
330
16AF
102
}
330
16AF
100
AcDbXrecord
280
     1
 10
0.0
 20
0.0
 30
0.0
  0
XRECORD
  5
16C3
102
{ACAD_REACTORS
330
16AF
102
}
330
16AF
100
AcDbXrecord
280
     1
 10
0.0
 20
0.0
 30
0.0
  0
XRECORD
  5
16C0
102
{ACAD_REACTORS
330
16AF
102
}
330
16AF
100
AcDbXrecord
280
     1
 10
0.0
 20
0.0
 30
0.0
  0
XRECORD
  5
16BD
102
{ACAD_REACTORS
330
16AF
102
}
330
16AF
100
AcDbXrecord
280
     1
340
0
  0
XRECORD
  5
16BE
102
{ACAD_REACTORS
330
16AF
102
}
330
16AF
100
AcDbXrecord
280
     1
 70
     0
  0
XRECORD
  5
16B3
102
{ACAD_REACTORS
330
16AF
102
}
330
16AF
100
AcDbXrecord
280
     1
  1

  0
XRECORD
  5
16B0
102
{ACAD_REACTORS
330
16AF
102
}
330
16AF
100
AcDbXrecord
280
     1
 90
        1
  0
XRECORD
  5
16B1
102
{ACAD_REACTORS
330
16AF
102
}
330
16AF
100
AcDbXrecord
280
     1
 90
       70
  0
XRECORD
  5
16C8
102
{ACAD_REACTORS
330
16AF
102
}
330
16AF
100
AcDbXrecord
280
     1
340
0
  0
XRECORD
  5
16CE
102
{ACAD_REACTORS
330
16AF
102
}
330
16AF
100
AcDbXrecord
280
     1
 10
0.0
 20
0.0
 30
0.0
  0
XRECORD
  5
16CA
102
{ACAD_REACTORS
330
16AF
102
}
330
16AF
100
AcDbXrecord
280
     1
 10
0.0
 20
0.0
 30
0.0
  0
XRECORD
  5
16CD
102
{ACAD_REACTORS
330
16AF
102
}
330
16AF
100
AcDbXrecord
280
     1
 10
0.0
 20
0.0
 30
0.0
  0
XRECORD
  5
16CB
102
{ACAD_REACTORS
330
16AF
102
}
330
16AF
100
AcDbXrecord
280
     1
 10
0.0
 20
0.0
 30
0.0
  0
XRECORD
  5
16CC
102
{ACAD_REACTORS
330
16AF
102
}
330
16AF
100
AcDbXrecord
280
     1
 10
0.0
 20
0.0
 30
0.0
  0
XRECORD
  5
16C9
102
{ACAD_REACTORS
330
16AF
102
}
330
16AF
100
AcDbXrecord
280
     1
 10
0.0
 20
0.0
 30
0.0
  0
XRECORD
  5
16C6
102
{ACAD_REACTORS
330
16AF
102
}
330
16AF
100
AcDbXrecord
280
     1
340
0
  0
XRECORD
  5
16C7
102
{ACAD_REACTORS
330
16AF
102
}
330
16AF
100
AcDbXrecord
280
     1
 70
     0
  0
XRECORD
  5
16BB
102
{ACAD_REACTORS
330
16AF
102
}
330
16AF
100
AcDbXrecord
280
     1
  1
{39509C92-F7F3-4C48-B293-445DCCBE273B}
  0
DICTIONARYVAR
  5
7CC
102
{ACAD_REACTORS
330
7CA
102
}
330
7CA
100
DictionaryVariables
280
     0
  1
2
  0
DICTIONARYVAR
  5
7CB
102
{ACAD_REACTORS
330
7CA
102
}
330
7CA
100
DictionaryVariables
280
     0
  1
1
  0
ENDSEC
  0
EOF
