  0
SECTION
  2
HEADER
  9
$ACADVER
  1
AC1014
  9
$ACADMAINTVER
 70
     9
  9
$DWGCODEPAGE
  3
ANSI_932
  9
$INSBASE
 10
0.0
 20
0.0
 30
0.0
  9
$EXTMIN
 10
29.65008285917223
 20
-0.0000017314486059
 30
0.0
  9
$EXTMAX
 10
461.7288317763064
 20
412.9531608877652
 30
0.0
  9
$LIMMIN
 10
0.0
 20
0.0
  9
$LIMMAX
 10
420.0
 20
297.0
  9
$ORTHOMODE
 70
     0
  9
$REGENMODE
 70
     1
  9
$FILLMODE
 70
     1
  9
$QTEXTMODE
 70
     0
  9
$MIRRTEXT
 70
     1
  9
$DRAGMODE
 70
     2
  9
$LTSCALE
 40
1.0
  9
$OSMODE
 70
    55
  9
$ATTMODE
 70
     1
  9
$TEXTSIZE
 40
2.5
  9
$TRACEWID
 40
1.0
  9
$TEXTSTYLE
  7
STANDARD
  9
$CLAYER
  8
0
  9
$CELTYPE
  6
BYLAYER
  9
$CECOLOR
 62
   256
  9
$CELTSCALE
 40
1.0
  9
$DELOBJ
 70
     1
  9
$DISPSILH
 70
     0
  9
$DIMSCALE
 40
1.0
  9
$DIMASZ
 40
2.5
  9
$DIMEXO
 40
0.625
  9
$DIMDLI
 40
3.75
  9
$DIMRND
 40
0.0
  9
$DIMDLE
 40
0.0
  9
$DIMEXE
 40
1.25
  9
$DIMTP
 40
0.0
  9
$DIMTM
 40
0.0
  9
$DIMTXT
 40
2.5
  9
$DIMCEN
 40
2.5
  9
$DIMTSZ
 40
0.0
  9
$DIMTOL
 70
     0
  9
$DIMLIM
 70
     0
  9
$DIMTIH
 70
     0
  9
$DIMTOH
 70
     0
  9
$DIMSE1
 70
     0
  9
$DIMSE2
 70
     0
  9
$DIMTAD
 70
     1
  9
$DIMZIN
 70
     8
  9
$DIMBLK
  1

  9
$DIMASO
 70
     1
  9
$DIMSHO
 70
     1
  9
$DIMPOST
  1

  9
$DIMAPOST
  1

  9
$DIMALT
 70
     0
  9
$DIMALTD
 70
     3
  9
$DIMALTF
 40
0.03937007874016
  9
$DIMLFAC
 40
1.0
  9
$DIMTOFL
 70
     1
  9
$DIMTVP
 40
0.0
  9
$DIMTIX
 70
     0
  9
$DIMSOXD
 70
     0
  9
$DIMSAH
 70
     0
  9
$DIMBLK1
  1

  9
$DIMBLK2
  1

  9
$DIMSTYLE
  2
ISO-25
  9
$DIMCLRD
 70
     0
  9
$DIMCLRE
 70
     0
  9
$DIMCLRT
 70
     0
  9
$DIMTFAC
 40
1.0
  9
$DIMGAP
 40
0.625
  9
$DIMJUST
 70
     0
  9
$DIMSD1
 70
     0
  9
$DIMSD2
 70
     0
  9
$DIMTOLJ
 70
     0
  9
$DIMTZIN
 70
     8
  9
$DIMALTZ
 70
     0
  9
$DIMALTTZ
 70
     0
  9
$DIMFIT
 70
     3
  9
$DIMUPT
 70
     0
  9
$DIMUNIT
 70
     2
  9
$DIMDEC
 70
     2
  9
$DIMTDEC
 70
     2
  9
$DIMALTU
 70
     2
  9
$DIMALTTD
 70
     3
  9
$DIMTXSTY
  7
STANDARD
  9
$DIMAUNIT
 70
     0
  9
$LUNITS
 70
     2
  9
$LUPREC
 70
     4
  9
$SKETCHINC
 40
1.0
  9
$FILLETRAD
 40
10.0
  9
$AUNITS
 70
     0
  9
$AUPREC
 70
     0
  9
$MENU
  1
.
  9
$ELEVATION
 40
0.0
  9
$PELEVATION
 40
0.0
  9
$THICKNESS
 40
0.0
  9
$LIMCHECK
 70
     0
  9
$BLIPMODE
 70
     0
  9
$CHAMFERA
 40
10.0
  9
$CHAMFERB
 40
10.0
  9
$CHAMFERC
 40
20.0
  9
$CHAMFERD
 40
0.0
  9
$SKPOLY
 70
     0
  9
$TDCREATE
 40
2455874.713246505
  9
$TDUPDATE
 40
2456013.756502847
  9
$TDINDWG
 40
0.0057613657
  9
$TDUSRTIMER
 40
0.0057608102
  9
$USRTIMER
 70
     1
  9
$ANGBASE
 50
0.0
  9
$ANGDIR
 70
     0
  9
$PDMODE
 70
     0
  9
$PDSIZE
 40
0.0
  9
$PLINEWID
 40
0.0
  9
$COORDS
 70
     1
  9
$SPLFRAME
 70
     0
  9
$SPLINETYPE
 70
     6
  9
$SPLINESEGS
 70
     8
  9
$ATTDIA
 70
     0
  9
$ATTREQ
 70
     1
  9
$HANDLING
 70
 22529
  9
$HANDSEED
  5
B9A
  9
$SURFTAB1
 70
     6
  9
$SURFTAB2
 70
     6
  9
$SURFTYPE
 70
     6
  9
$SURFU
 70
     6
  9
$SURFV
 70
     6
  9
$UCSNAME
  2

  9
$UCSORG
 10
0.0
 20
0.0
 30
0.0
  9
$UCSXDIR
 10
1.0
 20
0.0
 30
0.0
  9
$UCSYDIR
 10
0.0
 20
1.0
 30
0.0
  9
$PUCSNAME
  2

  9
$PUCSORG
 10
0.0
 20
0.0
 30
0.0
  9
$PUCSXDIR
 10
1.0
 20
0.0
 30
0.0
  9
$PUCSYDIR
 10
0.0
 20
1.0
 30
0.0
  9
$USERI1
 70
     0
  9
$USERI2
 70
     0
  9
$USERI3
 70
     0
  9
$USERI4
 70
     0
  9
$USERI5
 70
     0
  9
$USERR1
 40
0.0
  9
$USERR2
 40
0.0
  9
$USERR3
 40
0.0
  9
$USERR4
 40
0.0
  9
$USERR5
 40
0.0
  9
$WORLDVIEW
 70
     1
  9
$SHADEDGE
 70
     3
  9
$SHADEDIF
 70
    70
  9
$TILEMODE
 70
     1
  9
$MAXACTVP
 70
    64
  9
$PINSBASE
 10
0.0
 20
0.0
 30
0.0
  9
$PLIMCHECK
 70
     0
  9
$PEXTMIN
 10
1.000000000000000E+20
 20
1.000000000000000E+20
 30
1.000000000000000E+20
  9
$PEXTMAX
 10
-1.000000000000000E+20
 20
-1.000000000000000E+20
 30
-1.000000000000000E+20
  9
$PLIMMIN
 10
0.0
 20
0.0
  9
$PLIMMAX
 10
420.0
 20
297.0
  9
$UNITMODE
 70
     0
  9
$VISRETAIN
 70
     1
  9
$PLINEGEN
 70
     0
  9
$PSLTSCALE
 70
     1
  9
$TREEDEPTH
 70
  3020
  9
$PICKSTYLE
 70
     1
  9
$CMLSTYLE
  2
STANDARD
  9
$CMLJUST
 70
     0
  9
$CMLSCALE
 40
20.0
  9
$PROXYGRAPHICS
 70
     1
  9
$MEASUREMENT
 70
     1
  0
ENDSEC
  0
SECTION
  2
CLASSES
  0
CLASS
  1
ACDBDICTIONARYWDFLT
  2
AcDbDictionaryWithDefault
  3
AutoCAD 2000
 90
        0
280
     0
281
     0
  0
CLASS
  1
ACDBPLACEHOLDER
  2
AcDbPlaceHolder
  3
AutoCAD 2000
 90
        0
280
     0
281
     0
  0
CLASS
  1
LAYOUT
  2
AcDbLayout
  3
AutoCAD 2000
 90
        0
280
     0
281
     0
  0
CLASS
  1
DICTIONARYVAR
  2
AcDbDictionaryVar
  3
AutoCAD 2000
 90
        0
280
     0
281
     0
  0
CLASS
  1
LONG_TRANSACTION
  2
AcDbLongTransaction
  3
AutoCAD 2000
 90
        0
280
     0
281
     0
  0
CLASS
  1
LWPOLYLINE
  2
AcDbPolyline
  3
AutoCAD 2000
 90
        0
280
     0
281
     1
  0
CLASS
  1
HATCH
  2
AcDbHatch
  3
AutoCAD 2000
 90
        0
280
     0
281
     1
  0
CLASS
  1
XRECORD
  2
AcDbXrecord
  3
AutoCAD 2000
 90
        0
280
     0
281
     0
  0
CLASS
  1
LONG_TRANSACTION
  2
AcDbLongTransaction
  3
AutoCAD 2000
 90
        0
280
     0
281
     0
  0
CLASS
  1
LWPOLYLINE
  2
AcDbPolyline
  3
AutoCAD 2000
 90
        0
280
     0
281
     1
  0
CLASS
  1
HATCH
  2
AcDbHatch
  3
AutoCAD 2000
 90
        0
280
     0
281
     1
  0
CLASS
  1
XRECORD
  2
AcDbXrecord
  3
AutoCAD 2000
 90
        0
280
     0
281
     0
  0
CLASS
  1
LONG_TRANSACTION
  2
AcDbLongTransaction
  3
AutoCAD 2000
 90
        0
280
     0
281
     0
  0
CLASS
  1
LWPOLYLINE
  2
AcDbPolyline
  3
AutoCAD 2000
 90
        0
280
     0
281
     1
  0
CLASS
  1
HATCH
  2
AcDbHatch
  3
AutoCAD 2000
 90
        0
280
     0
281
     1
  0
CLASS
  1
XRECORD
  2
AcDbXrecord
  3
AutoCAD 2000
 90
        0
280
     0
281
     0
  0
CLASS
  1
LONG_TRANSACTION
  2
AcDbLongTransaction
  3
AutoCAD 2000
 90
        0
280
     0
281
     0
  0
CLASS
  1
LWPOLYLINE
  2
AcDbPolyline
  3
AutoCAD 2000
 90
        0
280
     0
281
     1
  0
CLASS
  1
HATCH
  2
AcDbHatch
  3
AutoCAD 2000
 90
        0
280
     0
281
     1
  0
CLASS
  1
XRECORD
  2
AcDbXrecord
  3
AutoCAD 2000
 90
        0
280
     0
281
     0
  0
CLASS
  1
LONG_TRANSACTION
  2
AcDbLongTransaction
  3
AutoCAD 2000
 90
        0
280
     0
281
     0
  0
CLASS
  1
LWPOLYLINE
  2
AcDbPolyline
  3
AutoCAD 2000
 90
        0
280
     0
281
     1
  0
CLASS
  1
HATCH
  2
AcDbHatch
  3
AutoCAD 2000
 90
        0
280
     0
281
     1
  0
CLASS
  1
XRECORD
  2
AcDbXrecord
  3
AutoCAD 2000
 90
        0
280
     0
281
     0
  0
CLASS
  1
LONG_TRANSACTION
  2
AcDbLongTransaction
  3
AutoCAD 2000
 90
        0
280
     0
281
     0
  0
CLASS
  1
LWPOLYLINE
  2
AcDbPolyline
  3
AutoCAD 2000
 90
        0
280
     0
281
     1
  0
CLASS
  1
HATCH
  2
AcDbHatch
  3
AutoCAD 2000
 90
        0
280
     0
281
     1
  0
CLASS
  1
XRECORD
  2
AcDbXrecord
  3
AutoCAD 2000
 90
        0
280
     0
281
     0
  0
ENDSEC
  0
SECTION
  2
TABLES
  0
TABLE
  2
VPORT
  5
8
330
0
100
AcDbSymbolTable
 70
     2
  0
VPORT
  5
B77
330
8
100
AcDbSymbolTableRecord
100
AcDbViewportTableRecord
  2
*ACTIVE
 70
     0
 10
0.0
 20
0.0
 11
1.0
 21
1.0
 12
179.9111947905171
 22
206.4895805850845
 13
0.0
 23
0.0
 14
10.0
 24
10.0
 15
10.0
 25
10.0
 16
0.0
 26
0.0
 36
1.0
 17
0.0
 27
0.0
 37
0.0
 40
415.9918483475442
 41
1.46415552855407
 42
50.0
 43
0.0
 44
0.0
 50
0.0
 51
0.0
 71
     0
 72
   100
 73
     1
 74
     3
 75
     0
 76
     0
 77
     0
 78
     0
  0
ENDTAB
  0
TABLE
  2
LTYPE
  5
5
330
0
100
AcDbSymbolTable
 70
     2
  0
LTYPE
  5
14
330
5
100
AcDbSymbolTableRecord
100
AcDbLinetypeTableRecord
  2
BYBLOCK
 70
     0
  3

 72
    65
 73
     0
 40
0.0
  0
LTYPE
  5
15
330
5
100
AcDbSymbolTableRecord
100
AcDbLinetypeTableRecord
  2
BYLAYER
 70
     0
  3

 72
    65
 73
     0
 40
0.0
  0
LTYPE
  5
16
330
5
100
AcDbSymbolTableRecord
100
AcDbLinetypeTableRecord
  2
CONTINUOUS
 70
     0
  3
Solid line
 72
    65
 73
     0
 40
0.0
  0
LTYPE
  5
95F
330
5
100
AcDbSymbolTableRecord
100
AcDbLinetypeTableRecord
  2
DASHDOT
 70
     0
  3
__ . __ . __ . __ . __ . __ . __ . __ . __ . __
 72
    65
 73
     4
 40
7.5
 49
6.0
 74
     0
 49
-0.5
 74
     0
 49
0.5
 74
     0
 49
-0.5
 74
     0
  0
ENDTAB
  0
TABLE
  2
LAYER
  5
2
102
{ACAD_XDICTIONARY
360
2DB
102
}
330
0
100
AcDbSymbolTable
 70
     4
  0
LAYER
  5
10
330
2
100
AcDbSymbolTableRecord
100
AcDbLayerTableRecord
  2
0
 70
     0
 62
     7
  6
CONTINUOUS
  0
LAYER
  5
2D7
330
2
100
AcDbSymbolTableRecord
100
AcDbLayerTableRecord
  2
DEFPOINTS
 70
     0
 62
    -7
  6
CONTINUOUS
  0
LAYER
  5
2D8
330
2
100
AcDbSymbolTableRecord
100
AcDbLayerTableRecord
  2
1
 70
     0
 62
     3
  6
CONTINUOUS
  0
LAYER
  5
960
330
2
100
AcDbSymbolTableRecord
100
AcDbLayerTableRecord
  2
2_カバ_
 70
     0
 62
     7
  6
CONTINUOUS
  0
ENDTAB
  0
TABLE
  2
STYLE
  5
3
330
0
100
AcDbSymbolTable
 70
     1
  0
STYLE
  5
11
330
3
100
AcDbSymbolTableRecord
100
AcDbTextStyleTableRecord
  2
STANDARD
 70
     0
 40
0.0
 41
1.0
 50
0.0
 71
     0
 42
2.5
  3
txt
  4

  0
ENDTAB
  0
TABLE
  2
VIEW
  5
6
330
0
100
AcDbSymbolTable
 70
     0
  0
ENDTAB
  0
TABLE
  2
UCS
  5
7
330
0
100
AcDbSymbolTable
 70
     0
  0
ENDTAB
  0
TABLE
  2
APPID
  5
9
330
0
100
AcDbSymbolTable
 70
     1
  0
APPID
  5
12
330
9
100
AcDbSymbolTableRecord
100
AcDbRegAppTableRecord
  2
ACAD
 70
     0
  0
ENDTAB
  0
TABLE
  2
DIMSTYLE
  5
A
330
0
100
AcDbSymbolTable
 70
     2
  0
DIMSTYLE
105
27
330
A
100
AcDbSymbolTableRecord
100
AcDbDimStyleTableRecord
  2
ISO-25
 70
     0
  3

  4

  5

  6

  7

 40
1.0
 41
2.5
 42
0.625
 43
3.75
 44
1.25
 45
0.0
 46
0.0
 47
0.0
 48
0.0
140
2.5
141
2.5
142
0.0
143
0.03937007874016
144
1.0
145
0.0
146
1.0
147
0.625
 71
     0
 72
     0
 73
     0
 74
     0
 75
     0
 76
     0
 77
     1
 78
     8
170
     0
171
     3
172
     1
173
     0
174
     0
175
     0
176
     0
177
     0
178
     0
270
     2
271
     2
272
     2
273
     2
274
     3
340
11
275
     0
280
     0
281
     0
282
     0
283
     0
284
     8
285
     0
286
     0
287
     3
288
     0
  0
DIMSTYLE
105
2DA
330
A
100
AcDbSymbolTableRecord
100
AcDbDimStyleTableRecord
  2
STANDARD
 70
     0
  3

  4

  5

  6

  7

 40
1.0
 41
2.5
 42
0.625
 43
3.75
 44
1.25
 45
0.0
 46
0.0
 47
0.0
 48
0.0
140
2.5
141
2.5
142
0.0
143
0.0394
144
1.0
145
0.0
146
1.0
147
0.625
 71
     0
 72
     0
 73
     0
 74
     0
 75
     0
 76
     0
 77
     1
 78
     8
170
     0
171
     4
172
     1
173
     0
174
     0
175
     0
176
     0
177
     0
178
     0
270
     2
271
     4
272
     4
273
     8
274
     4
340
11
275
     0
280
     0
281
     0
282
     0
283
     1
284
     0
285
     0
286
     0
287
     3
288
     0
  0
ENDTAB
  0
TABLE
  2
BLOCK_RECORD
  5
1
330
0
100
AcDbSymbolTable
 70
     1
  0
BLOCK_RECORD
  5
1F
102
{ACAD_XDICTIONARY
360
7F2
102
}
330
1
100
AcDbSymbolTableRecord
100
AcDbBlockTableRecord
  2
*MODEL_SPACE
  0
BLOCK_RECORD
  5
1B
102
{ACAD_XDICTIONARY
360
7F0
102
}
330
1
100
AcDbSymbolTableRecord
100
AcDbBlockTableRecord
  2
*PAPER_SPACE
  0
ENDTAB
  0
ENDSEC
  0
SECTION
  2
BLOCKS
  0
BLOCK
  5
20
330
1F
100
AcDbEntity
  8
0
100
AcDbBlockBegin
  2
*MODEL_SPACE
 70
     0
 10
0.0
 20
0.0
 30
0.0
  3
*MODEL_SPACE
  1

  0
ENDBLK
  5
21
330
1F
100
AcDbEntity
  8
0
100
AcDbBlockEnd
  0
BLOCK
  5
1C
330
1B
100
AcDbEntity
 67
     1
  8
0
100
AcDbBlockBegin
  2
*PAPER_SPACE
 70
     0
 10
0.0
 20
0.0
 30
0.0
  3
*PAPER_SPACE
  1

  0
ENDBLK
  5
1D
330
1B
100
AcDbEntity
 67
     1
  8
0
100
AcDbBlockEnd
  0
ENDSEC
  0
SECTION
  2
ENTITIES
  0
LINE
  5
4ED
330
1F
100
AcDbEntity
  8
1
100
AcDbLine
 10
72.68454962301508
 20
175.9738123469826
 30
0.0
 11
87.68454962301495
 21
175.9738123469826
 31
0.0
  0
LINE
  5
4EE
330
1F
100
AcDbEntity
  8
1
100
AcDbLine
 10
80.18454962301508
 20
168.4738123469825
 30
0.0
 11
80.18454962301508
 21
183.4738123469826
 31
0.0
  0
LINE
  5
4EF
330
1F
100
AcDbEntity
  8
1
100
AcDbLine
 10
80.18454962301474
 20
352.4738123469826
 30
0.0
 11
80.18454962301474
 21
367.4738123469826
 31
0.0
  0
LINE
  5
4F0
330
1F
100
AcDbEntity
  8
1
100
AcDbLine
 10
72.68454962301508
 20
359.9738123469826
 30
0.0
 11
87.68454962301495
 21
359.9738123469826
 31
0.0
  0
LINE
  5
4FF
330
1F
100
AcDbEntity
  8
0
100
AcDbLine
 10
98.63454962301512
 20
204.0900954895746
 30
0.0
 11
98.63454962301512
 21
219.0575292043916
 31
0.0
  0
LINE
  5
500
330
1F
100
AcDbEntity
  8
0
100
AcDbLine
 10
92.33454962301491
 20
219.6738123469827
 30
0.0
 11
92.33454962301491
 21
203.4738123469826
 31
0.0
  0
LINE
  5
501
330
1F
100
AcDbEntity
  8
0
100
AcDbLine
 10
93.88454962301512
 20
220.1738123469827
 30
0.0
 11
93.88454962301512
 21
202.9738123469825
 31
0.0
  0
LINE
  5
502
330
1F
100
AcDbEntity
  8
0
100
AcDbLine
 10
97.08454962301516
 20
202.9738123469825
 30
0.0
 11
97.08454962301516
 21
220.1738123469827
 31
0.0
  0
LINE
  5
503
330
1F
100
AcDbEntity
  8
0
100
AcDbLine
 10
90.88454962301511
 20
229.1738123469825
 30
0.0
 11
90.88454962301511
 21
193.9738123469826
 31
0.0
  0
LINE
  5
504
330
1F
100
AcDbEntity
  8
0
100
AcDbLine
 10
99.98454962301515
 20
192.9738123469826
 30
0.0
 11
99.98454962301515
 21
230.1738123469827
 31
0.0
  0
LINE
  5
505
330
1F
100
AcDbEntity
  8
0
100
AcDbLine
 10
101.1845497449328
 20
230.6738121876385
 30
0.0
 11
101.1845497449328
 21
185.1738121876385
 31
0.0
  0
LINE
  5
506
330
1F
100
AcDbEntity
  8
0
100
AcDbLine
 10
89.78454974493207
 20
230.6738121876385
 30
0.0
 11
89.78454974493207
 21
185.1738121876385
 31
0.0
  0
LINE
  5
507
330
1F
100
AcDbEntity
  8
0
100
AcDbLine
 10
100.2845496230149
 20
230.6738121876385
 30
0.0
 11
100.2845496230149
 21
185.1738121876385
 31
0.0
  0
LINE
  5
508
330
1F
100
AcDbEntity
  8
0
100
AcDbLine
 10
74.78454974493195
 20
239.5738121876386
 30
0.0
 11
74.78454974493195
 21
185.1738121876385
 31
0.0
  0
LINE
  5
509
330
1F
100
AcDbEntity
  8
0
100
AcDbLine
 10
73.88454962301409
 20
185.9738123469826
 30
0.0
 11
73.88454962301409
 21
226.6138123469824
 31
0.0
  0
LINE
  5
50A
330
1F
100
AcDbEntity
  8
0
100
AcDbLine
 10
65.28454962301395
 20
226.6138123469824
 30
0.0
 11
65.28454962301395
 21
185.9738123469826
 31
0.0
  0
LINE
  5
50B
330
1F
100
AcDbEntity
  8
0
100
AcDbLine
 10
64.18454974493204
 20
271.4738121876385
 30
0.0
 11
64.18454974493204
 21
185.1738121876385
 31
0.0
  0
LINE
  5
50C
330
1F
100
AcDbEntity
  8
0
100
AcDbLine
 10
65.28454962301497
 20
185.1738121876385
 30
0.0
 11
65.28454962301497
 21
271.4738121876385
 31
0.0
  0
LINE
  5
50D
330
1F
100
AcDbEntity
  8
0
100
AcDbLine
 10
56.18454962301507
 20
201.6069927718954
 30
0.0
 11
56.18454962301507
 21
354.9476264254132
 31
0.0
  0
LINE
  5
50E
330
1F
100
AcDbEntity
  8
0
100
AcDbLine
 10
57.18454962301507
 20
354.9738123469826
 30
0.0
 11
57.18454962301405
 21
202.3555928070204
 31
0.0
  0
LINE
  5
50F
330
1F
100
AcDbEntity
  8
0
100
AcDbLine
 10
59.18454962301507
 20
352.9738123469826
 30
0.0
 11
59.18454962301392
 21
203.5595083644865
 31
0.0
  0
LINE
  5
510
330
1F
100
AcDbEntity
  8
0
100
AcDbLine
 10
56.18454962301507
 20
201.6069927718965
 30
0.0
 11
56.18454962301507
 21
354.4738123469826
 31
0.0
  0
LINE
  5
511
330
1F
100
AcDbEntity
  8
0
100
AcDbLine
 10
59.28454962301406
 20
352.7738123469826
 30
0.0
 11
59.28454962301406
 21
203.6659121352816
 31
0.0
  0
LINE
  5
512
330
1F
100
AcDbEntity
  8
0
100
AcDbLine
 10
109.184549623015
 20
363.9738123469826
 30
0.0
 11
109.184549623015
 21
171.9738123469826
 31
0.0
  0
LINE
  5
513
330
1F
100
AcDbEntity
  8
0
100
AcDbLine
 10
107.184549623015
 20
182.9738123469826
 30
0.0
 11
107.184549623015
 21
352.9738123469826
 31
0.0
  0
LINE
  5
514
330
1F
100
AcDbEntity
  8
0
100
AcDbLine
 10
109.184549623015
 20
180.9738123469826
 30
0.0
 11
109.184549623015
 21
354.9738123469826
 31
0.0
  0
LINE
  5
515
330
1F
100
AcDbEntity
  8
0
100
AcDbLine
 10
106.8845496230139
 20
352.7738123469826
 30
0.0
 11
106.8845496230139
 21
183.1738123469826
 31
0.0
  0
LINE
  5
516
330
1F
100
AcDbEntity
  8
0
100
AcDbLine
 10
37.18454962301496
 20
363.5283088878153
 30
0.0
 11
37.18454962301496
 21
172.4193158061494
 31
0.0
  0
ARC
  5
517
330
1F
100
AcDbEntity
  8
0
100
AcDbCircle
 10
80.18454962301508
 20
175.9738123469826
 30
0.0
 40
5.5
100
AcDbArc
 50
0.0
 51
65.38002267134597
  0
LINE
  5
519
330
1F
100
AcDbEntity
  8
0
100
AcDbLine
 10
57.18454962301405
 20
180.9738123469826
 30
0.0
 11
109.184549623015
 21
180.9738123469826
 31
0.0
  0
LINE
  5
51A
330
1F
100
AcDbEntity
  8
0
100
AcDbLine
 10
107.184549623015
 20
182.9738123469826
 30
0.0
 11
62.18454962301007
 21
182.9738123469826
 31
0.0
  0
LINE
  5
51B
330
1F
100
AcDbEntity
  8
0
100
AcDbLine
 10
62.28454962300998
 20
183.1738123469826
 30
0.0
 11
106.8845496230139
 21
183.1738123469826
 31
0.0
  0
LINE
  5
51C
330
1F
100
AcDbEntity
  8
0
100
AcDbLine
 10
37.671461148861
 20
181.4324087082014
 30
0.0
 11
55.18454962301508
 21
180.9738123469826
 31
0.0
  0
LINE
  5
51D
330
1F
100
AcDbEntity
  8
0
100
AcDbLine
 10
55.18454962301508
 20
170.9738123469825
 30
0.0
 11
38.15837267470692
 21
171.4196584811745
 31
0.0
  0
ARC
  5
51E
330
1F
100
AcDbEntity
  8
0
100
AcDbCircle
 10
38.18454962301507
 20
172.4193158061494
 30
0.0
 40
1.0
100
AcDbArc
 50
180.0
 51
268.5000000000036
  0
ARC
  5
51F
330
1F
100
AcDbEntity
  8
0
100
AcDbCircle
 10
37.68454962301496
 20
181.9322373706895
 30
0.0
 40
0.5
100
AcDbArc
 50
180.0
 51
268.5000000000036
  0
LINE
  5
520
330
1F
100
AcDbEntity
  8
0
100
AcDbLine
 10
78.08454962301493
 20
175.9738123469826
 30
0.0
 11
78.08454962301493
 21
170.9738123469825
 31
0.0
  0
LINE
  5
521
330
1F
100
AcDbEntity
  8
0
100
AcDbLine
 10
82.28454962301498
 20
175.9738123469826
 30
0.0
 11
82.28454962301498
 21
170.9738123469825
 31
0.0
  0
LINE
  5
522
330
1F
100
AcDbEntity
  8
0
100
AcDbLine
 10
74.68454962301496
 20
175.9738123469826
 30
0.0
 11
74.68454962301496
 21
170.9738123469825
 31
0.0
  0
LINE
  5
523
330
1F
100
AcDbEntity
  8
0
100
AcDbLine
 10
55.18454962301508
 20
170.9738123469825
 30
0.0
 11
78.08454962301493
 21
170.9738123469825
 31
0.0
  0
LINE
  5
524
330
1F
100
AcDbEntity
  8
0
100
AcDbLine
 10
55.18454962301508
 20
170.9738123469825
 30
0.0
 11
77.93454962301506
 21
170.9738123469825
 31
0.0
  0
LINE
  5
525
330
1F
100
AcDbEntity
  8
0
100
AcDbLine
 10
74.78454974493195
 20
185.1738121876385
 30
0.0
 11
64.18454974493204
 21
185.1738121876385
 31
0.0
  0
LINE
  5
526
330
1F
100
AcDbEntity
  8
0
100
AcDbLine
 10
65.28454962301395
 20
185.9738123469826
 30
0.0
 11
73.88454962301409
 21
185.9738123469826
 31
0.0
  0
LINE
  5
527
330
1F
100
AcDbEntity
  8
0
100
AcDbLine
 10
59.18454962301087
 20
197.9738123469826
 30
0.0
 11
59.18454962300994
 21
181.0785560332593
 31
0.0
  0
LINE
  5
528
330
1F
100
AcDbEntity
  8
0
100
AcDbLine
 10
60.18454962301098
 20
197.9738123469826
 30
0.0
 11
60.18454962300996
 21
180.9738123469826
 31
0.0
  0
LINE
  5
529
330
1F
100
AcDbEntity
  8
0
100
AcDbLine
 10
62.18454962301098
 20
197.9738123469826
 30
0.0
 11
62.18454962301007
 21
182.9738123469826
 31
0.0
  0
LINE
  5
52A
330
1F
100
AcDbEntity
  8
0
100
AcDbLine
 10
59.18454962301087
 20
197.9738123469826
 30
0.0
 11
59.18454962300994
 21
181.4738123469826
 31
0.0
  0
LINE
  5
52B
330
1F
100
AcDbEntity
  8
0
100
AcDbLine
 10
62.28454962301089
 20
197.9738123469826
 30
0.0
 11
62.28454962300998
 21
183.1738123469826
 31
0.0
  0
LINE
  5
52C
330
1F
100
AcDbEntity
  8
0
100
AcDbLine
 10
55.18454962301508
 20
180.9738123469826
 30
0.0
 11
59.18454962300994
 21
181.0785560332593
 31
0.0
  0
LINE
  5
52D
330
1F
100
AcDbEntity
  8
0
100
AcDbLine
 10
55.18454962301508
 20
180.9738123469826
 30
0.0
 11
59.18454962301087
 21
181.0785560332593
 31
0.0
  0
CIRCLE
  5
52E
330
1F
100
AcDbEntity
  8
0
100
AcDbCircle
 10
55.18454962301508
 20
185.9738123469826
 30
0.0
 40
1.6
  0
CIRCLE
  5
52F
330
1F
100
AcDbEntity
  8
0
100
AcDbCircle
 10
55.18454962301508
 20
185.9738123469826
 30
0.0
 40
2.0
  0
LINE
  5
530
330
1F
100
AcDbEntity
  8
0
100
AcDbLine
 10
57.18454962301257
 20
181.0261841901203
 30
0.0
 11
57.18454962301405
 21
180.9738123469826
 31
0.0
  0
LINE
  5
531
330
1F
100
AcDbEntity
  8
0
100
AcDbLine
 10
60.18454962300996
 20
181.4738123469826
 30
0.0
 11
59.18454962300994
 21
181.4738123469815
 31
0.0
  0
ARC
  5
532
330
1F
100
AcDbEntity
  8
0
100
AcDbCircle
 10
55.48454962301502
 20
197.9738123469826
 30
0.0
 40
3.699999999995998
100
AcDbArc
 50
0.0
 51
79.09453000325759
  0
ARC
  5
533
330
1F
100
AcDbEntity
  8
0
100
AcDbCircle
 10
55.48454962301502
 20
197.9738123469826
 30
0.0
 40
4.699999999995998
100
AcDbArc
 50
0.0
 51
68.79523363710617
  0
ARC
  5
534
330
1F
100
AcDbEntity
  8
0
100
AcDbCircle
 10
55.48454962301502
 20
197.9738123469826
 30
0.0
 40
3.699999999995998
100
AcDbArc
 50
0.0
 51
79.09453000325759
  0
LINE
  5
535
330
1F
100
AcDbEntity
  8
0
100
AcDbLine
 10
53.53454962301498
 20
203.9738123469826
 30
0.0
 11
53.53454962301498
 21
205.3238123469824
 31
0.0
  0
LINE
  5
536
330
1F
100
AcDbEntity
  8
0
100
AcDbLine
 10
53.83454962301403
 20
203.9738123469826
 30
0.0
 11
53.83454962301403
 21
205.3238123469824
 31
0.0
  0
ARC
  5
537
330
1F
100
AcDbEntity
  8
0
100
AcDbCircle
 10
53.68454962301496
 20
205.3238123469824
 30
0.0
 40
0.15
100
AcDbArc
 50
0.0
 51
180.0
  0
ARC
  5
538
330
1F
100
AcDbEntity
  8
0
100
AcDbCircle
 10
55.03454962301496
 20
203.8238123469824
 30
0.0
 40
0.15
100
AcDbArc
 50
270.0
 51
90.0
  0
LINE
  5
539
330
1F
100
AcDbEntity
  8
0
100
AcDbLine
 10
53.83454962301403
 20
203.9738123469826
 30
0.0
 11
55.03454962301496
 21
203.9738123469826
 31
0.0
  0
LINE
  5
53A
330
1F
100
AcDbEntity
  8
0
100
AcDbLine
 10
52.73454962301503
 20
203.3238123469824
 30
0.0
 11
54.63454962301409
 21
203.3238123469824
 31
0.0
  0
LINE
  5
53B
330
1F
100
AcDbEntity
  8
0
100
AcDbLine
 10
52.73454962301503
 20
203.0238123469826
 30
0.0
 11
54.63454962301409
 21
203.0238123469826
 31
0.0
  0
LINE
  5
53C
330
1F
100
AcDbEntity
  8
0
100
AcDbLine
 10
53.13454962301512
 20
202.6738123469824
 30
0.0
 11
54.234549623014
 21
202.6738123469824
 31
0.0
  0
LINE
  5
53D
330
1F
100
AcDbEntity
  8
0
100
AcDbLine
 10
53.13454962301512
 20
202.3738123469825
 30
0.0
 11
54.234549623014
 21
202.3738123469825
 31
0.0
  0
ARC
  5
53E
330
1F
100
AcDbEntity
  8
0
100
AcDbCircle
 10
53.13454962301512
 20
202.5238123469825
 30
0.0
 40
0.15
100
AcDbArc
 50
90.0
 51
270.0
  0
ARC
  5
53F
330
1F
100
AcDbEntity
  8
0
100
AcDbCircle
 10
54.234549623014
 20
202.5238123469825
 30
0.0
 40
0.15
100
AcDbArc
 50
270.0
 51
90.0
  0
ARC
  5
540
330
1F
100
AcDbEntity
  8
0
100
AcDbCircle
 10
52.73454962301503
 20
203.1738123469827
 30
0.0
 40
0.15
100
AcDbArc
 50
90.0
 51
270.0
  0
ARC
  5
541
330
1F
100
AcDbEntity
  8
0
100
AcDbCircle
 10
54.63454962301409
 20
203.1738123469827
 30
0.0
 40
0.15
100
AcDbArc
 50
270.0
 51
90.0
  0
ARC
  5
542
330
1F
100
AcDbEntity
  8
0
100
AcDbCircle
 10
52.33454962301514
 20
203.8238123469824
 30
0.0
 40
0.15
100
AcDbArc
 50
90.0
 51
270.0
  0
CIRCLE
  5
543
330
1F
100
AcDbEntity
  8
0
100
AcDbCircle
 10
53.68454962301496
 20
203.9738123469826
 30
0.0
 40
2.149999999999999
  0
CIRCLE
  5
544
330
1F
100
AcDbEntity
  8
0
100
AcDbCircle
 10
53.68454962301496
 20
203.9738123469826
 30
0.0
 40
1.85
  0
LINE
  5
545
330
1F
100
AcDbEntity
  8
0
100
AcDbLine
 10
52.33454962301514
 20
203.6738123469826
 30
0.0
 11
55.03454962301496
 21
203.6738123469826
 31
0.0
  0
LINE
  5
546
330
1F
100
AcDbEntity
  8
0
100
AcDbLine
 10
52.33454962301514
 20
203.9738123469826
 30
0.0
 11
53.53454962301498
 21
203.9738123469826
 31
0.0
  0
CIRCLE
  5
547
330
1F
100
AcDbEntity
  8
0
100
AcDbCircle
 10
55.18454962301508
 20
195.9738123469826
 30
0.0
 40
2.0
  0
CIRCLE
  5
548
330
1F
100
AcDbEntity
  8
0
100
AcDbCircle
 10
55.18454962301508
 20
195.9738123469826
 30
0.0
 40
1.6
  0
ARC
  5
549
330
1F
100
AcDbEntity
  8
0
100
AcDbCircle
 10
55.48454962301502
 20
197.9738123469826
 30
0.0
 40
6.699999999996
100
AcDbArc
 50
0.0
 51
56.47925960398385
  0
ARC
  5
54A
330
1F
100
AcDbEntity
  8
0
100
AcDbCircle
 10
55.38454962301409
 20
197.9738123469826
 30
0.0
 40
6.899999999996
100
AcDbArc
 50
0.0
 51
55.58261128952961
  0
CIRCLE
  5
54B
330
1F
100
AcDbEntity
  8
0
100
AcDbCircle
 10
69.28454962301396
 20
193.5938123469824
 30
0.0
 40
2.0
  0
ARC
  5
54C
330
1F
100
AcDbEntity
  8
0
100
AcDbCircle
 10
80.18454962301508
 20
175.9738123469826
 30
0.0
 40
5.5
100
AcDbArc
 50
114.619977328654
 51
179.9999999999869
  0
CIRCLE
  5
54D
330
1F
100
AcDbEntity
  8
0
100
AcDbCircle
 10
69.28454962301396
 20
188.8438123469825
 30
0.0
 40
1.0
  0
CIRCLE
  5
54E
330
1F
100
AcDbEntity
  8
0
100
AcDbCircle
 10
69.28454962301396
 20
188.8438123469825
 30
0.0
 40
1.5
  0
ARC
  5
54F
330
1F
100
AcDbEntity
  8
0
100
AcDbCircle
 10
80.18454962301508
 20
175.9738123469826
 30
0.0
 40
2.1
100
AcDbArc
 50
0.0
 51
180.0
  0
CIRCLE
  5
550
330
1F
100
AcDbEntity
  8
0
100
AcDbCircle
 10
69.28454962301396
 20
203.7538123469833
 30
0.0
 40
2.0
  0
CIRCLE
  5
551
330
1F
100
AcDbEntity
  8
0
100
AcDbCircle
 10
69.28454962301396
 20
203.7538123469833
 30
0.0
 40
2.0
  0
CIRCLE
  5
552
330
1F
100
AcDbEntity
  8
0
100
AcDbCircle
 10
69.28454962301396
 20
198.6738123469826
 30
0.0
 40
2.0
  0
CIRCLE
  5
553
330
1F
100
AcDbEntity
  8
0
100
AcDbCircle
 10
69.28454962301396
 20
198.6738123469826
 30
0.0
 40
2.0
  0
CIRCLE
  5
554
330
1F
100
AcDbEntity
  8
0
100
AcDbCircle
 10
69.28454962301396
 20
208.8338123469825
 30
0.0
 40
2.0
  0
LINE
  5
556
330
1F
100
AcDbEntity
  8
0
100
AcDbLine
 10
85.68454962301506
 20
175.9738123469826
 30
0.0
 11
85.68454962301506
 21
170.9738123469825
 31
0.0
  0
LINE
  5
55C
330
1F
100
AcDbEntity
  8
0
100
AcDbLine
 10
82.28454962301498
 20
170.9738123469825
 30
0.0
 11
108.1845496230149
 21
170.9738123469825
 31
0.0
  0
ARC
  5
55E
330
1F
100
AcDbEntity
  8
0
100
AcDbCircle
 10
108.1845496230149
 20
171.9738123469826
 30
0.0
 40
1.0
100
AcDbArc
 50
270.0
 51
0.0
  0
LINE
  5
55F
330
1F
100
AcDbEntity
  8
0
100
AcDbLine
 10
100.2845496230138
 20
191.4738123469826
 30
0.0
 11
93.78454962301407
 21
191.4738123469826
 31
0.0
  0
LINE
  5
560
330
1F
100
AcDbEntity
  8
0
100
AcDbLine
 10
91.68454962301494
 20
192.9738123469826
 30
0.0
 11
99.98454962301515
 21
192.9738123469826
 31
0.0
  0
LINE
  5
561
330
1F
100
AcDbEntity
  8
0
100
AcDbLine
 10
90.88454962301511
 20
193.9738123469826
 30
0.0
 11
99.98454962301515
 21
193.9738123469826
 31
0.0
  0
LINE
  5
562
330
1F
100
AcDbEntity
  8
0
100
AcDbLine
 10
93.78454962301407
 20
185.9738123469826
 30
0.0
 11
100.2845496230138
 21
185.9738123469826
 31
0.0
  0
LINE
  5
563
330
1F
100
AcDbEntity
  8
0
100
AcDbLine
 10
101.1845497449328
 20
185.1738121876385
 30
0.0
 11
89.78454974493207
 21
185.1738121876385
 31
0.0
  0
CIRCLE
  5
565
330
1F
100
AcDbEntity
  8
0
100
AcDbCircle
 10
96.85454962301399
 20
189.9738123469824
 30
0.0
 40
0.32
  0
LINE
  5
566
330
1F
100
AcDbEntity
  8
0
100
AcDbLine
 10
94.78454962301396
 20
189.4738123469826
 30
0.0
 11
93.78454962301407
 21
189.4738123469826
 31
0.0
  0
CIRCLE
  5
567
330
1F
100
AcDbEntity
  8
0
100
AcDbCircle
 10
96.85454962301399
 20
187.4738123469826
 30
0.0
 40
0.32
  0
LINE
  5
568
330
1F
100
AcDbEntity
  8
0
100
AcDbLine
 10
93.78454962301407
 20
187.9738123469826
 30
0.0
 11
94.78454962301396
 21
187.9738123469826
 31
0.0
  0
LINE
  5
569
330
1F
100
AcDbEntity
  8
0
100
AcDbLine
 10
93.78454962301407
 20
185.9738123469826
 30
0.0
 11
94.78454962301396
 21
185.9738123469826
 31
0.0
  0
LINE
  5
56A
330
1F
100
AcDbEntity
  8
0
100
AcDbLine
 10
94.78454962301396
 20
187.9738123469826
 30
0.0
 11
94.78454962301396
 21
189.4738123469826
 31
0.0
  0
LINE
  5
56B
330
1F
100
AcDbEntity
  8
0
100
AcDbLine
 10
93.78454962301407
 20
189.4738123469826
 30
0.0
 11
93.78454962301407
 21
187.9738123469826
 31
0.0
  0
LINE
  5
56C
330
1F
100
AcDbEntity
  8
0
100
AcDbLine
 10
94.78454962301396
 20
185.9738123469826
 30
0.0
 11
94.78454962301396
 21
191.4738123469826
 31
0.0
  0
LINE
  5
56D
330
1F
100
AcDbEntity
  8
0
100
AcDbLine
 10
93.78454962301407
 20
191.4738123469826
 30
0.0
 11
93.78454962301407
 21
185.9738123469826
 31
0.0
  0
ARC
  5
56E
330
1F
100
AcDbEntity
  8
0
100
AcDbCircle
 10
91.68454962301494
 20
193.4738123469826
 30
0.0
 40
0.5
100
AcDbArc
 50
180.0
 51
270.0
  0
LINE
  5
56F
330
1F
100
AcDbEntity
  8
0
100
AcDbLine
 10
91.18454962301495
 20
193.9738123469826
 30
0.0
 11
91.18454962301495
 21
193.4738123469826
 31
0.0
  0
ARC
  5
570
330
1F
100
AcDbEntity
  8
0
100
AcDbCircle
 10
96.63454962301512
 20
204.0900954895746
 30
0.0
 40
2.0
100
AcDbArc
 50
285.0000000000006
 51
0.0
  0
LINE
  5
571
330
1F
100
AcDbEntity
  8
0
100
AcDbLine
 10
98.63454962301512
 20
197.9738123469826
 30
0.0
 11
98.63454962301512
 21
200.3738123469825
 31
0.0
  0
ARC
  5
572
330
1F
100
AcDbEntity
  8
0
100
AcDbCircle
 10
94.33454962301516
 20
203.4738123469826
 30
0.0
 40
2.0
100
AcDbArc
 50
180.0
 51
285.0000000000006
  0
LINE
  5
573
330
1F
100
AcDbEntity
  8
0
100
AcDbLine
 10
92.33454962301491
 20
200.3738123469825
 30
0.0
 11
92.33454962301491
 21
197.9738123469826
 31
0.0
  0
LINE
  5
574
330
1F
100
AcDbEntity
  8
0
100
AcDbLine
 10
94.85218771322001
 20
201.5419606944044
 30
0.0
 11
97.15218771322
 21
202.1582438369953
 31
0.0
  0
LINE
  5
575
330
1F
100
AcDbEntity
  8
0
100
AcDbLine
 10
93.88454962301512
 20
202.9738123469825
 30
0.0
 11
97.08454962301516
 21
202.9738123469825
 31
0.0
  0
LINE
  5
576
330
1F
100
AcDbEntity
  8
0
100
AcDbLine
 10
92.33454962301491
 20
200.3738123469825
 30
0.0
 11
98.63454962301512
 21
200.3738123469825
 31
0.0
  0
LINE
  5
577
330
1F
100
AcDbEntity
  8
0
100
AcDbLine
 10
92.33454962301491
 20
198.4738123469826
 30
0.0
 11
98.63454962301512
 21
198.4738123469826
 31
0.0
  0
LINE
  5
578
330
1F
100
AcDbEntity
  8
0
100
AcDbLine
 10
92.33454962301491
 20
197.9738123469826
 30
0.0
 11
98.63454962301512
 21
197.9738123469826
 31
0.0
  0
CIRCLE
  5
579
330
1F
100
AcDbEntity
  8
0
100
AcDbCircle
 10
95.48454962301514
 20
195.9438123469826
 30
0.0
 40
1.399999999999999
  0
LINE
  5
57B
330
1F
100
AcDbEntity
  8
0
100
AcDbLine
 10
100.2845496230138
 20
185.9738123469826
 30
0.0
 11
100.2845496230138
 21
191.4738123469826
 31
0.0
  0
LINE
  5
57C
330
1F
100
AcDbEntity
  8
0
100
AcDbLine
 10
99.98454962301515
 20
210.3038123469825
 30
0.0
 11
100.2845496230149
 21
210.3038123469825
 31
0.0
  0
LINE
  5
57D
330
1F
100
AcDbEntity
  8
0
100
AcDbLine
 10
99.98454962301515
 20
209.0338123469833
 30
0.0
 11
100.2845496230149
 21
209.0338123469833
 31
0.0
  0
LINE
  5
57E
330
1F
100
AcDbEntity
  8
0
100
AcDbLine
 10
99.98454962301515
 20
207.7638123469834
 30
0.0
 11
100.2845496230149
 21
207.7638123469834
 31
0.0
  0
LINE
  5
57F
330
1F
100
AcDbEntity
  8
0
100
AcDbLine
 10
99.98454962301515
 20
207.7638123469834
 30
0.0
 11
100.2845496230149
 21
207.7638123469834
 31
0.0
  0
LINE
  5
580
330
1F
100
AcDbEntity
  8
0
100
AcDbLine
 10
99.98454962301515
 20
206.4938123469834
 30
0.0
 11
100.2845496230149
 21
206.4938123469834
 31
0.0
  0
LINE
  5
581
330
1F
100
AcDbEntity
  8
0
100
AcDbLine
 10
99.98454962301515
 20
205.2238123469833
 30
0.0
 11
100.2845496230149
 21
205.2238123469833
 31
0.0
  0
LINE
  5
582
330
1F
100
AcDbEntity
  8
0
100
AcDbLine
 10
99.98454962301515
 20
203.9538123469834
 30
0.0
 11
100.2845496230149
 21
203.9538123469834
 31
0.0
  0
LINE
  5
583
330
1F
100
AcDbEntity
  8
0
100
AcDbLine
 10
99.98454962301515
 20
200.3738123469825
 30
0.0
 11
100.2845496230149
 21
200.3738123469825
 31
0.0
  0
ARC
  5
584
330
1F
100
AcDbEntity
  8
0
100
AcDbCircle
 10
99.98454962301515
 20
193.2738123469825
 30
0.0
 40
0.3
100
AcDbArc
 50
270.0
 51
0.0
  0
LINE
  5
585
330
1F
100
AcDbEntity
  8
0
100
AcDbLine
 10
100.2845496230149
 20
200.3738123469825
 30
0.0
 11
100.2845496230149
 21
193.2738123469825
 31
0.0
  0
ARC
  5
586
330
1F
100
AcDbEntity
  8
0
100
AcDbCircle
 10
80.18454962301508
 20
359.9738123469826
 30
0.0
 40
5.5
100
AcDbArc
 50
294.619977328654
 51
0.0
  0
LINE
  5
587
330
1F
100
AcDbEntity
  8
0
100
AcDbLine
 10
55.18454962301508
 20
364.9738123469826
 30
0.0
 11
108.1845496230149
 21
364.9738123469826
 31
0.0
  0
LINE
  5
588
330
1F
100
AcDbEntity
  8
0
100
AcDbLine
 10
57.18454962301507
 20
354.9738123469826
 30
0.0
 11
109.184549623015
 21
354.9738123469826
 31
0.0
  0
LINE
  5
589
330
1F
100
AcDbEntity
  8
0
100
AcDbLine
 10
107.184549623015
 20
352.9738123469826
 30
0.0
 11
59.18454962301507
 21
352.9738123469826
 31
0.0
  0
LINE
  5
58A
330
1F
100
AcDbEntity
  8
0
100
AcDbLine
 10
106.8845496230139
 20
352.7738123469826
 30
0.0
 11
59.28454962301406
 21
352.7738123469826
 31
0.0
  0
LINE
  5
58B
330
1F
100
AcDbEntity
  8
0
100
AcDbLine
 10
55.18454962301508
 20
364.9738123469826
 30
0.0
 11
108.1845496230149
 21
364.9738123469826
 31
0.0
  0
CIRCLE
  5
58C
330
1F
100
AcDbEntity
  8
0
100
AcDbCircle
 10
80.18454962301508
 20
359.9738123469826
 30
0.0
 40
2.1
  0
LINE
  5
58D
330
1F
100
AcDbEntity
  8
0
100
AcDbLine
 10
74.68454962301496
 20
359.9738123469826
 30
0.0
 11
74.68454962301496
 21
364.9738123469826
 31
0.0
  0
LINE
  5
58E
330
1F
100
AcDbEntity
  8
0
100
AcDbLine
 10
76.1295496230141
 20
301.1338123469823
 30
0.0
 11
76.1295496230141
 21
276.9738123469826
 31
0.0
  0
LINE
  5
58F
330
1F
100
AcDbEntity
  8
0
100
AcDbLine
 10
76.5845497449319
 20
302.1738121876385
 30
0.0
 11
76.5845497449319
 21
275.9738121876385
 31
0.0
  0
LINE
  5
590
330
1F
100
AcDbEntity
  8
0
100
AcDbLine
 10
67.78454962301407
 20
301.1338123469823
 30
0.0
 11
67.78454962301407
 21
276.9738123469826
 31
0.0
  0
LINE
  5
591
330
1F
100
AcDbEntity
  8
0
100
AcDbLine
 10
74.76954962301397
 20
301.1338123469823
 30
0.0
 11
74.76954962301397
 21
276.9738123469826
 31
0.0
  0
LINE
  5
592
330
1F
100
AcDbEntity
  8
0
100
AcDbLine
 10
66.78454962301407
 20
301.1338123469823
 30
0.0
 11
66.78454962301407
 21
276.9738123469826
 31
0.0
  0
LINE
  5
593
330
1F
100
AcDbEntity
  8
0
100
AcDbLine
 10
64.18454974493204
 20
302.1738121876385
 30
0.0
 11
64.18454974493204
 21
275.9738121876385
 31
0.0
  0
LINE
  5
594
330
1F
100
AcDbEntity
  8
0
100
AcDbLine
 10
65.28454962301497
 20
275.9738121876385
 30
0.0
 11
65.28454962301497
 21
302.1738121876385
 31
0.0
  0
LINE
  5
595
330
1F
100
AcDbEntity
  8
0
100
AcDbLine
 10
72.28454962301404
 20
252.5438123469824
 30
0.0
 11
72.28454962301404
 21
247.5438123469825
 31
0.0
  0
LINE
  5
596
330
1F
100
AcDbEntity
  8
0
100
AcDbLine
 10
67.28454962301407
 20
251.7538123469825
 30
0.0
 11
67.28454962301407
 21
248.3338123469825
 31
0.0
  0
LINE
  5
597
330
1F
100
AcDbEntity
  8
0
100
AcDbLine
 10
74.78454974493195
 20
256.5738121876385
 30
0.0
 11
74.78454974493195
 21
243.1738121876385
 31
0.0
  0
LINE
  5
598
330
1F
100
AcDbEntity
  8
0
100
AcDbLine
 10
73.78454962301396
 20
234.6138123469824
 30
0.0
 11
73.78454962301396
 21
265.1138123469825
 31
0.0
  0
LINE
  5
599
330
1F
100
AcDbEntity
  8
0
100
AcDbLine
 10
65.28454962301395
 20
270.4738123469826
 30
0.0
 11
65.28454962301395
 21
229.6138123469825
 31
0.0
  0
ARC
  5
59A
330
1F
100
AcDbEntity
  8
0
100
AcDbCircle
 10
69.28454962301396
 20
238.6138123469824
 30
0.0
 40
2.9
100
AcDbArc
 50
133.6028189726939
 51
226.3971810273058
  0
LINE
  5
59B
330
1F
100
AcDbEntity
  8
0
100
AcDbLine
 10
65.28454962301395
 20
229.6138123469825
 30
0.0
 11
72.28454962301404
 21
229.6138123469825
 31
0.0
  0
LINE
  5
59C
330
1F
100
AcDbEntity
  8
0
100
AcDbLine
 10
65.28454962301395
 20
229.6138123469825
 30
0.0
 11
72.28454962301404
 21
229.6138123469825
 31
0.0
  0
LINE
  5
59D
330
1F
100
AcDbEntity
  8
0
100
AcDbLine
 10
73.88454962301409
 20
226.6138123469824
 30
0.0
 11
65.28454962301395
 21
226.6138123469824
 31
0.0
  0
ARC
  5
59E
330
1F
100
AcDbEntity
  8
0
100
AcDbCircle
 10
69.28454962301396
 20
246.2338123469826
 30
0.0
 40
2.9
100
AcDbArc
 50
133.6028189726939
 51
226.3971810273058
  0
LINE
  5
59F
330
1F
100
AcDbEntity
  8
0
100
AcDbLine
 10
65.28454962301395
 20
234.8538123469825
 30
0.0
 11
65.28454962301395
 21
229.6138123469825
 31
0.0
  0
LINE
  5
5A0
330
1F
100
AcDbEntity
  8
0
100
AcDbLine
 10
72.28454962301404
 20
229.6138123469825
 30
0.0
 11
72.28454962301404
 21
234.6138123469824
 31
0.0
  0
LINE
  5
5A1
330
1F
100
AcDbEntity
  8
0
100
AcDbLine
 10
72.28454962301404
 20
229.6138123469825
 30
0.0
 11
72.28454962301404
 21
234.8538123469825
 31
0.0
  0
CIRCLE
  5
5A2
330
1F
100
AcDbEntity
  8
0
100
AcDbCircle
 10
69.28454962301396
 20
223.7438123469835
 30
0.0
 40
1.0
  0
CIRCLE
  5
5A3
330
1F
100
AcDbEntity
  8
0
100
AcDbCircle
 10
69.28454962301396
 20
223.7438123469835
 30
0.0
 40
1.5
  0
CIRCLE
  5
5A4
330
1F
100
AcDbEntity
  8
0
100
AcDbCircle
 10
69.28454962301396
 20
213.9138123469824
 30
0.0
 40
2.0
  0
CIRCLE
  5
5A5
330
1F
100
AcDbEntity
  8
0
100
AcDbCircle
 10
69.28454962301396
 20
213.9138123469824
 30
0.0
 40
2.0
  0
CIRCLE
  5
5A6
330
1F
100
AcDbEntity
  8
0
100
AcDbCircle
 10
69.28454962301396
 20
218.9938123469834
 30
0.0
 40
2.0
  0
LINE
  5
5A7
330
1F
100
AcDbEntity
  8
0
100
AcDbLine
 10
74.78454974493195
 20
243.1738121876385
 30
0.0
 11
76.38454974493196
 21
243.1738121876385
 31
0.0
  0
LINE
  5
5A8
330
1F
100
AcDbEntity
  8
0
100
AcDbLine
 10
73.78454962301396
 20
242.1638123469824
 30
0.0
 11
75.48454962301423
 21
242.1638123469824
 31
0.0
  0
LINE
  5
5A9
330
1F
100
AcDbEntity
  8
0
100
AcDbLine
 10
75.48454962301423
 20
240.5638123469825
 30
0.0
 11
73.78454962301396
 21
240.5638123469825
 31
0.0
  0
LINE
  5
5AA
330
1F
100
AcDbEntity
  8
0
100
AcDbLine
 10
74.78454974493195
 20
239.5738121876386
 30
0.0
 11
76.38454974493196
 21
239.5738121876386
 31
0.0
  0
LINE
  5
5AB
330
1F
100
AcDbEntity
  8
0
100
AcDbLine
 10
71.48454962301423
 20
247.5438123469825
 30
0.0
 11
72.28454962301404
 21
247.5438123469825
 31
0.0
  0
LINE
  5
5AC
330
1F
100
AcDbEntity
  8
0
100
AcDbLine
 10
71.48454962301423
 20
244.9238123469827
 30
0.0
 11
72.28454962301404
 21
244.9238123469827
 31
0.0
  0
LINE
  5
5AD
330
1F
100
AcDbEntity
  8
0
100
AcDbLine
 10
71.48454962301423
 20
247.5438123469825
 30
0.0
 11
71.48454962301423
 21
244.9238123469827
 31
0.0
  0
CIRCLE
  5
5AE
330
1F
100
AcDbEntity
  8
0
100
AcDbCircle
 10
69.28454962301396
 20
246.2338123469826
 30
0.0
 40
0.75
  0
LINE
  5
5AF
330
1F
100
AcDbEntity
  8
0
100
AcDbLine
 10
71.48454962301423
 20
239.9238123469825
 30
0.0
 11
72.28454962301404
 21
239.9238123469825
 31
0.0
  0
LINE
  5
5B0
330
1F
100
AcDbEntity
  8
0
100
AcDbLine
 10
72.28454962301404
 20
234.6138123469824
 30
0.0
 11
73.78454962301396
 21
234.6138123469824
 31
0.0
  0
LINE
  5
5B1
330
1F
100
AcDbEntity
  8
0
100
AcDbLine
 10
71.48454962301423
 20
237.3038123469825
 30
0.0
 11
72.28454962301404
 21
237.3038123469825
 31
0.0
  0
LINE
  5
5B2
330
1F
100
AcDbEntity
  8
0
100
AcDbLine
 10
72.28454962301404
 20
237.3038123469825
 30
0.0
 11
72.28454962301404
 21
235.6138123469825
 31
0.0
  0
LINE
  5
5B3
330
1F
100
AcDbEntity
  8
0
100
AcDbLine
 10
71.48454962301423
 20
239.9238123469825
 30
0.0
 11
71.48454962301423
 21
237.3038123469825
 31
0.0
  0
LINE
  5
5B4
330
1F
100
AcDbEntity
  8
0
100
AcDbLine
 10
67.28454962301407
 20
244.1338123469825
 30
0.0
 11
67.28454962301407
 21
240.7138123469826
 31
0.0
  0
LINE
  5
5B5
330
1F
100
AcDbEntity
  8
0
100
AcDbLine
 10
67.28454962301407
 20
236.5138123469824
 30
0.0
 11
67.28454962301407
 21
235.6138123469825
 31
0.0
  0
CIRCLE
  5
5B6
330
1F
100
AcDbEntity
  8
0
100
AcDbCircle
 10
69.28454962301396
 20
238.6138123469824
 30
0.0
 40
0.75
  0
CIRCLE
  5
5B7
330
1F
100
AcDbEntity
  8
0
100
AcDbCircle
 10
69.24816356261101
 20
232.5138123469826
 30
0.0
 40
0.9
  0
LINE
  5
5B8
330
1F
100
AcDbEntity
  8
0
100
AcDbLine
 10
67.28454962301407
 20
235.6138123469825
 30
0.0
 11
72.28454962301404
 21
235.6138123469825
 31
0.0
  0
CIRCLE
  5
5B9
330
1F
100
AcDbEntity
  8
0
100
AcDbCircle
 10
69.28454962301396
 20
238.6138123469824
 30
0.0
 40
1.5
  0
CIRCLE
  5
5BA
330
1F
100
AcDbEntity
  8
0
100
AcDbCircle
 10
69.24816356261101
 20
232.5138123469826
 30
0.0
 40
2.0
  0
LINE
  5
5BB
330
1F
100
AcDbEntity
  8
0
100
AcDbLine
 10
72.28454962301404
 20
244.9238123469827
 30
0.0
 11
72.28454962301404
 21
239.9238123469825
 31
0.0
  0
CIRCLE
  5
5BC
330
1F
100
AcDbEntity
  8
0
100
AcDbCircle
 10
69.28454962301396
 20
246.2338123469826
 30
0.0
 40
1.5
  0
LINE
  5
5BD
330
1F
100
AcDbEntity
  8
0
100
AcDbLine
 10
75.48454962301423
 20
242.1638123469824
 30
0.0
 11
75.48454962301423
 21
240.5638123469825
 31
0.0
  0
LINE
  5
5BE
330
1F
100
AcDbEntity
  8
0
100
AcDbLine
 10
76.38454974493196
 20
243.1738121876385
 30
0.0
 11
76.38454974493196
 21
239.5738121876386
 31
0.0
  0
LINE
  5
5BF
330
1F
100
AcDbEntity
  8
0
100
AcDbLine
 10
66.78454962301407
 20
276.9738123469826
 30
0.0
 11
76.1295496230141
 21
276.9738123469826
 31
0.0
  0
LINE
  5
5C0
330
1F
100
AcDbEntity
  8
0
100
AcDbLine
 10
64.18454974493204
 20
271.4738121876385
 30
0.0
 11
74.78454974493195
 21
271.4738121876385
 31
0.0
  0
LINE
  5
5C1
330
1F
100
AcDbEntity
  8
0
100
AcDbLine
 10
65.28454962301395
 20
270.4738123469826
 30
0.0
 11
72.28454962301404
 21
270.4738123469826
 31
0.0
  0
LINE
  5
5C2
330
1F
100
AcDbEntity
  8
0
100
AcDbLine
 10
65.28454962301395
 20
270.4738123469826
 30
0.0
 11
72.28454962301404
 21
270.4738123469826
 31
0.0
  0
ARC
  5
5C3
330
1F
100
AcDbEntity
  8
0
100
AcDbCircle
 10
69.28454962301396
 20
253.8538123469824
 30
0.0
 40
2.9
100
AcDbArc
 50
133.6028189726939
 51
226.3971810273058
  0
ARC
  5
5C4
330
1F
100
AcDbEntity
  8
0
100
AcDbCircle
 10
69.28454962301396
 20
261.4738123469826
 30
0.0
 40
2.9
100
AcDbArc
 50
133.6028189726939
 51
226.3971810273058
  0
LINE
  5
5C5
330
1F
100
AcDbEntity
  8
0
100
AcDbLine
 10
64.18454974493204
 20
275.9738121876385
 30
0.0
 11
76.5845497449319
 21
275.9738121876385
 31
0.0
  0
LINE
  5
5C6
330
1F
100
AcDbEntity
  8
0
100
AcDbLine
 10
65.28454962301395
 20
265.2338123469826
 30
0.0
 11
65.28454962301395
 21
270.4738123469826
 31
0.0
  0
LINE
  5
5C7
330
1F
100
AcDbEntity
  8
0
100
AcDbLine
 10
66.78454962301407
 20
284.4738123469826
 30
0.0
 11
65.28454962301497
 21
284.4738123469826
 31
0.0
  0
LINE
  5
5C8
330
1F
100
AcDbEntity
  8
0
100
AcDbLine
 10
65.28454962301497
 20
283.4738123469826
 30
0.0
 11
66.78454962301407
 21
283.4738123469826
 31
0.0
  0
LINE
  5
5C9
330
1F
100
AcDbEntity
  8
0
100
AcDbLine
 10
66.78454962301407
 20
283.4738123469826
 30
0.0
 11
66.78454962301407
 21
284.4738123469826
 31
0.0
  0
LINE
  5
5CA
330
1F
100
AcDbEntity
  8
0
100
AcDbLine
 10
66.78454962301407
 20
279.9738123469826
 30
0.0
 11
65.28454962301395
 21
279.9738123469826
 31
0.0
  0
LINE
  5
5CB
330
1F
100
AcDbEntity
  8
0
100
AcDbLine
 10
65.28454962301395
 20
276.9738123469826
 30
0.0
 11
66.78454962301407
 21
276.9738123469826
 31
0.0
  0
LINE
  5
5CC
330
1F
100
AcDbEntity
  8
0
100
AcDbLine
 10
66.78454962301407
 20
276.9738123469826
 30
0.0
 11
66.78454962301407
 21
277.9738123469826
 31
0.0
  0
LINE
  5
5CD
330
1F
100
AcDbEntity
  8
0
100
AcDbLine
 10
66.78454962301407
 20
276.9738123469826
 30
0.0
 11
66.78454962301407
 21
279.9738123469826
 31
0.0
  0
LINE
  5
5CE
330
1F
100
AcDbEntity
  8
0
100
AcDbLine
 10
65.28454962301395
 20
279.9738123469826
 30
0.0
 11
65.28454962301395
 21
276.9738123469826
 31
0.0
  0
LINE
  5
5CF
330
1F
100
AcDbEntity
  8
0
100
AcDbLine
 10
72.28454962301404
 20
265.4738123469826
 30
0.0
 11
72.28454962301404
 21
270.4738123469826
 31
0.0
  0
LINE
  5
5D0
330
1F
100
AcDbEntity
  8
0
100
AcDbLine
 10
72.28454962301404
 20
270.4738123469826
 30
0.0
 11
72.28454962301404
 21
265.2338123469826
 31
0.0
  0
CIRCLE
  5
5D1
330
1F
100
AcDbEntity
  8
0
100
AcDbCircle
 10
69.28454962301396
 20
267.5738123469824
 30
0.0
 40
0.9
  0
CIRCLE
  5
5D2
330
1F
100
AcDbEntity
  8
0
100
AcDbCircle
 10
69.28454962301396
 20
267.5738123469824
 30
0.0
 40
2.0
  0
LINE
  5
5D3
330
1F
100
AcDbEntity
  8
0
100
AcDbLine
 10
74.78454974493195
 20
271.4738121876385
 30
0.0
 11
74.78454974493195
 21
260.1738121876385
 31
0.0
  0
LINE
  5
5D4
330
1F
100
AcDbEntity
  8
0
100
AcDbLine
 10
74.78454974493195
 20
260.1738121876385
 30
0.0
 11
76.38454974493196
 21
260.1738121876385
 31
0.0
  0
LINE
  5
5D5
330
1F
100
AcDbEntity
  8
0
100
AcDbLine
 10
75.48454962301423
 20
259.1638123469824
 30
0.0
 11
73.78454962301396
 21
259.1638123469824
 31
0.0
  0
LINE
  5
5D6
330
1F
100
AcDbEntity
  8
0
100
AcDbLine
 10
74.78454974493195
 20
256.5738121876385
 30
0.0
 11
76.38454974493196
 21
256.5738121876385
 31
0.0
  0
LINE
  5
5D7
330
1F
100
AcDbEntity
  8
0
100
AcDbLine
 10
75.48454962301423
 20
257.5638123469825
 30
0.0
 11
73.78454962301396
 21
257.5638123469825
 31
0.0
  0
LINE
  5
5D8
330
1F
100
AcDbEntity
  8
0
100
AcDbLine
 10
72.28454962301404
 20
265.4738123469826
 30
0.0
 11
73.78454962301396
 21
265.4738123469826
 31
0.0
  0
LINE
  5
5D9
330
1F
100
AcDbEntity
  8
0
100
AcDbLine
 10
73.78454962301396
 20
265.4738123469826
 30
0.0
 11
73.78454962301396
 21
265.1138123469825
 31
0.0
  0
LINE
  5
5DA
330
1F
100
AcDbEntity
  8
0
100
AcDbLine
 10
67.28454962301407
 20
264.1138123469825
 30
0.0
 11
67.28454962301407
 21
263.5738123469824
 31
0.0
  0
LINE
  5
5DB
330
1F
100
AcDbEntity
  8
0
100
AcDbLine
 10
72.28454962301404
 20
264.1138123469825
 30
0.0
 11
67.28454962301407
 21
264.1138123469825
 31
0.0
  0
LINE
  5
5DC
330
1F
100
AcDbEntity
  8
0
100
AcDbLine
 10
71.48454962301423
 20
262.7838123469826
 30
0.0
 11
72.28454962301404
 21
262.7838123469826
 31
0.0
  0
LINE
  5
5DD
330
1F
100
AcDbEntity
  8
0
100
AcDbLine
 10
71.48454962301423
 20
260.1638123469824
 30
0.0
 11
72.28454962301404
 21
260.1638123469824
 31
0.0
  0
LINE
  5
5DE
330
1F
100
AcDbEntity
  8
0
100
AcDbLine
 10
71.48454962301423
 20
262.7838123469826
 30
0.0
 11
71.48454962301423
 21
260.1638123469824
 31
0.0
  0
LINE
  5
5DF
330
1F
100
AcDbEntity
  8
0
100
AcDbLine
 10
71.48454962301423
 20
255.1638123469824
 30
0.0
 11
72.28454962301404
 21
255.1638123469824
 31
0.0
  0
LINE
  5
5E0
330
1F
100
AcDbEntity
  8
0
100
AcDbLine
 10
71.48454962301423
 20
252.5438123469824
 30
0.0
 11
72.28454962301404
 21
252.5438123469824
 31
0.0
  0
LINE
  5
5E1
330
1F
100
AcDbEntity
  8
0
100
AcDbLine
 10
71.48454962301423
 20
255.1638123469824
 30
0.0
 11
71.48454962301423
 21
252.5438123469824
 31
0.0
  0
LINE
  5
5E2
330
1F
100
AcDbEntity
  8
0
100
AcDbLine
 10
72.28454962301404
 20
260.1638123469824
 30
0.0
 11
72.28454962301404
 21
255.1638123469824
 31
0.0
  0
CIRCLE
  5
5E3
330
1F
100
AcDbEntity
  8
0
100
AcDbCircle
 10
69.28454962301396
 20
261.4738123469826
 30
0.0
 40
0.75
  0
CIRCLE
  5
5E4
330
1F
100
AcDbEntity
  8
0
100
AcDbCircle
 10
69.28454962301396
 20
253.8538123469824
 30
0.0
 40
0.75
  0
LINE
  5
5E5
330
1F
100
AcDbEntity
  8
0
100
AcDbLine
 10
67.28454962301407
 20
259.3738123469825
 30
0.0
 11
67.28454962301407
 21
255.9538123469826
 31
0.0
  0
CIRCLE
  5
5E6
330
1F
100
AcDbEntity
  8
0
100
AcDbCircle
 10
69.28454962301396
 20
261.4738123469826
 30
0.0
 40
1.5
  0
CIRCLE
  5
5E7
330
1F
100
AcDbEntity
  8
0
100
AcDbCircle
 10
69.28454962301396
 20
253.8538123469824
 30
0.0
 40
1.5
  0
LINE
  5
5E8
330
1F
100
AcDbEntity
  8
0
100
AcDbLine
 10
72.28454962301404
 20
264.1138123469825
 30
0.0
 11
72.28454962301404
 21
262.7838123469826
 31
0.0
  0
LINE
  5
5E9
330
1F
100
AcDbEntity
  8
0
100
AcDbLine
 10
76.38454974493196
 20
260.1738121876385
 30
0.0
 11
76.38454974493196
 21
256.5738121876385
 31
0.0
  0
LINE
  5
5EA
330
1F
100
AcDbEntity
  8
0
100
AcDbLine
 10
75.48454962301423
 20
259.1638123469824
 30
0.0
 11
75.48454962301423
 21
257.5638123469825
 31
0.0
  0
LINE
  5
5EB
330
1F
100
AcDbEntity
  8
0
100
AcDbLine
 10
71.78454962301406
 20
284.9738123469826
 30
0.0
 11
70.78454962301406
 21
284.9738123469826
 31
0.0
  0
LINE
  5
5EC
330
1F
100
AcDbEntity
  8
0
100
AcDbLine
 10
70.78454962301406
 20
282.9738123469826
 30
0.0
 11
71.78454962301406
 21
282.9738123469826
 31
0.0
  0
LINE
  5
5ED
330
1F
100
AcDbEntity
  8
0
100
AcDbLine
 10
71.78454962301406
 20
282.9738123469826
 30
0.0
 11
71.78454962301406
 21
284.9738123469826
 31
0.0
  0
LINE
  5
5EE
330
1F
100
AcDbEntity
  8
0
100
AcDbLine
 10
70.78454962301406
 20
284.9738123469826
 30
0.0
 11
70.78454962301406
 21
282.9738123469826
 31
0.0
  0
LINE
  5
5EF
330
1F
100
AcDbEntity
  8
0
100
AcDbLine
 10
67.78454962301407
 20
277.9738123469826
 30
0.0
 11
74.76954962301397
 21
277.9738123469826
 31
0.0
  0
LINE
  5
5F0
330
1F
100
AcDbEntity
  8
0
100
AcDbLine
 10
37.671461148861
 20
354.5152159857643
 30
0.0
 11
55.18454962301508
 21
354.9738123469826
 31
0.0
  0
ARC
  5
5F1
330
1F
100
AcDbEntity
  8
0
100
AcDbCircle
 10
37.68454962301496
 20
354.0153873232765
 30
0.0
 40
0.5
100
AcDbArc
 50
91.49999999999627
 51
180.0
  0
LINE
  5
5F2
330
1F
100
AcDbEntity
  8
0
100
AcDbLine
 10
77.0845497449319
 20
331.0738121876386
 30
0.0
 11
77.0845497449319
 21
322.8738121876385
 31
0.0
  0
LINE
  5
5F3
330
1F
100
AcDbEntity
  8
0
100
AcDbLine
 10
75.48454962301502
 20
323.4138123469824
 30
0.0
 11
75.48454962301502
 21
330.0538123469825
 31
0.0
  0
LINE
  5
5F4
330
1F
100
AcDbEntity
  8
0
100
AcDbLine
 10
65.28454962301497
 20
323.4138123469824
 30
0.0
 11
65.28454962301497
 21
330.0538123469825
 31
0.0
  0
LINE
  5
5F5
330
1F
100
AcDbEntity
  8
0
100
AcDbLine
 10
64.18454974493204
 20
339.0738121876386
 30
0.0
 11
64.18454974493204
 21
306.0738121876386
 31
0.0
  0
LINE
  5
5F6
330
1F
100
AcDbEntity
  8
0
100
AcDbLine
 10
65.28454962301509
 20
306.0738121876386
 30
0.0
 11
65.28454962301497
 21
339.0738121876386
 31
0.0
  0
LINE
  5
5F7
330
1F
100
AcDbEntity
  8
0
100
AcDbLine
 10
72.53454962301498
 20
322.4138123469824
 30
0.0
 11
65.28454962301395
 21
322.4138123469824
 31
0.0
  0
LINE
  5
5F8
330
1F
100
AcDbEntity
  8
0
100
AcDbLine
 10
75.48454962301502
 20
323.4138123469824
 30
0.0
 11
65.28454962301497
 21
323.4138123469824
 31
0.0
  0
LINE
  5
5F9
330
1F
100
AcDbEntity
  8
0
100
AcDbLine
 10
66.78454962301407
 20
301.1338123469823
 30
0.0
 11
67.78454962301407
 21
301.1338123469823
 31
0.0
  0
LINE
  5
5FA
330
1F
100
AcDbEntity
  8
0
100
AcDbLine
 10
65.28454962301395
 20
307.0138123469825
 30
0.0
 11
72.53454962301498
 21
307.0138123469825
 31
0.0
  0
LINE
  5
5FB
330
1F
100
AcDbEntity
  8
0
100
AcDbLine
 10
64.18454974493204
 20
306.0738121876386
 30
0.0
 11
73.48454974493211
 21
306.0738121876386
 31
0.0
  0
LINE
  5
5FC
330
1F
100
AcDbEntity
  8
0
100
AcDbLine
 10
76.1295496230141
 20
301.1338123469823
 30
0.0
 11
66.78454962301407
 21
301.1338123469823
 31
0.0
  0
LINE
  5
5FD
330
1F
100
AcDbEntity
  8
0
100
AcDbLine
 10
64.18454974493204
 20
302.1738121876385
 30
0.0
 11
76.5845497449319
 21
302.1738121876385
 31
0.0
  0
LINE
  5
5FE
330
1F
100
AcDbEntity
  8
0
100
AcDbLine
 10
66.78454962301407
 20
301.1338123469823
 30
0.0
 11
65.28454962301395
 21
301.1338123469823
 31
0.0
  0
LINE
  5
5FF
330
1F
100
AcDbEntity
  8
0
100
AcDbLine
 10
65.28454962301395
 20
298.1338123469825
 30
0.0
 11
66.78454962301407
 21
298.1338123469825
 31
0.0
  0
LINE
  5
600
330
1F
100
AcDbEntity
  8
0
100
AcDbLine
 10
66.78454962301407
 20
293.6338123469825
 30
0.0
 11
66.78454962301407
 21
294.6338123469825
 31
0.0
  0
LINE
  5
601
330
1F
100
AcDbEntity
  8
0
100
AcDbLine
 10
65.28454962301497
 20
293.6338123469825
 30
0.0
 11
66.78454962301407
 21
293.6338123469825
 31
0.0
  0
LINE
  5
602
330
1F
100
AcDbEntity
  8
0
100
AcDbLine
 10
66.78454962301407
 20
294.6338123469825
 30
0.0
 11
65.28454962301497
 21
294.6338123469825
 31
0.0
  0
LINE
  5
603
330
1F
100
AcDbEntity
  8
0
100
AcDbLine
 10
66.78454962301407
 20
288.5538123469824
 30
0.0
 11
66.78454962301407
 21
289.5538123469825
 31
0.0
  0
LINE
  5
604
330
1F
100
AcDbEntity
  8
0
100
AcDbLine
 10
65.28454962301497
 20
288.5538123469824
 30
0.0
 11
66.78454962301407
 21
288.5538123469824
 31
0.0
  0
LINE
  5
605
330
1F
100
AcDbEntity
  8
0
100
AcDbLine
 10
66.78454962301407
 20
289.5538123469825
 30
0.0
 11
65.28454962301497
 21
289.5538123469825
 31
0.0
  0
LINE
  5
606
330
1F
100
AcDbEntity
  8
0
100
AcDbLine
 10
66.78454962301407
 20
301.1338123469823
 30
0.0
 11
66.78454962301407
 21
300.1338123469825
 31
0.0
  0
LINE
  5
607
330
1F
100
AcDbEntity
  8
0
100
AcDbLine
 10
66.78454962301407
 20
298.1338123469825
 30
0.0
 11
66.78454962301407
 21
301.1338123469823
 31
0.0
  0
LINE
  5
608
330
1F
100
AcDbEntity
  8
0
100
AcDbLine
 10
65.28454962301395
 20
301.1338123469823
 30
0.0
 11
65.28454962301395
 21
298.1338123469825
 31
0.0
  0
LINE
  5
609
330
1F
100
AcDbEntity
  8
0
100
AcDbLine
 10
65.28454962301395
 20
322.4138123469824
 30
0.0
 11
65.28454962301395
 21
307.0138123469825
 31
0.0
  0
LINE
  5
60A
330
1F
100
AcDbEntity
  8
0
100
AcDbLine
 10
75.2695496230141
 20
301.1338123469823
 30
0.0
 11
74.76954962301397
 21
301.1338123469823
 31
0.0
  0
LINE
  5
60B
330
1F
100
AcDbEntity
  8
0
100
AcDbLine
 10
70.78454962301406
 20
293.1338123469823
 30
0.0
 11
71.78454962301406
 21
293.1338123469823
 31
0.0
  0
LINE
  5
60C
330
1F
100
AcDbEntity
  8
0
100
AcDbLine
 10
71.78454962301406
 20
293.1338123469823
 30
0.0
 11
71.78454962301406
 21
295.1338123469824
 31
0.0
  0
LINE
  5
60D
330
1F
100
AcDbEntity
  8
0
100
AcDbLine
 10
71.78454962301406
 20
295.1338123469824
 30
0.0
 11
70.78454962301406
 21
295.1338123469824
 31
0.0
  0
LINE
  5
60E
330
1F
100
AcDbEntity
  8
0
100
AcDbLine
 10
70.78454962301406
 20
295.1338123469824
 30
0.0
 11
70.78454962301406
 21
293.1338123469823
 31
0.0
  0
LINE
  5
60F
330
1F
100
AcDbEntity
  8
0
100
AcDbLine
 10
71.78454962301406
 20
290.0538123469825
 30
0.0
 11
70.78454962301406
 21
290.0538123469825
 31
0.0
  0
LINE
  5
610
330
1F
100
AcDbEntity
  8
0
100
AcDbLine
 10
70.78454962301406
 20
288.0538123469825
 30
0.0
 11
71.78454962301406
 21
288.0538123469825
 31
0.0
  0
LINE
  5
611
330
1F
100
AcDbEntity
  8
0
100
AcDbLine
 10
71.78454962301406
 20
288.0538123469825
 30
0.0
 11
71.78454962301406
 21
290.0538123469825
 31
0.0
  0
LINE
  5
612
330
1F
100
AcDbEntity
  8
0
100
AcDbLine
 10
70.78454962301406
 20
290.0538123469825
 30
0.0
 11
70.78454962301406
 21
288.0538123469825
 31
0.0
  0
LINE
  5
613
330
1F
100
AcDbEntity
  8
0
100
AcDbLine
 10
67.78454962301407
 20
300.1338123469825
 30
0.0
 11
74.76954962301397
 21
300.1338123469825
 31
0.0
  0
LINE
  5
614
330
1F
100
AcDbEntity
  8
0
100
AcDbLine
 10
73.48454974493211
 20
322.8738121876385
 30
0.0
 11
77.0845497449319
 21
322.8738121876385
 31
0.0
  0
CIRCLE
  5
615
330
1F
100
AcDbEntity
  8
0
100
AcDbCircle
 10
68.78454962301407
 20
312.9638123469823
 30
0.0
 40
1.0
  0
CIRCLE
  5
616
330
1F
100
AcDbEntity
  8
0
100
AcDbCircle
 10
68.78454962301407
 20
316.4638123469823
 30
0.0
 40
1.0
  0
CIRCLE
  5
617
330
1F
100
AcDbEntity
  8
0
100
AcDbCircle
 10
68.78454962301407
 20
309.4638123469826
 30
0.0
 40
1.0
  0
CIRCLE
  5
618
330
1F
100
AcDbEntity
  8
0
100
AcDbCircle
 10
68.78454962301407
 20
319.9638123469826
 30
0.0
 40
1.0
  0
LINE
  5
619
330
1F
100
AcDbEntity
  8
0
100
AcDbLine
 10
72.53454962301498
 20
307.0138123469825
 30
0.0
 11
72.53454962301498
 21
322.4138123469824
 31
0.0
  0
LINE
  5
61A
330
1F
100
AcDbEntity
  8
0
100
AcDbLine
 10
73.48454974493211
 20
322.8738121876385
 30
0.0
 11
73.48454974493211
 21
306.0738121876386
 31
0.0
  0
CIRCLE
  5
61B
330
1F
100
AcDbEntity
  8
0
100
AcDbCircle
 10
67.78454974493206
 20
347.7738121876384
 30
0.0
 40
1.399999999999999
  0
CIRCLE
  5
61C
330
1F
100
AcDbEntity
  8
0
100
AcDbCircle
 10
67.78454974493206
 20
342.9738121876383
 30
0.0
 40
1.399999999999999
  0
LINE
  5
61D
330
1F
100
AcDbEntity
  8
0
100
AcDbLine
 10
74.0845497449319
 20
339.0738121876386
 30
0.0
 11
64.18454974493204
 21
339.0738121876386
 31
0.0
  0
LINE
  5
61E
330
1F
100
AcDbEntity
  8
0
100
AcDbLine
 10
73.18454962301394
 20
338.5538123469824
 30
0.0
 11
65.28454962301395
 21
338.5538123469824
 31
0.0
  0
LINE
  5
61F
330
1F
100
AcDbEntity
  8
0
100
AcDbLine
 10
73.18454962301394
 20
331.0538123469835
 30
0.0
 11
65.28454962301395
 21
331.0538123469835
 31
0.0
  0
LINE
  5
620
330
1F
100
AcDbEntity
  8
0
100
AcDbLine
 10
75.48454962301502
 20
330.0538123469825
 30
0.0
 11
65.28454962301497
 21
330.0538123469825
 31
0.0
  0
LINE
  5
621
330
1F
100
AcDbEntity
  8
0
100
AcDbLine
 10
65.28454962301497
 20
337.6438123469834
 30
0.0
 11
65.68454962301405
 21
337.6438123469834
 31
0.0
  0
LINE
  5
622
330
1F
100
AcDbEntity
  8
0
100
AcDbLine
 10
65.28454962301497
 20
337.0438123469833
 30
0.0
 11
65.68454962301405
 21
337.0438123469833
 31
0.0
  0
LINE
  5
623
330
1F
100
AcDbEntity
  8
0
100
AcDbLine
 10
65.28454962301497
 20
335.1038123469833
 30
0.0
 11
65.68454962301405
 21
335.1038123469833
 31
0.0
  0
LINE
  5
624
330
1F
100
AcDbEntity
  8
0
100
AcDbLine
 10
65.28454962301497
 20
334.5038123469833
 30
0.0
 11
65.68454962301405
 21
334.5038123469833
 31
0.0
  0
LINE
  5
625
330
1F
100
AcDbEntity
  8
0
100
AcDbLine
 10
65.28454962301497
 20
331.9638123469835
 30
0.0
 11
65.68454962301405
 21
331.9638123469835
 31
0.0
  0
LINE
  5
626
330
1F
100
AcDbEntity
  8
0
100
AcDbLine
 10
65.28454962301497
 20
332.5638123469833
 30
0.0
 11
65.68454962301405
 21
332.5638123469833
 31
0.0
  0
LINE
  5
627
330
1F
100
AcDbEntity
  8
0
100
AcDbLine
 10
65.28454962301395
 20
331.0538123469835
 30
0.0
 11
65.28454962301395
 21
331.9638123469835
 31
0.0
  0
LINE
  5
628
330
1F
100
AcDbEntity
  8
0
100
AcDbLine
 10
65.28454962301395
 20
337.6438123469823
 30
0.0
 11
65.28454962301395
 21
338.5538123469824
 31
0.0
  0
LINE
  5
629
330
1F
100
AcDbEntity
  8
0
100
AcDbLine
 10
65.68454962301405
 20
331.0538123469835
 30
0.0
 11
65.68454962301405
 21
338.5538123469824
 31
0.0
  0
LINE
  5
62A
330
1F
100
AcDbEntity
  8
0
100
AcDbLine
 10
55.18454962301508
 20
354.9738123469826
 30
0.0
 11
56.18454962301507
 21
354.9476264254132
 31
0.0
  0
LINE
  5
62B
330
1F
100
AcDbEntity
  8
0
100
AcDbLine
 10
56.18454962301507
 20
350.9738123469826
 30
0.0
 11
56.19763809716801
 21
350.9741550807405
 31
0.0
  0
LINE
  5
62C
330
1F
100
AcDbEntity
  8
0
100
AcDbLine
 10
57.18454962301507
 20
354.4738123469826
 30
0.0
 11
56.18454962301507
 21
354.4738123469826
 31
0.0
  0
CIRCLE
  5
62D
330
1F
100
AcDbEntity
  8
0
100
AcDbCircle
 10
72.88454974493186
 20
342.9738121876383
 30
0.0
 40
1.399999999999999
  0
LINE
  5
62E
330
1F
100
AcDbEntity
  8
0
100
AcDbLine
 10
75.48454962301502
 20
324.8638123469825
 30
0.0
 11
70.70905469402316
 21
324.8638123469825
 31
0.0
  0
LINE
  5
62F
330
1F
100
AcDbEntity
  8
0
100
AcDbLine
 10
75.48454962301502
 20
328.6038123469825
 30
0.0
 11
70.70905469402316
 21
328.6038123469825
 31
0.0
  0
LINE
  5
630
330
1F
100
AcDbEntity
  8
0
100
AcDbLine
 10
75.48454962301502
 20
327.4038123469825
 30
0.0
 11
72.48454962301503
 21
327.4038123469825
 31
0.0
  0
LINE
  5
631
330
1F
100
AcDbEntity
  8
0
100
AcDbLine
 10
75.48454962301502
 20
326.0638123469825
 30
0.0
 11
72.48454962301503
 21
326.0638123469825
 31
0.0
  0
LINE
  5
632
330
1F
100
AcDbEntity
  8
0
100
AcDbLine
 10
75.48454962301502
 20
324.8638123469825
 30
0.0
 11
72.48454962301503
 21
324.8638123469825
 31
0.0
  0
LINE
  5
633
330
1F
100
AcDbEntity
  8
0
100
AcDbLine
 10
74.0845497449319
 20
331.0738121876386
 30
0.0
 11
77.0845497449319
 21
331.0738121876386
 31
0.0
  0
LINE
  5
634
330
1F
100
AcDbEntity
  8
0
100
AcDbLine
 10
72.48454962301503
 20
327.4038123469825
 30
0.0
 11
72.48454962301503
 21
328.6038123469825
 31
0.0
  0
LINE
  5
635
330
1F
100
AcDbEntity
  8
0
100
AcDbLine
 10
72.48454962301503
 20
324.8638123469825
 30
0.0
 11
72.48454962301503
 21
326.0638123469825
 31
0.0
  0
LINE
  5
636
330
1F
100
AcDbEntity
  8
0
100
AcDbLine
 10
73.98454962301503
 20
326.0638123469825
 30
0.0
 11
73.98454962301503
 21
327.4038123469825
 31
0.0
  0
LINE
  5
637
330
1F
100
AcDbEntity
  8
0
100
AcDbLine
 10
74.48454962301514
 20
327.4038123469825
 30
0.0
 11
74.48454962301514
 21
328.6038123469825
 31
0.0
  0
LINE
  5
638
330
1F
100
AcDbEntity
  8
0
100
AcDbLine
 10
74.48454962301514
 20
324.8638123469825
 30
0.0
 11
74.48454962301514
 21
326.0638123469825
 31
0.0
  0
LINE
  5
639
330
1F
100
AcDbEntity
  8
0
100
AcDbLine
 10
70.70905469402316
 20
328.6038123469825
 30
0.0
 11
70.70905469402316
 21
324.8638123469825
 31
0.0
  0
CIRCLE
  5
63A
330
1F
100
AcDbEntity
  8
0
100
AcDbCircle
 10
69.43454962301394
 20
334.8038123469825
 30
0.0
 40
1.290290050200999
  0
LINE
  5
63B
330
1F
100
AcDbEntity
  8
0
100
AcDbLine
 10
74.0845497449319
 20
339.0738121876386
 30
0.0
 11
74.0845497449319
 21
331.0738121876386
 31
0.0
  0
LINE
  5
63C
330
1F
100
AcDbEntity
  8
0
100
AcDbLine
 10
73.18454962301394
 20
331.0538123469835
 30
0.0
 11
73.18454962301394
 21
338.5538123469824
 31
0.0
  0
ARC
  5
63D
330
1F
100
AcDbEntity
  8
0
100
AcDbCircle
 10
80.18454962301508
 20
359.9738123469826
 30
0.0
 40
5.5
100
AcDbArc
 50
180.0
 51
245.3800226713459
  0
CIRCLE
  5
63E
330
1F
100
AcDbEntity
  8
0
100
AcDbCircle
 10
72.88454974493186
 20
347.7738121876384
 30
0.0
 40
1.399999999999999
  0
LINE
  5
63F
330
1F
100
AcDbEntity
  8
0
100
AcDbLine
 10
55.18454962301508
 20
364.9738123469826
 30
0.0
 11
38.15837267470692
 21
364.5279662127915
 31
0.0
  0
ARC
  5
640
330
1F
100
AcDbEntity
  8
0
100
AcDbCircle
 10
38.18454962301507
 20
363.5283088878153
 30
0.0
 40
1.0
100
AcDbArc
 50
91.49999999999627
 51
180.0
  0
LINE
  5
641
330
1F
100
AcDbEntity
  8
0
100
AcDbLine
 10
85.68454962301506
 20
359.9738123469826
 30
0.0
 11
85.68454962301506
 21
364.9738123469826
 31
0.0
  0
LINE
  5
642
330
1F
100
AcDbEntity
  8
0
100
AcDbLine
 10
100.2845496230149
 20
247.5738123469824
 30
0.0
 11
100.2845496230149
 21
253.4738123469826
 31
0.0
  0
LINE
  5
643
330
1F
100
AcDbEntity
  8
0
100
AcDbLine
 10
101.1845497449328
 20
267.5738121876384
 30
0.0
 11
101.1845497449328
 21
232.6738121876385
 31
0.0
  0
LINE
  5
644
330
1F
100
AcDbEntity
  8
0
100
AcDbLine
 10
100.2845496230149
 20
267.5738121876384
 30
0.0
 11
100.2845496230149
 21
232.6738121876385
 31
0.0
  0
LINE
  5
645
330
1F
100
AcDbEntity
  8
0
100
AcDbLine
 10
86.38454974493198
 20
263.0738121876385
 30
0.0
 11
86.38454974493198
 21
247.0738121876386
 31
0.0
  0
LINE
  5
646
330
1F
100
AcDbEntity
  8
0
100
AcDbLine
 10
87.484549623014
 20
247.5738123469824
 30
0.0
 11
87.484549623014
 21
261.5738123469824
 31
0.0
  0
LINE
  5
647
330
1F
100
AcDbEntity
  8
0
100
AcDbLine
 10
100.2845496230138
 20
247.0738123469824
 30
0.0
 11
92.38454962301407
 21
247.0738123469824
 31
0.0
  0
LINE
  5
648
330
1F
100
AcDbEntity
  8
0
100
AcDbLine
 10
100.2845496230138
 20
241.5738123469825
 30
0.0
 11
93.03454962301406
 21
241.5738123469825
 31
0.0
  0
LINE
  5
649
330
1F
100
AcDbEntity
  8
0
100
AcDbLine
 10
92.38454962301407
 20
242.0738123469825
 30
0.0
 11
100.2845496230138
 21
242.0738123469825
 31
0.0
  0
LINE
  5
64A
330
1F
100
AcDbEntity
  8
0
100
AcDbLine
 10
93.03454962301406
 20
233.1738123469826
 30
0.0
 11
100.2845496230138
 21
233.1738123469826
 31
0.0
  0
LINE
  5
64B
330
1F
100
AcDbEntity
  8
0
100
AcDbLine
 10
101.1845497449328
 20
232.6738121876385
 30
0.0
 11
89.78454974493207
 21
232.6738121876385
 31
0.0
  0
LINE
  5
64C
330
1F
100
AcDbEntity
  8
0
100
AcDbLine
 10
101.1845497449328
 20
230.6738121876385
 30
0.0
 11
89.78454974493207
 21
230.6738121876385
 31
0.0
  0
LINE
  5
64D
330
1F
100
AcDbEntity
  8
0
100
AcDbLine
 10
91.68454962301494
 20
230.1738123469827
 30
0.0
 11
99.98454962301515
 21
230.1738123469835
 31
0.0
  0
LINE
  5
64E
330
1F
100
AcDbEntity
  8
0
100
AcDbLine
 10
90.88454962301511
 20
229.1738123469825
 30
0.0
 11
99.98454962301515
 21
229.1738123469825
 31
0.0
  0
LINE
  5
64F
330
1F
100
AcDbEntity
  8
0
100
AcDbLine
 10
100.2845496230149
 20
247.5738123469824
 30
0.0
 11
87.484549623014
 21
247.5738123469824
 31
0.0
  0
ARC
  5
650
330
1F
100
AcDbEntity
  8
0
100
AcDbCircle
 10
91.68454962301494
 20
229.6738123469824
 30
0.0
 40
0.5
100
AcDbArc
 50
90.0
 51
180.0
  0
LINE
  5
651
330
1F
100
AcDbEntity
  8
0
100
AcDbLine
 10
91.18454962301495
 20
229.6738123469824
 30
0.0
 11
91.18454962301495
 21
229.1738123469825
 31
0.0
  0
LINE
  5
652
330
1F
100
AcDbEntity
  8
0
100
AcDbLine
 10
98.63454962301512
 20
222.7738123469825
 30
0.0
 11
98.63454962301512
 21
225.1738123469836
 31
0.0
  0
ARC
  5
653
330
1F
100
AcDbEntity
  8
0
100
AcDbCircle
 10
96.63454962301512
 20
219.0575292043916
 30
0.0
 40
2.0
100
AcDbArc
 50
0.0
 51
74.99999999999926
  0
LINE
  5
654
330
1F
100
AcDbEntity
  8
0
100
AcDbLine
 10
92.33454962301491
 20
225.1738123469836
 30
0.0
 11
92.33454962301491
 21
222.7738123469825
 31
0.0
  0
ARC
  5
655
330
1F
100
AcDbEntity
  8
0
100
AcDbCircle
 10
94.33454962301516
 20
219.6738123469827
 30
0.0
 40
2.0
100
AcDbArc
 50
74.99999999999926
 51
180.0
  0
LINE
  5
656
330
1F
100
AcDbEntity
  8
0
100
AcDbLine
 10
94.85218771322001
 20
221.6056639995604
 30
0.0
 11
97.15218771322
 21
220.9893808569693
 31
0.0
  0
LINE
  5
657
330
1F
100
AcDbEntity
  8
0
100
AcDbLine
 10
92.33454962301491
 20
222.7738123469825
 30
0.0
 11
98.63454962301512
 21
222.7738123469825
 31
0.0
  0
LINE
  5
658
330
1F
100
AcDbEntity
  8
0
100
AcDbLine
 10
92.33454962301491
 20
224.6738123469826
 30
0.0
 11
98.63454962301512
 21
224.6738123469826
 31
0.0
  0
LINE
  5
659
330
1F
100
AcDbEntity
  8
0
100
AcDbLine
 10
92.33454962301491
 20
225.1738123469825
 30
0.0
 11
98.63454962301512
 21
225.1738123469825
 31
0.0
  0
LINE
  5
65A
330
1F
100
AcDbEntity
  8
0
100
AcDbLine
 10
97.08454962301516
 20
220.1738123469827
 30
0.0
 11
93.88454962301512
 21
220.1738123469834
 31
0.0
  0
CIRCLE
  5
65B
330
1F
100
AcDbEntity
  8
0
100
AcDbCircle
 10
95.48454962301514
 20
227.2038123469826
 30
0.0
 40
1.399999999999999
  0
LINE
  5
65C
330
1F
100
AcDbEntity
  8
0
100
AcDbLine
 10
89.78454974493207
 20
247.0738121876386
 30
0.0
 11
89.78454974493207
 21
232.6738121876385
 31
0.0
  0
LINE
  5
65D
330
1F
100
AcDbEntity
  8
0
100
AcDbLine
 10
89.78454974493207
 20
247.0738121876386
 30
0.0
 11
86.38454974493198
 21
247.0738121876386
 31
0.0
  0
LINE
  5
65E
330
1F
100
AcDbEntity
  8
0
100
AcDbLine
 10
95.33454962301405
 20
246.0738123469825
 30
0.0
 11
94.33454962301402
 21
246.0738123469825
 31
0.0
  0
LINE
  5
65F
330
1F
100
AcDbEntity
  8
0
100
AcDbLine
 10
99.33454962301405
 20
246.0738123469825
 30
0.0
 11
93.334549623014
 21
246.0738123469825
 31
0.0
  0
CIRCLE
  5
660
330
1F
100
AcDbEntity
  8
0
100
AcDbCircle
 10
96.78454962301408
 20
235.6238123469825
 30
0.0
 40
1.0
  0
CIRCLE
  5
661
330
1F
100
AcDbEntity
  8
0
100
AcDbCircle
 10
96.78454962301408
 20
239.1238123469825
 30
0.0
 40
1.0
  0
LINE
  5
662
330
1F
100
AcDbEntity
  8
0
100
AcDbLine
 10
94.33454962301402
 20
243.0738123469824
 30
0.0
 11
95.33454962301405
 21
243.0738123469824
 31
0.0
  0
LINE
  5
663
330
1F
100
AcDbEntity
  8
0
100
AcDbLine
 10
93.03454962301406
 20
241.5738123469825
 30
0.0
 11
93.03454962301406
 21
233.1738123469826
 31
0.0
  0
LINE
  5
664
330
1F
100
AcDbEntity
  8
0
100
AcDbLine
 10
93.334549623014
 20
243.0738123469824
 30
0.0
 11
99.33454962301405
 21
243.0738123469824
 31
0.0
  0
LINE
  5
665
330
1F
100
AcDbEntity
  8
0
100
AcDbLine
 10
96.13454962301407
 20
243.0738123469824
 30
0.0
 11
96.13454962301407
 21
246.0738123469825
 31
0.0
  0
LINE
  5
666
330
1F
100
AcDbEntity
  8
0
100
AcDbLine
 10
99.33454962301405
 20
243.0738123469824
 30
0.0
 11
99.33454962301405
 21
246.0738123469825
 31
0.0
  0
LINE
  5
667
330
1F
100
AcDbEntity
  8
0
100
AcDbLine
 10
93.334549623014
 20
246.0738123469825
 30
0.0
 11
93.334549623014
 21
243.0738123469824
 31
0.0
  0
LINE
  5
668
330
1F
100
AcDbEntity
  8
0
100
AcDbLine
 10
95.33454962301405
 20
243.0738123469824
 30
0.0
 11
95.33454962301405
 21
246.0738123469825
 31
0.0
  0
LINE
  5
669
330
1F
100
AcDbEntity
  8
0
100
AcDbLine
 10
94.33454962301402
 20
246.0738123469825
 30
0.0
 11
94.33454962301402
 21
243.0738123469824
 31
0.0
  0
LINE
  5
66A
330
1F
100
AcDbEntity
  8
0
100
AcDbLine
 10
92.38454962301407
 20
247.0738123469824
 30
0.0
 11
92.38454962301407
 21
242.0738123469825
 31
0.0
  0
LINE
  5
66B
330
1F
100
AcDbEntity
  8
0
100
AcDbLine
 10
100.2845496230149
 20
229.8738123469834
 30
0.0
 11
100.2845496230149
 21
222.7738123469825
 31
0.0
  0
LINE
  5
66C
330
1F
100
AcDbEntity
  8
0
100
AcDbLine
 10
99.98454962301515
 20
222.7738123469825
 30
0.0
 11
100.2845496230149
 21
222.7738123469825
 31
0.0
  0
LINE
  5
66D
330
1F
100
AcDbEntity
  8
0
100
AcDbLine
 10
99.98454962301515
 20
215.3838123469834
 30
0.0
 11
100.2845496230149
 21
215.3838123469834
 31
0.0
  0
LINE
  5
66E
330
1F
100
AcDbEntity
  8
0
100
AcDbLine
 10
99.98454962301515
 20
214.1138123469834
 30
0.0
 11
100.2845496230149
 21
214.1138123469834
 31
0.0
  0
LINE
  5
66F
330
1F
100
AcDbEntity
  8
0
100
AcDbLine
 10
99.98454962301515
 20
217.9238123469835
 30
0.0
 11
100.2845496230149
 21
217.9238123469835
 31
0.0
  0
LINE
  5
670
330
1F
100
AcDbEntity
  8
0
100
AcDbLine
 10
99.98454962301515
 20
216.6538123469833
 30
0.0
 11
100.2845496230149
 21
216.6538123469833
 31
0.0
  0
LINE
  5
671
330
1F
100
AcDbEntity
  8
0
100
AcDbLine
 10
99.98454962301515
 20
215.3838123469834
 30
0.0
 11
100.2845496230149
 21
215.3838123469834
 31
0.0
  0
LINE
  5
672
330
1F
100
AcDbEntity
  8
0
100
AcDbLine
 10
99.98454962301515
 20
219.1938123469826
 30
0.0
 11
100.2845496230149
 21
219.1938123469826
 31
0.0
  0
LINE
  5
673
330
1F
100
AcDbEntity
  8
0
100
AcDbLine
 10
99.98454962301515
 20
217.9238123469835
 30
0.0
 11
100.2845496230149
 21
217.9238123469835
 31
0.0
  0
LINE
  5
674
330
1F
100
AcDbEntity
  8
0
100
AcDbLine
 10
99.98454962301515
 20
212.8438123469833
 30
0.0
 11
100.2845496230149
 21
212.8438123469833
 31
0.0
  0
LINE
  5
675
330
1F
100
AcDbEntity
  8
0
100
AcDbLine
 10
99.98454962301515
 20
211.5738123469834
 30
0.0
 11
100.2845496230149
 21
211.5738123469834
 31
0.0
  0
ARC
  5
676
330
1F
100
AcDbEntity
  8
0
100
AcDbCircle
 10
99.98454962301515
 20
229.8738123469834
 30
0.0
 40
0.3
100
AcDbArc
 50
0.0
 51
90.0
  0
LINE
  5
677
330
1F
100
AcDbEntity
  8
0
100
AcDbLine
 10
100.2845496230138
 20
233.1738123469826
 30
0.0
 11
100.2845496230138
 21
241.5738123469825
 31
0.0
  0
LINE
  5
678
330
1F
100
AcDbEntity
  8
0
100
AcDbLine
 10
100.2845496230138
 20
242.0738123469825
 30
0.0
 11
100.2845496230138
 21
247.0738123469824
 31
0.0
  0
LINE
  5
679
330
1F
100
AcDbEntity
  8
0
100
AcDbLine
 10
101.1845497449328
 20
267.5738121876384
 30
0.0
 11
89.78454974493207
 21
267.5738121876384
 31
0.0
  0
LINE
  5
67A
330
1F
100
AcDbEntity
  8
0
100
AcDbLine
 10
100.2845496230138
 20
267.0738123469825
 30
0.0
 11
92.38454962301407
 21
267.0738123469825
 31
0.0
  0
LINE
  5
67B
330
1F
100
AcDbEntity
  8
0
100
AcDbLine
 10
92.38454962301407
 20
262.0738123469824
 30
0.0
 11
100.2845496230138
 21
262.0738123469824
 31
0.0
  0
LINE
  5
67C
330
1F
100
AcDbEntity
  8
0
100
AcDbLine
 10
100.2845496230149
 20
261.5738123469824
 30
0.0
 11
87.484549623014
 21
261.5738123469824
 31
0.0
  0
LINE
  5
67D
330
1F
100
AcDbEntity
  8
0
100
AcDbLine
 10
89.78454974493207
 20
263.0738121876385
 30
0.0
 11
89.78454974493207
 21
267.5738121876384
 31
0.0
  0
CIRCLE
  5
67E
330
1F
100
AcDbEntity
  8
0
100
AcDbCircle
 10
93.78454962301487
 20
254.5738123469825
 30
0.0
 40
5.5
  0
LINE
  5
67F
330
1F
100
AcDbEntity
  8
0
100
AcDbLine
 10
89.78454974493207
 20
263.0738121876385
 30
0.0
 11
86.38454974493198
 21
263.0738121876385
 31
0.0
  0
LINE
  5
680
330
1F
100
AcDbEntity
  8
0
100
AcDbLine
 10
95.33454962301405
 20
266.0738123469824
 30
0.0
 11
94.33454962301402
 21
266.0738123469824
 31
0.0
  0
LINE
  5
681
330
1F
100
AcDbEntity
  8
0
100
AcDbLine
 10
99.33454962301405
 20
266.0738123469824
 30
0.0
 11
93.334549623014
 21
266.0738123469824
 31
0.0
  0
LINE
  5
682
330
1F
100
AcDbEntity
  8
0
100
AcDbLine
 10
94.33454962301402
 20
263.0738123469825
 30
0.0
 11
95.33454962301405
 21
263.0738123469825
 31
0.0
  0
LINE
  5
683
330
1F
100
AcDbEntity
  8
0
100
AcDbLine
 10
93.334549623014
 20
263.0738123469825
 30
0.0
 11
99.33454962301405
 21
263.0738123469825
 31
0.0
  0
LINE
  5
684
330
1F
100
AcDbEntity
  8
0
100
AcDbLine
 10
99.33454962301405
 20
263.0738123469825
 30
0.0
 11
99.33454962301405
 21
266.0738123469824
 31
0.0
  0
LINE
  5
685
330
1F
100
AcDbEntity
  8
0
100
AcDbLine
 10
96.13454962301407
 20
263.0738123469825
 30
0.0
 11
96.13454962301407
 21
266.0738123469824
 31
0.0
  0
LINE
  5
686
330
1F
100
AcDbEntity
  8
0
100
AcDbLine
 10
95.33454962301405
 20
263.0738123469825
 30
0.0
 11
95.33454962301405
 21
266.0738123469824
 31
0.0
  0
LINE
  5
687
330
1F
100
AcDbEntity
  8
0
100
AcDbLine
 10
94.33454962301402
 20
266.0738123469824
 30
0.0
 11
94.33454962301402
 21
263.0738123469825
 31
0.0
  0
LINE
  5
688
330
1F
100
AcDbEntity
  8
0
100
AcDbLine
 10
93.334549623014
 20
266.0738123469824
 30
0.0
 11
93.334549623014
 21
263.0738123469825
 31
0.0
  0
LINE
  5
689
330
1F
100
AcDbEntity
  8
0
100
AcDbLine
 10
92.38454962301407
 20
267.0738123469825
 30
0.0
 11
92.38454962301407
 21
262.0738123469824
 31
0.0
  0
LINE
  5
68A
330
1F
100
AcDbEntity
  8
0
100
AcDbLine
 10
100.2845496230149
 20
255.6738123469826
 30
0.0
 11
100.2845496230149
 21
261.5738123469824
 31
0.0
  0
LINE
  5
68B
330
1F
100
AcDbEntity
  8
0
100
AcDbLine
 10
100.2845496230138
 20
262.0738123469824
 30
0.0
 11
100.2845496230138
 21
267.0738123469825
 31
0.0
  0
ARC
  5
68C
330
1F
100
AcDbEntity
  8
0
100
AcDbCircle
 10
108.1845496230149
 20
363.9738123469826
 30
0.0
 40
1.0
100
AcDbArc
 50
0.0
 51
90.0
  0
ARC
  5
68D
330
1F
100
AcDbEntity
  8
0
100
AcDbCircle
 10
108.1845496230149
 20
363.9738123469826
 30
0.0
 40
1.0
100
AcDbArc
 50
0.0
 51
90.0
  0
LINE
  5
68E
330
1F
100
AcDbEntity
  8
0
100
AcDbLine
 10
101.1845497449328
 20
267.5738121876384
 30
0.0
 11
89.78454974493297
 21
267.5738121876384
 31
0.0
  0
LINE
  5
68F
330
1F
100
AcDbEntity
  8
0
  6
CONTINUOUS
 62
     0
100
AcDbLine
 10
99.37454962301512
 20
299.1488123469835
 30
0.0
 11
99.37454962301512
 21
286.6488123469823
 31
0.0
  0
LINE
  5
690
330
1F
100
AcDbEntity
  8
0
  6
CONTINUOUS
 62
     0
100
AcDbLine
 10
99.37454962301512
 20
286.6488123469823
 30
0.0
 11
94.25454962301477
 21
286.6488123469823
 31
0.0
  0
LINE
  5
691
330
1F
100
AcDbEntity
  8
0
  6
CONTINUOUS
 62
     0
100
AcDbLine
 10
94.25454962301477
 20
286.6488123469823
 30
0.0
 11
94.25454962301477
 21
299.1488123469835
 31
0.0
  0
LINE
  5
692
330
1F
100
AcDbEntity
  8
0
  6
CONTINUOUS
 62
     0
100
AcDbLine
 10
94.25454962301477
 20
299.1488123469835
 30
0.0
 11
99.37454962301512
 21
299.1488123469835
 31
0.0
  0
LINE
  5
693
330
1F
100
AcDbEntity
  8
0
  6
CONTINUOUS
 62
     0
100
AcDbLine
 10
90.87454962301512
 20
299.1488123469835
 30
0.0
 11
90.87454962301512
 21
286.6488123469823
 31
0.0
  0
LINE
  5
694
330
1F
100
AcDbEntity
  8
0
  6
CONTINUOUS
 62
     0
100
AcDbLine
 10
90.87454962301512
 20
286.6488123469823
 30
0.0
 11
85.75454962301478
 21
286.6488123469823
 31
0.0
  0
LINE
  5
695
330
1F
100
AcDbEntity
  8
0
  6
CONTINUOUS
 62
     0
100
AcDbLine
 10
85.75454962301478
 20
286.6488123469823
 30
0.0
 11
85.75454962301478
 21
299.1488123469835
 31
0.0
  0
LINE
  5
696
330
1F
100
AcDbEntity
  8
0
  6
CONTINUOUS
 62
     0
100
AcDbLine
 10
85.75454962301478
 20
299.1488123469835
 30
0.0
 11
90.87454962301512
 21
299.1488123469835
 31
0.0
  0
LINE
  5
697
330
1F
100
AcDbEntity
  8
0
  6
CONTINUOUS
 62
     0
100
AcDbLine
 10
84.75454962301478
 20
299.5488123469826
 30
0.0
 11
84.75454962301478
 21
293.8988123469826
 31
0.0
  0
LINE
  5
698
330
1F
100
AcDbEntity
  8
0
  6
CONTINUOUS
 62
     0
100
AcDbLine
 10
100.3745496230151
 20
299.5488123469826
 30
0.0
 11
84.75454962301478
 21
299.5488123469826
 31
0.0
  0
LINE
  5
699
330
1F
100
AcDbEntity
  8
0
  6
CONTINUOUS
 62
     0
100
AcDbLine
 10
84.75454962301478
 20
286.2488123469832
 30
0.0
 11
100.3745496230151
 21
286.2488123469832
 31
0.0
  0
LINE
  5
69A
330
1F
100
AcDbEntity
  8
0
  6
CONTINUOUS
 62
     0
100
AcDbLine
 10
99.774549623015
 20
300.1488123469826
 30
0.0
 11
99.774549623015
 21
285.6488123469826
 31
0.0
  0
LINE
  5
69B
330
1F
100
AcDbEntity
  8
0
  6
CONTINUOUS
 62
     0
100
AcDbLine
 10
85.35454962301512
 20
300.1488123469826
 30
0.0
 11
85.35454962301512
 21
285.6488123469826
 31
0.0
  0
LINE
  5
69C
330
1F
100
AcDbEntity
  8
0
  6
CONTINUOUS
 62
     0
100
AcDbLine
 10
84.18454962301508
 20
286.6488123469823
 30
0.0
 11
84.18454962301508
 21
299.1488123469835
 31
0.0
  0
LINE
  5
69D
330
1F
100
AcDbEntity
  8
0
  6
CONTINUOUS
 62
     0
100
AcDbLine
 10
84.18454962301508
 20
300.6188123469833
 30
0.0
 11
84.18454962301508
 21
298.3188123469833
 31
0.0
  0
LINE
  5
69E
330
1F
100
AcDbEntity
  8
0
  6
CONTINUOUS
 62
     0
100
AcDbLine
 10
84.18454962301508
 20
287.4788123469833
 30
0.0
 11
84.18454962301508
 21
285.1788123469832
 31
0.0
  0
LINE
  5
69F
330
1F
100
AcDbEntity
  8
0
  6
CONTINUOUS
 62
     0
100
AcDbLine
 10
84.18454962301508
 20
297.5188123469823
 30
0.0
 11
84.18454962301508
 21
288.2788123469834
 31
0.0
  0
LINE
  5
6A0
330
1F
100
AcDbEntity
  8
0
  6
CONTINUOUS
 62
     0
100
AcDbLine
 10
96.81454962301494
 20
299.1488123469835
 30
0.0
 11
96.81454962301494
 21
286.6488123469823
 31
0.0
  0
LINE
  5
6A1
330
1F
100
AcDbEntity
  8
0
  6
CONTINUOUS
 62
     0
100
AcDbLine
 10
88.31454962301494
 20
299.1488123469835
 30
0.0
 11
88.31454962301494
 21
286.6488123469823
 31
0.0
  0
LINE
  5
6A2
330
1F
100
AcDbEntity
  8
0
  6
CONTINUOUS
 62
     0
100
AcDbLine
 10
88.31454962301494
 20
296.8588123469826
 30
0.0
 11
87.91454962301513
 21
296.8588123469826
 31
0.0
  0
LINE
  5
6A3
330
1F
100
AcDbEntity
  8
0
  6
CONTINUOUS
 62
     0
100
AcDbLine
 10
87.91454962301513
 20
296.8588123469826
 30
0.0
 11
87.91454962301513
 21
295.9388123469825
 31
0.0
  0
LINE
  5
6A4
330
1F
100
AcDbEntity
  8
0
  6
CONTINUOUS
 62
     0
100
AcDbLine
 10
87.91454962301513
 20
294.3588123469826
 30
0.0
 11
87.91454962301513
 21
293.4388123469825
 31
0.0
  0
LINE
  5
6A5
330
1F
100
AcDbEntity
  8
0
  6
CONTINUOUS
 62
     0
100
AcDbLine
 10
87.91454962301513
 20
292.3588123469826
 30
0.0
 11
87.91454962301513
 21
291.4388123469825
 31
0.0
  0
LINE
  5
6A6
330
1F
100
AcDbEntity
  8
0
  6
CONTINUOUS
 62
     0
100
AcDbLine
 10
87.91454962301513
 20
289.8588123469835
 30
0.0
 11
87.91454962301513
 21
288.9388123469823
 31
0.0
  0
LINE
  5
6A7
330
1F
100
AcDbEntity
  8
0
  6
CONTINUOUS
 62
     0
100
AcDbLine
 10
87.91454962301513
 20
295.9388123469825
 30
0.0
 11
88.31454962301494
 21
295.9388123469825
 31
0.0
  0
LINE
  5
6A8
330
1F
100
AcDbEntity
  8
0
  6
CONTINUOUS
 62
     0
100
AcDbLine
 10
87.91454962301513
 20
294.3588123469826
 30
0.0
 11
88.31454962301494
 21
294.3588123469826
 31
0.0
  0
LINE
  5
6A9
330
1F
100
AcDbEntity
  8
0
  6
CONTINUOUS
 62
     0
100
AcDbLine
 10
87.91454962301513
 20
293.4388123469825
 30
0.0
 11
88.31454962301494
 21
293.4388123469825
 31
0.0
  0
LINE
  5
6AA
330
1F
100
AcDbEntity
  8
0
  6
CONTINUOUS
 62
     0
100
AcDbLine
 10
87.91454962301513
 20
292.3588123469826
 30
0.0
 11
88.31454962301494
 21
292.3588123469826
 31
0.0
  0
LINE
  5
6AB
330
1F
100
AcDbEntity
  8
0
  6
CONTINUOUS
 62
     0
100
AcDbLine
 10
87.91454962301513
 20
291.4388123469825
 30
0.0
 11
88.31454962301494
 21
291.4388123469825
 31
0.0
  0
LINE
  5
6AC
330
1F
100
AcDbEntity
  8
0
  6
CONTINUOUS
 62
     0
100
AcDbLine
 10
87.91454962301513
 20
289.8588123469835
 30
0.0
 11
88.31454962301494
 21
289.8588123469835
 31
0.0
  0
LINE
  5
6AD
330
1F
100
AcDbEntity
  8
0
  6
CONTINUOUS
 62
     0
100
AcDbLine
 10
87.91454962301513
 20
288.9388123469823
 30
0.0
 11
88.31454962301494
 21
288.9388123469823
 31
0.0
  0
LINE
  5
6AE
330
1F
100
AcDbEntity
  8
0
  6
CONTINUOUS
 62
     0
100
AcDbLine
 10
96.31454962301495
 20
296.8588123469826
 30
0.0
 11
96.31454962301495
 21
295.9388123469825
 31
0.0
  0
LINE
  5
6AF
330
1F
100
AcDbEntity
  8
0
  6
CONTINUOUS
 62
     0
100
AcDbLine
 10
96.31454962301495
 20
294.3588123469826
 30
0.0
 11
96.31454962301495
 21
293.4388123469825
 31
0.0
  0
LINE
  5
6B0
330
1F
100
AcDbEntity
  8
0
  6
CONTINUOUS
 62
     0
100
AcDbLine
 10
96.31454962301495
 20
292.3588123469826
 30
0.0
 11
96.31454962301495
 21
291.4388123469825
 31
0.0
  0
LINE
  5
6B1
330
1F
100
AcDbEntity
  8
0
  6
CONTINUOUS
 62
     0
100
AcDbLine
 10
96.31454962301495
 20
289.8588123469835
 30
0.0
 11
96.31454962301495
 21
288.9388123469823
 31
0.0
  0
LINE
  5
6B2
330
1F
100
AcDbEntity
  8
0
  6
CONTINUOUS
 62
     0
100
AcDbLine
 10
96.31454962301495
 20
296.8588123469826
 30
0.0
 11
96.81454962301494
 21
296.8588123469826
 31
0.0
  0
LINE
  5
6B3
330
1F
100
AcDbEntity
  8
0
  6
CONTINUOUS
 62
     0
100
AcDbLine
 10
96.31454962301495
 20
295.9388123469825
 30
0.0
 11
96.81454962301494
 21
295.9388123469825
 31
0.0
  0
LINE
  5
6B4
330
1F
100
AcDbEntity
  8
0
  6
CONTINUOUS
 62
     0
100
AcDbLine
 10
96.31454962301495
 20
294.3588123469826
 30
0.0
 11
96.81454962301494
 21
294.3588123469826
 31
0.0
  0
LINE
  5
6B5
330
1F
100
AcDbEntity
  8
0
  6
CONTINUOUS
 62
     0
100
AcDbLine
 10
96.31454962301495
 20
293.4388123469825
 30
0.0
 11
96.81454962301494
 21
293.4388123469825
 31
0.0
  0
LINE
  5
6B6
330
1F
100
AcDbEntity
  8
0
  6
CONTINUOUS
 62
     0
100
AcDbLine
 10
96.31454962301495
 20
292.3588123469826
 30
0.0
 11
96.81454962301494
 21
292.3588123469826
 31
0.0
  0
LINE
  5
6B7
330
1F
100
AcDbEntity
  8
0
  6
CONTINUOUS
 62
     0
100
AcDbLine
 10
96.31454962301495
 20
291.4388123469825
 30
0.0
 11
96.81454962301494
 21
291.4388123469825
 31
0.0
  0
LINE
  5
6B8
330
1F
100
AcDbEntity
  8
0
  6
CONTINUOUS
 62
     0
100
AcDbLine
 10
96.31454962301495
 20
289.8588123469835
 30
0.0
 11
96.81454962301494
 21
289.8588123469835
 31
0.0
  0
LINE
  5
6B9
330
1F
100
AcDbEntity
  8
0
  6
CONTINUOUS
 62
     0
100
AcDbLine
 10
96.31454962301495
 20
288.9388123469823
 30
0.0
 11
96.81454962301494
 21
288.9388123469823
 31
0.0
  0
LINE
  5
6BA
330
1F
100
AcDbEntity
  8
0
  6
CONTINUOUS
 62
     0
100
AcDbLine
 10
99.774549623015
 20
299.5488123469826
 30
0.0
 11
99.774549623015
 21
300.1488123469826
 31
0.0
  0
LINE
  5
6BB
330
1F
100
AcDbEntity
  8
0
  6
CONTINUOUS
 62
     0
100
AcDbLine
 10
85.35454962301512
 20
300.1488123469826
 30
0.0
 11
85.35454962301512
 21
299.5488123469826
 31
0.0
  0
LINE
  5
6BC
330
1F
100
AcDbEntity
  8
0
  6
CONTINUOUS
 62
     0
100
AcDbLine
 10
85.35454962301512
 20
299.5488123469826
 30
0.0
 11
84.75454962301478
 21
299.5488123469826
 31
0.0
  0
LINE
  5
6BD
330
1F
100
AcDbEntity
  8
0
  6
CONTINUOUS
 62
     0
100
AcDbLine
 10
85.35454962301512
 20
286.2488123469832
 30
0.0
 11
84.75454962301478
 21
286.2488123469832
 31
0.0
  0
LINE
  5
6BE
330
1F
100
AcDbEntity
  8
0
  6
CONTINUOUS
 62
     0
100
AcDbLine
 10
85.35454962301512
 20
286.2488123469832
 30
0.0
 11
85.35454962301512
 21
285.6488123469826
 31
0.0
  0
LINE
  5
6BF
330
1F
100
AcDbEntity
  8
0
  6
CONTINUOUS
 62
     0
100
AcDbLine
 10
99.774549623015
 20
286.2488123469832
 30
0.0
 11
99.774549623015
 21
285.6488123469826
 31
0.0
  0
LINE
  5
6C0
330
1F
100
AcDbEntity
  8
0
  6
CONTINUOUS
 62
     0
100
AcDbLine
 10
99.774549623015
 20
286.2488123469832
 30
0.0
 11
100.3745496230151
 21
286.2488123469832
 31
0.0
  0
LINE
  5
6C1
330
1F
100
AcDbEntity
  8
0
  6
CONTINUOUS
 62
     0
100
AcDbLine
 10
100.3745496230151
 20
299.5488123469826
 30
0.0
 11
99.774549623015
 21
299.5488123469826
 31
0.0
  0
LINE
  5
6C2
330
1F
100
AcDbEntity
  8
0
  6
CONTINUOUS
 62
     0
100
AcDbLine
 10
100.0745496230146
 20
299.5488123469826
 30
0.0
 11
100.0745496230146
 21
286.2488123469832
 31
0.0
  0
LINE
  5
6C3
330
1F
100
AcDbEntity
  8
0
  6
CONTINUOUS
 62
     0
100
AcDbLine
 10
99.774549623015
 20
285.9488123469834
 30
0.0
 11
85.35454962301512
 21
285.9488123469834
 31
0.0
  0
LINE
  5
6C4
330
1F
100
AcDbEntity
  8
0
  6
CONTINUOUS
 62
     0
100
AcDbLine
 10
85.35454962301512
 20
285.9488123469834
 30
0.0
 11
85.25454962301479
 21
285.9488123469834
 31
0.0
  0
LINE
  5
6C5
330
1F
100
AcDbEntity
  8
0
  6
CONTINUOUS
 62
     0
100
AcDbLine
 10
85.05454962301483
 20
286.2488123469832
 30
0.0
 11
85.05454962301483
 21
299.5488123469826
 31
0.0
  0
LINE
  5
6C6
330
1F
100
AcDbEntity
  8
0
  6
CONTINUOUS
 62
     0
100
AcDbLine
 10
85.35454962301512
 20
299.8488123469833
 30
0.0
 11
85.25454962301479
 21
299.8488123469833
 31
0.0
  0
LINE
  5
6C7
330
1F
100
AcDbEntity
  8
0
  6
CONTINUOUS
 62
     0
100
AcDbLine
 10
85.35454962301512
 20
299.8488123469833
 30
0.0
 11
99.774549623015
 21
299.8488123469833
 31
0.0
  0
LINE
  5
6C8
330
1F
100
AcDbEntity
  8
0
  6
CONTINUOUS
 62
     0
100
AcDbLine
 10
100.0745496230146
 20
299.5488123469826
 30
0.0
 11
100.0745496230146
 21
299.6488123469826
 31
0.0
  0
LINE
  5
6C9
330
1F
100
AcDbEntity
  8
0
  6
CONTINUOUS
 62
     0
100
AcDbLine
 10
100.0745496230146
 20
286.2488123469832
 30
0.0
 11
100.0745496230146
 21
286.1488123469835
 31
0.0
  0
LINE
  5
6CA
330
1F
100
AcDbEntity
  8
0
  6
CONTINUOUS
 62
     0
100
AcDbLine
 10
99.774549623015
 20
285.9488123469834
 30
0.0
 11
99.87454962301512
 21
285.9488123469834
 31
0.0
  0
LINE
  5
6CB
330
1F
100
AcDbEntity
  8
0
  6
CONTINUOUS
 62
     0
100
AcDbLine
 10
99.774549623015
 20
299.8488123469833
 30
0.0
 11
99.87454962301512
 21
299.8488123469833
 31
0.0
  0
LINE
  5
6CC
330
1F
100
AcDbEntity
  8
0
  6
CONTINUOUS
 62
     0
100
AcDbLine
 10
85.05454962301483
 20
299.5488123469826
 30
0.0
 11
85.05454962301483
 21
299.6488123469826
 31
0.0
  0
LINE
  5
6CD
330
1F
100
AcDbEntity
  8
0
  6
CONTINUOUS
 62
     0
100
AcDbLine
 10
85.05454962301483
 20
286.2488123469832
 30
0.0
 11
85.05454962301483
 21
286.1488123469835
 31
0.0
  0
LINE
  5
6CE
330
1F
100
AcDbEntity
  8
0
  6
CONTINUOUS
 62
     0
100
AcDbLine
 10
84.75454962301478
 20
297.3588123469833
 30
0.0
 11
84.18454962301508
 21
297.3588123469833
 31
0.0
  0
LINE
  5
6CF
330
1F
100
AcDbEntity
  8
0
  6
CONTINUOUS
 62
     0
100
AcDbLine
 10
84.75454962301478
 20
288.4388123469824
 30
0.0
 11
84.18454962301508
 21
288.4388123469824
 31
0.0
  0
LINE
  5
6D0
330
1F
100
AcDbEntity
  8
0
  6
CONTINUOUS
 62
     0
100
AcDbLine
 10
84.18454962301508
 20
296.8588123469826
 30
0.0
 11
84.18454962301508
 21
295.9388123469825
 31
0.0
  0
LINE
  5
6D1
330
1F
100
AcDbEntity
  8
0
  6
CONTINUOUS
 62
     0
100
AcDbLine
 10
84.18454962301508
 20
294.3588123469826
 30
0.0
 11
84.18454962301508
 21
293.4388123469825
 31
0.0
  0
LINE
  5
6D2
330
1F
100
AcDbEntity
  8
0
  6
CONTINUOUS
 62
     0
100
AcDbLine
 10
84.18454962301508
 20
292.3588123469826
 30
0.0
 11
84.18454962301508
 21
291.4388123469825
 31
0.0
  0
LINE
  5
6D3
330
1F
100
AcDbEntity
  8
0
  6
CONTINUOUS
 62
     0
100
AcDbLine
 10
84.18454962301508
 20
289.8588123469835
 30
0.0
 11
84.18454962301508
 21
288.9388123469823
 31
0.0
  0
LINE
  5
6D4
330
1F
100
AcDbEntity
  8
0
  6
CONTINUOUS
 62
     0
100
AcDbLine
 10
84.18454962301508
 20
300.1200269218825
 30
0.0
 11
85.05454962301483
 21
299.8488123469833
 31
0.0
  0
LINE
  5
6D5
330
1F
100
AcDbEntity
  8
0
  6
CONTINUOUS
 62
     0
100
AcDbLine
 10
84.18454962301508
 20
285.6775977720845
 30
0.0
 11
85.05454962301483
 21
285.9488123469834
 31
0.0
  0
ARC
  5
6D6
330
1F
100
AcDbEntity
  8
0
  6
CONTINUOUS
 62
     0
100
AcDbCircle
 10
99.87454962301512
 20
299.6488123469826
 30
0.0
 40
0.2
100
AcDbArc
 50
0.0
 51
90.0
  0
ARC
  5
6D7
330
1F
100
AcDbEntity
  8
0
  6
CONTINUOUS
 62
     0
100
AcDbCircle
 10
99.87454962301512
 20
286.1488123469835
 30
0.0
 40
0.2
100
AcDbArc
 50
270.0
 51
0.0
  0
ARC
  5
6D8
330
1F
100
AcDbEntity
  8
0
  6
CONTINUOUS
 62
     0
100
AcDbCircle
 10
85.25454962301479
 20
286.1488123469835
 30
0.0
 40
0.2
100
AcDbArc
 50
180.0
 51
270.0
  0
ARC
  5
6D9
330
1F
100
AcDbEntity
  8
0
  6
CONTINUOUS
 62
     0
100
AcDbCircle
 10
85.25454962301479
 20
299.6488123469826
 30
0.0
 40
0.2
100
AcDbArc
 50
90.0
 51
180.0
  0
LINE
  5
6DA
330
1F
100
AcDbEntity
  8
0
  6
CONTINUOUS
 62
     0
100
AcDbLine
 10
87.91454962301513
 20
293.8988123469826
 30
0.0
 11
84.75454962301478
 21
293.8988123469826
 31
0.0
  0
LINE
  5
6DB
330
1F
100
AcDbEntity
  8
0
  6
CONTINUOUS
 62
     0
100
AcDbLine
 10
87.91454962301513
 20
291.8988123469834
 30
0.0
 11
84.75454962301478
 21
291.8988123469834
 31
0.0
  0
LINE
  5
6DC
330
1F
100
AcDbEntity
  8
0
  6
CONTINUOUS
 62
     0
100
AcDbLine
 10
96.31454962301495
 20
293.8988123469826
 30
0.0
 11
100.3745496230151
 21
293.8988123469826
 31
0.0
  0
LINE
  5
6DD
330
1F
100
AcDbEntity
  8
0
  6
CONTINUOUS
 62
     0
100
AcDbLine
 10
96.31454962301495
 20
291.8988123469834
 30
0.0
 11
100.3745496230151
 21
291.8988123469834
 31
0.0
  0
LINE
  5
6DE
330
1F
100
AcDbEntity
  8
0
  6
CONTINUOUS
 62
     0
100
AcDbLine
 10
99.774549623015
 20
300.1488123469826
 30
0.0
 11
85.35454962301512
 21
300.1488123469826
 31
0.0
  0
LINE
  5
6DF
330
1F
100
AcDbEntity
  8
0
  6
CONTINUOUS
 62
     0
100
AcDbLine
 10
85.35454962301512
 20
285.6488123469826
 30
0.0
 11
99.774549623015
 21
285.6488123469826
 31
0.0
  0
LINE
  5
6E0
330
1F
100
AcDbEntity
  8
0
  6
CONTINUOUS
 62
     0
100
AcDbLine
 10
100.3745496230151
 20
293.8988123469826
 30
0.0
 11
100.3745496230151
 21
299.5488123469826
 31
0.0
  0
LINE
  5
6E1
330
1F
100
AcDbEntity
  8
0
  6
CONTINUOUS
 62
     0
100
AcDbLine
 10
100.3745496230151
 20
291.8988123469834
 30
0.0
 11
100.3745496230151
 21
286.2488123469832
 31
0.0
  0
LINE
  5
6E2
330
1F
100
AcDbEntity
  8
0
  6
CONTINUOUS
 62
     0
100
AcDbLine
 10
84.75454962301478
 20
291.8988123469834
 30
0.0
 11
84.75454962301478
 21
286.2488123469832
 31
0.0
  0
LINE
  5
6E3
330
1F
100
AcDbEntity
  8
0
 62
     0
100
AcDbLine
 10
100.2845496230149
 20
318.4488083469395
 30
0.0
 11
100.2845496230149
 21
315.7488083469383
 31
0.0
  0
LINE
  5
6E4
330
1F
100
AcDbEntity
  8
0
 62
     0
100
AcDbLine
 10
98.68454962301465
 20
315.7488083469383
 30
0.0
 11
98.68454962301465
 21
318.4488083469395
 31
0.0
  0
LINE
  5
6E5
330
1F
100
AcDbEntity
  8
0
 62
     0
100
AcDbLine
 10
100.2845496230149
 20
318.4488083469395
 30
0.0
 11
98.68454962301465
 21
318.4488083469395
 31
0.0
  0
LINE
  5
6E6
330
1F
100
AcDbEntity
  8
0
 62
     0
100
AcDbLine
 10
100.2845496230149
 20
315.7488083469383
 30
0.0
 11
98.68454962301465
 21
315.7488083469383
 31
0.0
  0
LINE
  5
6E7
330
1F
100
AcDbEntity
  8
0
 62
     0
100
AcDbLine
 10
100.2845496230149
 20
312.9488123469793
 30
0.0
 11
100.2845496230149
 21
310.2488123469786
 31
0.0
  0
LINE
  5
6E8
330
1F
100
AcDbEntity
  8
0
 62
     0
100
AcDbLine
 10
98.68454962301465
 20
310.2488123469786
 30
0.0
 11
98.68454962301465
 21
312.9488123469793
 31
0.0
  0
LINE
  5
6E9
330
1F
100
AcDbEntity
  8
0
 62
     0
100
AcDbLine
 10
100.2845496230149
 20
312.9488123469793
 30
0.0
 11
98.68454962301465
 21
312.9488123469793
 31
0.0
  0
LINE
  5
6EA
330
1F
100
AcDbEntity
  8
0
 62
     0
100
AcDbLine
 10
100.2845496230149
 20
310.2488123469786
 30
0.0
 11
98.68454962301465
 21
310.2488123469786
 31
0.0
  0
LINE
  5
6EB
330
1F
100
AcDbEntity
  8
0
 62
     0
100
AcDbLine
 10
83.18454962301496
 20
303.3988123469814
 30
0.0
 11
101.2846234316075
 21
303.3988123469823
 31
0.0
  0
LINE
  5
6EC
330
1F
100
AcDbEntity
  8
0
 62
     0
100
AcDbLine
 10
83.18454962301599
 20
282.3988123469811
 30
0.0
 11
101.2846234316075
 21
282.3988123469823
 31
0.0
  0
LINE
  5
6ED
330
1F
100
AcDbEntity
  8
0
 62
     0
100
AcDbLine
 10
101.2846234316075
 20
303.3988123469823
 30
0.0
 11
101.2846234316075
 21
282.3988123469823
 31
0.0
  0
LINE
  5
6EE
330
1F
100
AcDbEntity
  8
0
 62
     0
 48
5.0
100
AcDbLine
 10
83.18454962301496
 20
303.3988123469814
 30
0.0
 11
83.18454962301656
 21
282.3988123469811
 31
0.0
  0
LINE
  5
6EF
330
1F
100
AcDbEntity
  8
0
 62
     0
100
AcDbLine
 10
84.18454962301508
 20
303.3988123469814
 30
0.0
 11
84.18454962301508
 21
282.3988123469823
 31
0.0
  0
LINE
  5
6F0
330
1F
100
AcDbEntity
  8
0
 62
     0
100
AcDbLine
 10
96.18454962301495
 20
300.1488123469826
 30
0.0
 11
96.18454962301495
 21
303.3988123469823
 31
0.0
  0
LINE
  5
6F1
330
1F
100
AcDbEntity
  8
0
 62
     0
100
AcDbLine
 10
96.18454962301495
 20
303.3988123469823
 30
0.0
 11
97.78454962301488
 21
303.3988123469823
 31
0.0
  0
LINE
  5
6F2
330
1F
100
AcDbEntity
  8
0
 62
     0
100
AcDbLine
 10
97.78454962301488
 20
303.3988123469823
 30
0.0
 11
97.78454962301488
 21
300.1488123469826
 31
0.0
  0
LINE
  5
6F3
330
1F
100
AcDbEntity
  8
0
 62
     0
100
AcDbLine
 10
96.18454962301495
 20
285.6488123469826
 30
0.0
 11
96.18454962301495
 21
282.3988123469823
 31
0.0
  0
LINE
  5
6F4
330
1F
100
AcDbEntity
  8
0
 62
     0
100
AcDbLine
 10
96.18454962301495
 20
282.3988123469823
 30
0.0
 11
97.78454962301488
 21
282.3988123469823
 31
0.0
  0
LINE
  5
6F5
330
1F
100
AcDbEntity
  8
0
 62
     0
100
AcDbLine
 10
97.78454962301488
 20
282.3988123469823
 30
0.0
 11
97.78454962301488
 21
285.6488123469826
 31
0.0
  0
LINE
  5
801
330
1F
100
AcDbEntity
  8
0
100
AcDbLine
 10
55.18454962301497
 20
4.999998268551391
 30
0.0
 11
109.1845496230149
 21
3.585958503814366
 31
0.0
  0
LINE
  5
802
330
1F
100
AcDbEntity
  8
0
100
AcDbLine
 10
109.1845496230149
 20
3.585958503814366
 30
0.0
 11
56.18454962301496
 21
4.973812346982409
 31
0.0
  0
LINE
  5
804
330
1F
100
AcDbEntity
  8
0
100
AcDbLine
 10
67.18454962301496
 20
21.97381234698239
 30
0.0
 11
109.1845496230149
 21
21.97381234698239
 31
0.0
  0
LINE
  5
805
330
1F
100
AcDbEntity
  8
0
100
AcDbLine
 10
108.1845496230149
 20
42.9738123469824
 30
0.0
 11
67.18454962301496
 21
42.9738123469824
 31
0.0
  0
LINE
  5
806
330
1F
100
AcDbEntity
  8
0
100
AcDbLine
 10
108.1845496230149
 20
40.97381234698239
 30
0.0
 11
67.18454962301496
 21
40.97381234698239
 31
0.0
  0
LINE
  5
807
330
1F
100
AcDbEntity
  8
0
100
AcDbLine
 10
108.1845496230149
 20
35.97381234698239
 30
0.0
 11
67.18454962301496
 21
35.97381234698239
 31
0.0
  0
LINE
  5
808
330
1F
100
AcDbEntity
  8
0
100
AcDbLine
 10
108.1845496230149
 20
33.97381234698241
 30
0.0
 11
67.18454962301496
 21
33.97381234698241
 31
0.0
  0
LINE
  5
809
330
1F
100
AcDbEntity
  8
0
100
AcDbLine
 10
108.1845496230149
 20
28.9738123469824
 30
0.0
 11
67.18454962301496
 21
28.9738123469824
 31
0.0
  0
LINE
  5
80A
330
1F
100
AcDbEntity
  8
0
100
AcDbLine
 10
108.1845496230149
 20
26.97381234698241
 30
0.0
 11
67.18454962301496
 21
26.97381234698241
 31
0.0
  0
LINE
  5
80B
330
1F
100
AcDbEntity
  8
0
100
AcDbLine
 10
57.18454962301496
 20
120.9738123469824
 30
0.0
 11
109.1845496230149
 21
120.9738123469824
 31
0.0
  0
LINE
  5
80D
330
1F
100
AcDbEntity
  8
0
100
AcDbLine
 10
37.18454962301496
 20
-0.0000017314485916
 30
0.0
 11
109.1845496230149
 21
-0.0000017314486059
 31
0.0
  0
LINE
  5
80E
330
1F
100
AcDbEntity
  8
0
100
AcDbLine
 10
37.18454962301496
 20
78.99999826855141
 30
0.0
 11
37.18454962301496
 21
53.9999982685514
 31
0.0
  0
LINE
  5
810
330
1F
100
AcDbEntity
  8
0
100
AcDbLine
 10
56.18454962301496
 20
70.99999826855139
 30
0.0
 11
56.18454962301496
 21
32.99999826855138
 31
0.0
  0
LINE
  5
811
330
1F
100
AcDbEntity
  8
0
100
AcDbLine
 10
57.18454962301496
 20
32.97381234698338
 30
0.0
 11
57.18454962301496
 21
70.97381234698239
 31
0.0
  0
LINE
  5
812
330
1F
100
AcDbEntity
  8
0
100
AcDbLine
 10
67.18454962301496
 20
103.9738123469822
 30
0.0
 11
67.18454962301496
 21
21.97381234698239
 31
0.0
  0
ARC
  5
813
330
1F
100
AcDbEntity
  8
0
100
AcDbCircle
 10
38.18454962301496
 20
56.05153904150336
 30
0.0
 40
1.0
100
AcDbArc
 50
93.03047684586102
 51
180.0
  0
LINE
  5
814
330
1F
100
AcDbEntity
  8
0
100
AcDbLine
 10
55.18454962301497
 20
4.999998268551391
 30
0.0
 11
37.18454962301496
 21
4.528651680305427
 31
0.0
  0
LINE
  5
815
330
1F
100
AcDbEntity
  8
0
100
AcDbLine
 10
37.18454962301496
 20
21.17551598519344
 30
0.0
 11
37.18454962301496
 21
-0.0000017314485916
 31
0.0
  0
LINE
  5
816
330
1F
100
AcDbEntity
  8
0
100
AcDbLine
 10
37.33099623242162
 20
53.64644487795811
 30
0.0
 11
41.18454962301496
 21
51.99999826855139
 31
0.0
  0
LINE
  5
817
330
1F
100
AcDbEntity
  8
0
100
AcDbLine
 10
37.65838164489388
 20
21.67483075257143
 30
0.0
 11
48.76305355737997
 21
22.25680194717142
 31
0.0
  0
LINE
  5
818
330
1F
100
AcDbEntity
  8
0
100
AcDbLine
 10
38.13168248187492
 20
29.05014059637244
 30
0.0
 11
48.76385033472604
 21
29.61302007093536
 31
0.0
  0
LINE
  5
819
330
1F
100
AcDbEntity
  8
0
100
AcDbLine
 10
38.13168248187492
 20
26.94985594072945
 30
0.0
 11
48.76385033472604
 21
26.38697646616638
 31
0.0
  0
LINE
  5
81A
330
1F
100
AcDbEntity
  8
0
100
AcDbLine
 10
38.13168248187492
 20
54.94985594072943
 30
0.0
 11
48.76385033472604
 21
54.3869764661664
 31
0.0
  0
LINE
  5
81B
330
1F
100
AcDbEntity
  8
0
100
AcDbLine
 10
38.13168248187492
 20
50.05014059637243
 30
0.0
 11
48.76385033472604
 21
50.61302007093536
 31
0.0
  0
LINE
  5
81C
330
1F
100
AcDbEntity
  8
0
100
AcDbLine
 10
38.13168248187492
 20
47.94985594072943
 30
0.0
 11
48.76385033472604
 21
47.3869764661664
 31
0.0
  0
LINE
  5
81D
330
1F
100
AcDbEntity
  8
0
100
AcDbLine
 10
38.13168248187492
 20
43.05014059637243
 30
0.0
 11
48.76385033472604
 21
43.61302007093536
 31
0.0
  0
LINE
  5
81E
330
1F
100
AcDbEntity
  8
0
100
AcDbLine
 10
38.13168248187492
 20
40.94985594072944
 30
0.0
 11
48.76385033472604
 21
40.38697646616639
 31
0.0
  0
LINE
  5
81F
330
1F
100
AcDbEntity
  8
0
100
AcDbLine
 10
38.13168248187492
 20
36.05014059637243
 30
0.0
 11
48.76385033472604
 21
36.61302007093535
 31
0.0
  0
LINE
  5
820
330
1F
100
AcDbEntity
  8
0
100
AcDbLine
 10
38.13168248187492
 20
33.94985594072945
 30
0.0
 11
48.76385033472604
 21
33.38697646616639
 31
0.0
  0
POINT
  5
821
330
1F
100
AcDbEntity
  8
0
100
AcDbPoint
 10
37.18454962301496
 20
21.64999826855138
 30
0.0
  0
ARC
  5
822
330
1F
100
AcDbEntity
  8
0
100
AcDbCircle
 10
37.68454962301496
 20
21.17551598519344
 30
0.0
 40
0.5
100
AcDbArc
 50
92.9999999999991
 51
180.0
  0
LINE
  5
823
330
1F
100
AcDbEntity
  8
0
100
AcDbLine
 10
37.18454962301496
 20
28.05153904150337
 30
0.0
 11
37.18454962301496
 21
27.94845749559842
 31
0.0
  0
ARC
  5
824
330
1F
100
AcDbEntity
  8
0
100
AcDbCircle
 10
38.18454962301496
 20
28.05153904150337
 30
0.0
 40
1.0
100
AcDbArc
 50
93.03047684586102
 51
180.0
  0
ARC
  5
825
330
1F
100
AcDbEntity
  8
0
100
AcDbCircle
 10
38.18454962301496
 20
27.94845749559842
 30
0.0
 40
1.0
100
AcDbArc
 50
180.0
 51
266.9695231541389
  0
LINE
  5
826
330
1F
100
AcDbEntity
  8
0
100
AcDbLine
 10
37.18454962301496
 20
35.05153904150336
 30
0.0
 11
37.18454962301496
 21
34.94845749559839
 31
0.0
  0
ARC
  5
827
330
1F
100
AcDbEntity
  8
0
100
AcDbCircle
 10
38.18454962301496
 20
35.05153904150336
 30
0.0
 40
1.0
100
AcDbArc
 50
93.03047684586102
 51
180.0
  0
ARC
  5
828
330
1F
100
AcDbEntity
  8
0
100
AcDbCircle
 10
38.18454962301496
 20
34.94845749559841
 30
0.0
 40
1.0
100
AcDbArc
 50
180.0
 51
266.9695231541389
  0
ARC
  5
829
330
1F
100
AcDbEntity
  8
0
100
AcDbCircle
 10
37.68454962301496
 20
53.9999982685514
 30
0.0
 40
0.5
100
AcDbArc
 50
180.0
 51
224.9999999999904
  0
LINE
  5
82A
330
1F
100
AcDbEntity
  8
0
100
AcDbLine
 10
37.18454962301496
 20
42.05153904150336
 30
0.0
 11
37.18454962301496
 21
41.94845749559839
 31
0.0
  0
ARC
  5
82B
330
1F
100
AcDbEntity
  8
0
100
AcDbCircle
 10
38.18454962301496
 20
42.05153904150336
 30
0.0
 40
1.0
100
AcDbArc
 50
93.03047684586102
 51
180.0
  0
ARC
  5
82C
330
1F
100
AcDbEntity
  8
0
100
AcDbCircle
 10
38.18454962301496
 20
41.94845749559839
 30
0.0
 40
1.0
100
AcDbArc
 50
180.0
 51
266.9695231541389
  0
LINE
  5
82D
330
1F
100
AcDbEntity
  8
0
100
AcDbLine
 10
37.18454962301496
 20
56.05153904150336
 30
0.0
 11
37.18454962301496
 21
55.94845749559841
 31
0.0
  0
ARC
  5
82E
330
1F
100
AcDbEntity
  8
0
100
AcDbCircle
 10
38.18454962301496
 20
55.94845749559841
 30
0.0
 40
1.0
100
AcDbArc
 50
180.0
 51
266.9695231541389
  0
LINE
  5
82F
330
1F
100
AcDbEntity
  8
0
100
AcDbLine
 10
37.18454962301496
 20
49.05153904150336
 30
0.0
 11
37.18454962301496
 21
48.9484574955984
 31
0.0
  0
ARC
  5
830
330
1F
100
AcDbEntity
  8
0
100
AcDbCircle
 10
38.18454962301496
 20
49.05153904150336
 30
0.0
 40
1.0
100
AcDbArc
 50
93.03047684586102
 51
180.0
  0
ARC
  5
831
330
1F
100
AcDbEntity
  8
0
100
AcDbCircle
 10
38.18454962301496
 20
48.9484574955984
 30
0.0
 40
1.0
100
AcDbArc
 50
180.0
 51
266.9695231541389
  0
ARC
  5
832
330
1F
100
AcDbEntity
  8
0
100
AcDbCircle
 10
48.68454962301496
 20
38.11092240323946
 30
0.0
 40
1.5
100
AcDbArc
 50
273.030476845861
 51
0.0
  0
LINE
  5
833
330
1F
100
AcDbEntity
  8
0
100
AcDbLine
 10
50.18454962301497
 20
31.88907413386242
 30
0.0
 11
50.18454962301497
 21
31.11092240323944
 31
0.0
  0
ARC
  5
834
330
1F
100
AcDbEntity
  8
0
100
AcDbCircle
 10
48.68454962301496
 20
31.11092240323944
 30
0.0
 40
1.5
100
AcDbArc
 50
273.030476845861
 51
0.0
  0
LINE
  5
835
330
1F
100
AcDbEntity
  8
0
100
AcDbLine
 10
50.18454962301497
 20
24.88907413386243
 30
0.0
 11
50.18454962301497
 21
23.75474624930336
 31
0.0
  0
ARC
  5
836
330
1F
100
AcDbEntity
  8
0
100
AcDbCircle
 10
48.68454962301496
 20
24.88907413386244
 30
0.0
 40
1.5
100
AcDbArc
 50
0.0
 51
86.96952315413893
  0
ARC
  5
837
330
1F
100
AcDbEntity
  8
0
100
AcDbCircle
 10
48.68454962301496
 20
23.75474624930338
 30
0.0
 40
1.5
100
AcDbArc
 50
273.0000000000056
 51
0.0
  0
ARC
  5
838
330
1F
100
AcDbEntity
  8
0
100
AcDbCircle
 10
48.68454962301496
 20
31.88907413386244
 30
0.0
 40
1.5
100
AcDbArc
 50
0.0
 51
86.96952315413893
  0
LINE
  5
839
330
1F
100
AcDbEntity
  8
0
  6
CONTINUOUS
100
AcDbLine
 10
43.18454962301497
 20
46.49999826855139
 30
0.0
 11
50.05450279800106
 21
46.49999826855139
 31
0.0
  0
LINE
  5
83A
330
1F
100
AcDbEntity
  8
0
  6
CONTINUOUS
100
AcDbLine
 10
41.18454962301484
 20
54.788233562669
 30
0.0
 11
41.18454962301496
 21
53.9999982685514
 31
0.0
  0
LINE
  5
83B
330
1F
100
AcDbEntity
  8
0
  6
CONTINUOUS
100
AcDbLine
 10
43.18454962301497
 20
54.68235120972775
 30
0.0
 11
43.18454962301497
 21
50.31764532737406
 31
0.0
  0
LINE
  5
83C
330
1F
100
AcDbEntity
  8
0
100
AcDbLine
 10
39.18454962301495
 20
54.89411591561021
 30
0.0
 11
39.18454962301495
 21
54.85450653275552
 31
0.0
  0
LINE
  5
83D
330
1F
100
AcDbEntity
  8
0
100
AcDbLine
 10
41.18454962301496
 20
47.788233562669
 30
0.0
 11
41.18454962301496
 21
46.99999826855139
 31
0.0
  0
LINE
  5
83E
330
1F
100
AcDbEntity
  8
0
100
AcDbLine
 10
43.18454962301497
 20
50.31764532737406
 30
0.0
 11
43.18454962301497
 21
53.9999982685514
 31
0.0
  0
LINE
  5
83F
330
1F
100
AcDbEntity
  8
0
  6
CONTINUOUS
100
AcDbLine
 10
43.18454962301497
 20
47.68235120972775
 30
0.0
 11
43.18454962301497
 21
46.49999826855139
 31
0.0
  0
LINE
  5
840
330
1F
100
AcDbEntity
  8
0
100
AcDbLine
 10
39.18454962301495
 20
52.85450653275548
 30
0.0
 11
39.18454962301495
 21
51.99999826855139
 31
0.0
  0
LINE
  5
841
330
1F
100
AcDbEntity
  8
0
100
AcDbLine
 10
39.18454962301495
 20
54.85450653275552
 30
0.0
 11
41.18454962301496
 21
53.9999982685514
 31
0.0
  0
LINE
  5
842
330
1F
100
AcDbEntity
  8
0
100
AcDbLine
 10
39.18454962301495
 20
54.85450653275548
 30
0.0
 11
39.18454962301495
 21
54.89411591561021
 31
0.0
  0
ARC
  5
843
330
1F
100
AcDbEntity
  8
0
100
AcDbCircle
 10
39.68454962301496
 20
51.99999826855139
 30
0.0
 40
0.5
100
AcDbArc
 50
180.0
 51
270.0
  0
ARC
  5
844
330
1F
100
AcDbEntity
  8
0
100
AcDbCircle
 10
40.68454962301496
 20
51.99999826855139
 30
0.0
 40
0.5
100
AcDbArc
 50
270.0
 51
0.0
  0
LINE
  5
845
330
1F
100
AcDbEntity
  8
0
100
AcDbLine
 10
39.68454962301496
 20
51.4999982685514
 30
0.0
 11
40.68454962301496
 21
51.4999982685514
 31
0.0
  0
ARC
  5
846
330
1F
100
AcDbEntity
  8
0
100
AcDbCircle
 10
41.68454962301495
 20
46.99999826855139
 30
0.0
 40
0.5
100
AcDbArc
 50
180.0
 51
270.0
  0
ARC
  5
847
330
1F
100
AcDbEntity
  8
0
100
AcDbCircle
 10
42.68454962301517
 20
46.99999826855139
 30
0.0
 40
0.5
100
AcDbArc
 50
270.0
 51
0.0
  0
ARC
  5
848
330
1F
100
AcDbEntity
  8
0
100
AcDbCircle
 10
42.68454962301496
 20
53.9999982685514
 30
0.0
 40
0.5
100
AcDbArc
 50
0.0
 51
90.0
  0
ARC
  5
849
330
1F
100
AcDbEntity
  8
0
100
AcDbCircle
 10
41.68454962301495
 20
53.9999982685514
 30
0.0
 40
0.5
100
AcDbArc
 50
90.0
 51
180.0
  0
LINE
  5
84A
330
1F
100
AcDbEntity
  8
0
100
AcDbLine
 10
41.18454962301496
 20
51.99999826855152
 30
0.0
 11
41.18454962301496
 21
50.21176297443286
 31
0.0
  0
LINE
  5
84B
330
1F
100
AcDbEntity
  8
0
100
AcDbLine
 10
42.68454962301496
 20
54.49999826855139
 30
0.0
 11
41.68454962301495
 21
54.49999826855139
 31
0.0
  0
LINE
  5
84C
330
1F
100
AcDbEntity
  8
0
100
AcDbLine
 10
43.18454962301518
 20
46.99999826855139
 30
0.0
 11
43.18454962301518
 21
47.68235120972774
 31
0.0
  0
LINE
  5
84D
330
1F
100
AcDbEntity
  8
0
100
AcDbLine
 10
41.68454962301495
 20
46.49999826855139
 30
0.0
 11
42.68454962301517
 21
46.49999826855139
 31
0.0
  0
LINE
  5
84E
330
1F
100
AcDbEntity
  8
0
100
AcDbLine
 10
50.18454962301497
 20
38.88907413386244
 30
0.0
 11
50.18454962301497
 21
38.11092240323942
 31
0.0
  0
LINE
  5
84F
330
1F
100
AcDbEntity
  8
0
100
AcDbLine
 10
49.18454962301495
 20
43.69670884086644
 30
0.0
 11
49.18454962301495
 21
46.49999826855139
 31
0.0
  0
LINE
  5
850
330
1F
100
AcDbEntity
  8
0
100
AcDbLine
 10
50.18454962301497
 20
45.88907413386244
 30
0.0
 11
50.18454962301497
 21
45.11092240323944
 31
0.0
  0
ARC
  5
851
330
1F
100
AcDbEntity
  8
0
100
AcDbCircle
 10
48.68454962301496
 20
45.88907413386244
 30
0.0
 40
1.5
100
AcDbArc
 50
0.0
 51
86.96952315413893
  0
ARC
  5
852
330
1F
100
AcDbEntity
  8
0
100
AcDbCircle
 10
48.68454962301496
 20
45.11092240323944
 30
0.0
 40
1.5
100
AcDbArc
 50
273.030476845861
 51
0.0
  0
ARC
  5
853
330
1F
100
AcDbEntity
  8
0
100
AcDbCircle
 10
48.68454962301496
 20
38.88907413386244
 30
0.0
 40
1.5
100
AcDbArc
 50
0.0
 51
86.96952315413893
  0
LINE
  5
854
330
1F
100
AcDbEntity
  8
0
100
AcDbLine
 10
50.18454962301497
 20
52.88907413386244
 30
0.0
 11
50.18454962301497
 21
52.11092240323944
 31
0.0
  0
ARC
  5
855
330
1F
100
AcDbEntity
  8
0
100
AcDbCircle
 10
48.68454962301496
 20
52.88907413386244
 30
0.0
 40
1.5
100
AcDbArc
 50
0.0
 51
86.96952315413893
  0
ARC
  5
856
330
1F
100
AcDbEntity
  8
0
100
AcDbCircle
 10
48.68454962301496
 20
52.11092240323944
 30
0.0
 40
1.5
100
AcDbArc
 50
273.030476845861
 51
0.0
  0
LINE
  5
857
330
1F
100
AcDbEntity
  8
0
100
AcDbLine
 10
56.18454962301496
 20
20.99999826855138
 30
0.0
 11
56.18454962301496
 21
4.973812346981386
 31
0.0
  0
LINE
  5
858
330
1F
100
AcDbEntity
  8
0
100
AcDbLine
 10
57.18454962301496
 20
4.921440503844391
 30
0.0
 11
57.18454962301496
 21
20.97381234698241
 31
0.0
  0
LINE
  5
859
330
1F
100
AcDbEntity
  8
0
100
AcDbLine
 10
82.47583747049191
 20
4.259164823886406
 30
0.0
 11
82.47583747049191
 21
21.97381234698239
 31
0.0
  0
LINE
  5
85A
330
1F
100
AcDbEntity
  8
0
100
AcDbLine
 10
77.89326177553687
 20
4.379163791619356
 30
0.0
 11
77.89326177553687
 21
21.97381234698343
 31
0.0
  0
LINE
  5
85B
330
1F
100
AcDbEntity
  8
0
100
AcDbLine
 10
78.08454962301391
 20
3.799998268550377
 30
0.0
 11
78.08454962301391
 21
-0.0000017314486059
 31
0.0
  0
LINE
  5
85C
330
1F
100
AcDbEntity
  8
0
100
AcDbLine
 10
82.28454962301489
 20
3.799998268550377
 30
0.0
 11
82.28454962301489
 21
-0.0000017314486059
 31
0.0
  0
LINE
  5
85D
330
1F
100
AcDbEntity
  8
0
100
AcDbLine
 10
74.68454962301496
 20
3.799998268550377
 30
0.0
 11
85.68454962301492
 21
3.799998268550377
 31
0.0
  0
LINE
  5
85E
330
1F
100
AcDbEntity
  8
0
100
AcDbLine
 10
74.68454962301496
 20
4.489372797951426
 30
0.0
 11
74.68454962301496
 21
3.799998268550377
 31
0.0
  0
LINE
  5
85F
330
1F
100
AcDbEntity
  8
0
100
AcDbLine
 10
85.68454962301492
 20
4.201327660691386
 30
0.0
 11
85.68454962301492
 21
3.799998268550377
 31
0.0
  0
LINE
  5
863
330
1F
100
AcDbEntity
  8
0
100
AcDbLine
 10
60.68454962301497
 20
22.99999826855139
 30
0.0
 11
59.18454962301392
 21
22.99999826855139
 31
0.0
  0
LINE
  5
864
330
1F
100
AcDbEntity
  8
0
100
AcDbLine
 10
60.88454962301383
 20
22.47381234698241
 30
0.0
 11
59.18454962301392
 21
22.47381234698241
 31
0.0
  0
LINE
  5
865
330
1F
100
AcDbEntity
  8
0
100
AcDbLine
 10
56.18454962301496
 20
20.99999826855138
 30
0.0
 11
54.88454962301499
 21
20.99999826855138
 31
0.0
  0
LINE
  5
866
330
1F
100
AcDbEntity
  8
0
100
AcDbLine
 10
57.18454962301496
 20
20.97381234698241
 30
0.0
 11
56.18454962301496
 21
20.97381234698241
 31
0.0
  0
LINE
  5
867
330
1F
100
AcDbEntity
  8
0
100
AcDbLine
 10
60.68454962301497
 20
30.99999826855139
 30
0.0
 11
59.18454962301392
 21
30.99999826855139
 31
0.0
  0
LINE
  5
868
330
1F
100
AcDbEntity
  8
0
100
AcDbLine
 10
56.18454962301496
 20
32.99999826855138
 30
0.0
 11
54.88454962301499
 21
32.99999826855138
 31
0.0
  0
LINE
  5
869
330
1F
100
AcDbEntity
  8
0
100
AcDbLine
 10
60.88454962301383
 20
31.47381234698241
 30
0.0
 11
59.18454962301392
 21
31.47381234698241
 31
0.0
  0
LINE
  5
86A
330
1F
100
AcDbEntity
  8
0
100
AcDbLine
 10
57.18454962301496
 20
32.97381234698338
 30
0.0
 11
56.18454962301496
 21
32.97381234698338
 31
0.0
  0
LINE
  5
86B
330
1F
100
AcDbEntity
  8
0
100
AcDbLine
 10
59.28454962301486
 20
30.99999826855139
 30
0.0
 11
59.28454962301486
 21
22.99999826855139
 31
0.0
  0
LINE
  5
86C
330
1F
100
AcDbEntity
  8
0
100
AcDbLine
 10
59.88454962301499
 20
30.99999826855139
 30
0.0
 11
59.88454962301499
 21
22.99999826855139
 31
0.0
  0
LINE
  5
86D
330
1F
100
AcDbEntity
  8
0
100
AcDbLine
 10
60.68454962301497
 20
30.99999826855139
 30
0.0
 11
60.68454962301497
 21
22.99999826855139
 31
0.0
  0
LINE
  5
86E
330
1F
100
AcDbEntity
  8
0
100
AcDbLine
 10
54.88454962301499
 20
32.99999826855138
 30
0.0
 11
54.88454962301499
 21
21.09999826855039
 31
0.0
  0
LINE
  5
86F
330
1F
100
AcDbEntity
  8
0
100
AcDbLine
 10
55.68454962301497
 20
32.99999826855138
 30
0.0
 11
55.68454962301497
 21
20.99999826855138
 31
0.0
  0
LINE
  5
870
330
1F
100
AcDbEntity
  8
0
100
AcDbLine
 10
56.18454962301496
 20
32.99999826855138
 30
0.0
 11
56.18454962301496
 21
20.99999826855035
 31
0.0
  0
LINE
  5
871
330
1F
100
AcDbEntity
  8
0
100
AcDbLine
 10
59.18454962301392
 20
31.47381234698241
 30
0.0
 11
59.18454962301392
 21
22.47381234698241
 31
0.0
  0
LINE
  5
872
330
1F
100
AcDbEntity
  8
0
100
AcDbLine
 10
60.88454962301383
 20
31.47381234698241
 30
0.0
 11
60.88454962301383
 21
22.47381234698241
 31
0.0
  0
LINE
  5
875
330
1F
100
AcDbEntity
  8
0
100
AcDbLine
 10
37.18454962301496
 20
120.5286516803051
 30
0.0
 11
55.1845496230179
 21
120.9999982685502
 31
0.0
  0
LINE
  5
876
330
1F
100
AcDbEntity
  8
0
100
AcDbLine
 10
47.98454962301593
 20
96.42823356266845
 30
0.0
 11
47.98454962301593
 21
92.57176297443344
 31
0.0
  0
LINE
  5
877
330
1F
100
AcDbEntity
  8
0
100
AcDbLine
 10
50.18454962301497
 20
94.88907413386243
 30
0.0
 11
50.18454962301497
 21
94.11092240323943
 31
0.0
  0
LINE
  5
878
330
1F
100
AcDbEntity
  8
0
100
AcDbLine
 10
37.33099623242162
 20
79.35355165914469
 30
0.0
 11
41.18454962301496
 21
80.99999826855141
 31
0.0
  0
LINE
  5
879
330
1F
100
AcDbEntity
  8
0
100
AcDbLine
 10
38.13168248187492
 20
64.05014059637244
 30
0.0
 11
48.76385033472604
 21
64.61302007093536
 31
0.0
  0
LINE
  5
87A
330
1F
100
AcDbEntity
  8
0
100
AcDbLine
 10
38.13168248187492
 20
61.94985594072942
 30
0.0
 11
48.76385033472604
 21
61.3869764661664
 31
0.0
  0
LINE
  5
87B
330
1F
100
AcDbEntity
  8
0
100
AcDbLine
 10
38.13168248187492
 20
57.05014059637242
 30
0.0
 11
48.76385033472604
 21
57.61302007093537
 31
0.0
  0
LINE
  5
87C
330
1F
100
AcDbEntity
  8
0
100
AcDbLine
 10
38.13168248187492
 20
92.05014059637241
 30
0.0
 11
48.76385033472604
 21
92.61302007093537
 31
0.0
  0
LINE
  5
87D
330
1F
100
AcDbEntity
  8
0
100
AcDbLine
 10
38.13168248187492
 20
89.94985594072941
 30
0.0
 11
48.76385033472604
 21
89.3869764661664
 31
0.0
  0
LINE
  5
87E
330
1F
100
AcDbEntity
  8
0
100
AcDbLine
 10
38.13168248187492
 20
85.05014059637245
 30
0.0
 11
48.76385033472604
 21
85.61302007093535
 31
0.0
  0
LINE
  5
87F
330
1F
100
AcDbEntity
  8
0
100
AcDbLine
 10
38.13168248187492
 20
82.94985594072944
 30
0.0
 11
48.76385033472604
 21
82.38697646616641
 31
0.0
  0
LINE
  5
880
330
1F
100
AcDbEntity
  8
0
100
AcDbLine
 10
38.13168248187492
 20
78.05014059637244
 30
0.0
 11
48.76385033472604
 21
78.61302007093536
 31
0.0
  0
LINE
  5
881
330
1F
100
AcDbEntity
  8
0
100
AcDbLine
 10
38.13168248187492
 20
75.94985594072944
 30
0.0
 11
48.76385033472604
 21
75.38697646616641
 31
0.0
  0
LINE
  5
882
330
1F
100
AcDbEntity
  8
0
100
AcDbLine
 10
38.13168248187492
 20
71.05014059637245
 30
0.0
 11
48.76385033472604
 21
71.61302007093536
 31
0.0
  0
LINE
  5
883
330
1F
100
AcDbEntity
  8
0
100
AcDbLine
 10
38.13168248187492
 20
68.94985594072942
 30
0.0
 11
48.76385033472604
 21
68.3869764661664
 31
0.0
  0
LINE
  5
884
330
1F
100
AcDbEntity
  8
0
100
AcDbLine
 10
37.18454962301496
 20
63.05153904150336
 30
0.0
 11
37.18454962301496
 21
62.9484574955984
 31
0.0
  0
ARC
  5
885
330
1F
100
AcDbEntity
  8
0
100
AcDbCircle
 10
38.18454962301496
 20
63.05153904150336
 30
0.0
 40
1.0
100
AcDbArc
 50
93.03047684586102
 51
180.0
  0
ARC
  5
886
330
1F
100
AcDbEntity
  8
0
100
AcDbCircle
 10
38.18454962301496
 20
62.9484574955984
 30
0.0
 40
1.0
100
AcDbArc
 50
180.0
 51
266.9695231541389
  0
LINE
  5
887
330
1F
100
AcDbEntity
  8
0
100
AcDbLine
 10
37.18454962301496
 20
70.05153904150336
 30
0.0
 11
37.18454962301496
 21
69.9484574955984
 31
0.0
  0
ARC
  5
888
330
1F
100
AcDbEntity
  8
0
100
AcDbCircle
 10
38.18454962301496
 20
70.05153904150336
 30
0.0
 40
1.0
100
AcDbArc
 50
93.03047684586102
 51
180.0
  0
ARC
  5
889
330
1F
100
AcDbEntity
  8
0
100
AcDbCircle
 10
38.18454962301496
 20
69.9484574955984
 30
0.0
 40
1.0
100
AcDbArc
 50
180.0
 51
266.9695231541389
  0
ARC
  5
88A
330
1F
100
AcDbEntity
  8
0
100
AcDbCircle
 10
37.68454962301496
 20
78.99999826855141
 30
0.0
 40
0.5
100
AcDbArc
 50
134.9999999999726
 51
180.0
  0
LINE
  5
88B
330
1F
100
AcDbEntity
  8
0
100
AcDbLine
 10
37.18454962301496
 20
77.05153904150336
 30
0.0
 11
37.18454962301496
 21
76.9484574955984
 31
0.0
  0
ARC
  5
88C
330
1F
100
AcDbEntity
  8
0
100
AcDbCircle
 10
38.18454962301496
 20
77.05153904150336
 30
0.0
 40
1.0
100
AcDbArc
 50
93.03047684586102
 51
180.0
  0
ARC
  5
88D
330
1F
100
AcDbEntity
  8
0
100
AcDbCircle
 10
38.18454962301496
 20
76.9484574955984
 30
0.0
 40
1.0
100
AcDbArc
 50
180.0
 51
266.9695231541389
  0
LINE
  5
88E
330
1F
100
AcDbEntity
  8
0
100
AcDbLine
 10
37.18454962301496
 20
84.05153904150337
 30
0.0
 11
37.18454962301496
 21
83.9484574955984
 31
0.0
  0
ARC
  5
88F
330
1F
100
AcDbEntity
  8
0
100
AcDbCircle
 10
38.18454962301496
 20
84.05153904150337
 30
0.0
 40
1.0
100
AcDbArc
 50
93.03047684586102
 51
180.0
  0
ARC
  5
890
330
1F
100
AcDbEntity
  8
0
100
AcDbCircle
 10
38.18454962301496
 20
83.9484574955984
 30
0.0
 40
1.0
100
AcDbArc
 50
180.0
 51
266.9695231541389
  0
LINE
  5
891
330
1F
100
AcDbEntity
  8
0
100
AcDbLine
 10
37.18454962301496
 20
91.05153904150334
 30
0.0
 11
37.18454962301496
 21
90.94845749559842
 31
0.0
  0
ARC
  5
892
330
1F
100
AcDbEntity
  8
0
100
AcDbCircle
 10
38.18454962301496
 20
91.05153904150334
 30
0.0
 40
1.0
100
AcDbArc
 50
93.03047684586102
 51
180.0
  0
ARC
  5
893
330
1F
100
AcDbEntity
  8
0
100
AcDbCircle
 10
38.18454962301496
 20
90.94845749559842
 30
0.0
 40
1.0
100
AcDbArc
 50
180.0
 51
266.9695231541389
  0
LINE
  5
894
330
1F
100
AcDbEntity
  8
0
  6
CONTINUOUS
100
AcDbLine
 10
41.18454962301496
 20
75.78823356266898
 30
0.0
 11
41.18454962301496
 21
71.21176297443284
 31
0.0
  0
LINE
  5
895
330
1F
100
AcDbEntity
  8
0
  6
CONTINUOUS
100
AcDbLine
 10
43.18454962301497
 20
75.68235120972777
 30
0.0
 11
43.18454962301497
 21
71.31764532737405
 31
0.0
  0
LINE
  5
896
330
1F
100
AcDbEntity
  8
0
100
AcDbLine
 10
39.18454962301495
 20
71.10588062149162
 30
0.0
 11
39.18454962301495
 21
75.89411591561024
 31
0.0
  0
LINE
  5
897
330
1F
100
AcDbEntity
  8
0
100
AcDbLine
 10
39.1845496230153
 20
75.8941159156102
 30
0.0
 11
39.18454962301519
 21
71.10588062149165
 31
0.0
  0
ARC
  5
898
330
1F
100
AcDbEntity
  8
0
100
AcDbCircle
 10
48.68454962301496
 20
73.88907413386244
 30
0.0
 40
1.5
100
AcDbArc
 50
0.0
 51
86.96952315413893
  0
LINE
  5
899
330
1F
100
AcDbEntity
  8
0
  6
CONTINUOUS
100
AcDbLine
 10
41.18454962301496
 20
61.78823356266899
 30
0.0
 11
41.18454962301496
 21
57.21176297443285
 31
0.0
  0
LINE
  5
89A
330
1F
100
AcDbEntity
  8
0
  6
CONTINUOUS
100
AcDbLine
 10
41.18454962301496
 20
68.78823356266901
 30
0.0
 11
41.18454962301496
 21
64.21176297443285
 31
0.0
  0
LINE
  5
89B
330
1F
100
AcDbEntity
  8
0
  6
CONTINUOUS
100
AcDbLine
 10
43.18454962301497
 20
68.68235120972776
 30
0.0
 11
43.18454962301497
 21
64.31764532737408
 31
0.0
  0
LINE
  5
89C
330
1F
100
AcDbEntity
  8
0
100
AcDbLine
 10
39.18454962301495
 20
61.89411591561023
 30
0.0
 11
39.18454962301495
 21
57.10588062149165
 31
0.0
  0
LINE
  5
89D
330
1F
100
AcDbEntity
  8
0
100
AcDbLine
 10
39.18454962301495
 20
64.10588062149165
 30
0.0
 11
39.18454962301495
 21
68.89411591561023
 31
0.0
  0
LINE
  5
89E
330
1F
100
AcDbEntity
  8
0
  6
CONTINUOUS
100
AcDbLine
 10
43.18454962301497
 20
61.68235120972775
 30
0.0
 11
43.18454962301497
 21
57.31764532737408
 31
0.0
  0
LINE
  5
89F
330
1F
100
AcDbEntity
  8
0
100
AcDbLine
 10
39.18454962301495
 20
57.10588062149165
 30
0.0
 11
39.18454962301495
 21
61.89411591561023
 31
0.0
  0
LINE
  5
8A0
330
1F
100
AcDbEntity
  8
0
100
AcDbLine
 10
39.18454962301519
 20
68.89411591561023
 30
0.0
 11
39.18454962301495
 21
64.10588062149165
 31
0.0
  0
LINE
  5
8A1
330
1F
100
AcDbEntity
  8
0
100
AcDbLine
 10
50.18454962301497
 20
59.88907413386243
 30
0.0
 11
50.18454962301497
 21
59.11092240323944
 31
0.0
  0
ARC
  5
8A2
330
1F
100
AcDbEntity
  8
0
100
AcDbCircle
 10
48.68454962301496
 20
59.88907413386243
 30
0.0
 40
1.5
100
AcDbArc
 50
0.0
 51
86.96952315413893
  0
ARC
  5
8A3
330
1F
100
AcDbEntity
  8
0
100
AcDbCircle
 10
48.68454962301496
 20
59.11092240323944
 30
0.0
 40
1.5
100
AcDbArc
 50
273.030476845861
 51
0.0
  0
LINE
  5
8A4
330
1F
100
AcDbEntity
  8
0
100
AcDbLine
 10
50.18454962301497
 20
66.88907413386242
 30
0.0
 11
50.18454962301497
 21
66.11092240323944
 31
0.0
  0
ARC
  5
8A5
330
1F
100
AcDbEntity
  8
0
100
AcDbCircle
 10
48.68454962301496
 20
66.88907413386242
 30
0.0
 40
1.5
100
AcDbArc
 50
0.0
 51
86.96952315413893
  0
LINE
  5
8A6
330
1F
100
AcDbEntity
  8
0
100
AcDbLine
 10
50.18454962301497
 20
73.88907413386244
 30
0.0
 11
50.18454962301497
 21
73.11092240323944
 31
0.0
  0
ARC
  5
8A7
330
1F
100
AcDbEntity
  8
0
100
AcDbCircle
 10
48.68454962301496
 20
73.11092240323944
 30
0.0
 40
1.5
100
AcDbArc
 50
273.030476845861
 51
0.0
  0
ARC
  5
8A8
330
1F
100
AcDbEntity
  8
0
100
AcDbCircle
 10
48.68454962301496
 20
66.11092240323944
 30
0.0
 40
1.5
100
AcDbArc
 50
273.030476845861
 51
0.0
  0
LWPOLYLINE
  5
8A9
330
1F
100
AcDbEntity
  8
0
100
AcDbPolyline
 90
        3
 70
     0
 43
0.0
 10
50.0545027980015
 20
86.49999826855141
 10
43.18454962301497
 20
86.49999826855141
 10
43.18454962301497
 20
85.31764532737408
  0
LINE
  5
8AA
330
1F
100
AcDbEntity
  8
0
  6
CONTINUOUS
100
AcDbLine
 10
41.18454962301496
 20
78.99999826855141
 30
0.0
 11
41.18454962301496
 21
78.21176297443286
 31
0.0
  0
LINE
  5
8AB
330
1F
100
AcDbEntity
  8
0
  6
CONTINUOUS
100
AcDbLine
 10
43.18454962301497
 20
82.68235120972775
 30
0.0
 11
43.18454962301497
 21
78.31764532737405
 31
0.0
  0
LINE
  5
8AC
330
1F
100
AcDbEntity
  8
0
100
AcDbLine
 10
39.18454962301495
 20
78.10588062149164
 30
0.0
 11
39.18454962301495
 21
78.14549000434734
 31
0.0
  0
LINE
  5
8AD
330
1F
100
AcDbEntity
  8
0
100
AcDbLine
 10
41.18454962301496
 20
82.78823356266897
 30
0.0
 11
41.18454962301496
 21
80.99999826855141
 31
0.0
  0
LINE
  5
8AE
330
1F
100
AcDbEntity
  8
0
100
AcDbLine
 10
43.18454962301497
 20
85.31764532737405
 30
0.0
 11
43.18454962301497
 21
85.99999826855141
 31
0.0
  0
LINE
  5
8AF
330
1F
100
AcDbEntity
  8
0
100
AcDbLine
 10
39.1845496230154
 20
78.14549000434756
 30
0.0
 11
39.1845496230153
 21
78.10588062149165
 31
0.0
  0
LINE
  5
8B0
330
1F
100
AcDbEntity
  8
0
100
AcDbLine
 10
39.1845496230154
 20
78.14549000434756
 30
0.0
 11
41.18454962301496
 21
78.99999826855141
 31
0.0
  0
ARC
  5
8B1
330
1F
100
AcDbEntity
  8
0
100
AcDbCircle
 10
40.68454962301518
 20
80.99999826855141
 30
0.0
 40
0.5
100
AcDbArc
 50
0.0
 51
90.0
  0
ARC
  5
8B2
330
1F
100
AcDbEntity
  8
0
100
AcDbCircle
 10
39.68454962301517
 20
80.99999826855141
 30
0.0
 40
0.5
100
AcDbArc
 50
90.0
 51
180.0
  0
LINE
  5
8B3
330
1F
100
AcDbEntity
  8
0
100
AcDbLine
 10
39.18454962301519
 20
80.99999826855141
 30
0.0
 11
39.1845496230154
 21
80.14549000434756
 31
0.0
  0
LINE
  5
8B4
330
1F
100
AcDbEntity
  8
0
100
AcDbLine
 10
40.68454962301518
 20
81.49999826855141
 30
0.0
 11
39.68454962301517
 21
81.49999826855141
 31
0.0
  0
ARC
  5
8B5
330
1F
100
AcDbEntity
  8
0
100
AcDbCircle
 10
41.68454962301495
 20
78.99999826855141
 30
0.0
 40
0.5
100
AcDbArc
 50
180.0
 51
270.0
  0
ARC
  5
8B6
330
1F
100
AcDbEntity
  8
0
100
AcDbCircle
 10
42.68454962301517
 20
78.99999826855141
 30
0.0
 40
0.5
100
AcDbArc
 50
270.0
 51
0.0
  0
ARC
  5
8B7
330
1F
100
AcDbEntity
  8
0
100
AcDbCircle
 10
42.68454962301496
 20
85.99999826855141
 30
0.0
 40
0.5
100
AcDbArc
 50
0.0
 51
90.0
  0
ARC
  5
8B8
330
1F
100
AcDbEntity
  8
0
100
AcDbCircle
 10
41.68454962301495
 20
85.99999826855141
 30
0.0
 40
0.5
100
AcDbArc
 50
90.0
 51
180.0
  0
LINE
  5
8B9
330
1F
100
AcDbEntity
  8
0
100
AcDbLine
 10
41.18454962301496
 20
85.99999826855141
 30
0.0
 11
41.18454962301496
 21
85.21176297443286
 31
0.0
  0
LINE
  5
8BA
330
1F
100
AcDbEntity
  8
0
100
AcDbLine
 10
42.68454962301496
 20
86.49999826855141
 30
0.0
 11
41.68454962301495
 21
86.49999826855141
 31
0.0
  0
LINE
  5
8BB
330
1F
100
AcDbEntity
  8
0
100
AcDbLine
 10
43.18454962301518
 20
78.99999826855141
 30
0.0
 11
43.18454962301497
 21
82.68235120972773
 31
0.0
  0
LINE
  5
8BC
330
1F
100
AcDbEntity
  8
0
100
AcDbLine
 10
41.68454962301495
 20
78.49999826855141
 30
0.0
 11
42.68454962301517
 21
78.49999826855141
 31
0.0
  0
LINE
  5
8BD
330
1F
100
AcDbEntity
  8
0
  6
CONTINUOUS
100
AcDbLine
 10
43.18454962301497
 20
86.49999826855141
 30
0.0
 11
43.18454962301497
 21
85.31764532737408
 31
0.0
  0
LINE
  5
8BE
330
1F
100
AcDbEntity
  8
0
100
AcDbLine
 10
50.18454962301497
 20
80.88907413386243
 30
0.0
 11
50.18454962301497
 21
80.11092240323945
 31
0.0
  0
ARC
  5
8BF
330
1F
100
AcDbEntity
  8
0
100
AcDbCircle
 10
48.68454962301496
 20
80.11092240323945
 30
0.0
 40
1.5
100
AcDbArc
 50
273.030476845861
 51
0.0
  0
LINE
  5
8C0
330
1F
100
AcDbEntity
  8
0
100
AcDbLine
 10
49.18454962301495
 20
86.49999826855141
 30
0.0
 11
49.18454962301495
 21
89.30328769623542
 31
0.0
  0
LINE
  5
8C1
330
1F
100
AcDbEntity
  8
0
100
AcDbLine
 10
47.98454962301593
 20
89.04896074287242
 30
0.0
 11
49.18454962301495
 21
89.01753763698946
 31
0.0
  0
LINE
  5
8C2
330
1F
100
AcDbEntity
  8
0
100
AcDbLine
 10
50.18454962301497
 20
87.88907413386244
 30
0.0
 11
50.18454962301497
 21
87.11092240323944
 31
0.0
  0
ARC
  5
8C3
330
1F
100
AcDbEntity
  8
0
100
AcDbCircle
 10
48.68454962301496
 20
87.11092240323944
 30
0.0
 40
1.5
100
AcDbArc
 50
273.030476845861
 51
0.0
  0
ARC
  5
8C4
330
1F
100
AcDbEntity
  8
0
100
AcDbCircle
 10
48.68454962301496
 20
94.11092240323943
 30
0.0
 40
1.5
100
AcDbArc
 50
273.030476845861
 51
0.0
  0
LINE
  5
8C5
330
1F
100
AcDbEntity
  8
0
100
AcDbLine
 10
47.98454962301593
 20
89.4282335626684
 30
0.0
 11
47.98454962301593
 21
89.04896074287242
 31
0.0
  0
ARC
  5
8C6
330
1F
100
AcDbEntity
  8
0
100
AcDbCircle
 10
48.68454962301496
 20
87.88907413386244
 30
0.0
 40
1.5
100
AcDbArc
 50
0.0
 51
86.96952315413893
  0
ARC
  5
8C7
330
1F
100
AcDbEntity
  8
0
100
AcDbCircle
 10
48.68454962301496
 20
80.88907413386243
 30
0.0
 40
1.5
100
AcDbArc
 50
0.0
 51
86.96952315413893
  0
LINE
  5
8C8
330
1F
100
AcDbEntity
  8
0
100
AcDbLine
 10
38.13168248187492
 20
96.94985594072946
 30
0.0
 11
48.76385033472604
 21
96.38697646616641
 31
0.0
  0
LINE
  5
8C9
330
1F
100
AcDbEntity
  8
0
100
AcDbLine
 10
37.65838164489388
 20
104.3251657845312
 30
0.0
 11
48.76305355737997
 21
103.7431945899308
 31
0.0
  0
LINE
  5
8CA
330
1F
100
AcDbEntity
  8
0
100
AcDbLine
 10
38.13168248187492
 20
99.05014059637244
 30
0.0
 11
48.76385033472604
 21
99.61302007093536
 31
0.0
  0
LINE
  5
8CB
330
1F
100
AcDbEntity
  8
0
100
AcDbLine
 10
37.18454962301496
 20
104.8244805519083
 30
0.0
 11
37.18454962301496
 21
120.5286516803051
 31
0.0
  0
LINE
  5
8CC
330
1F
100
AcDbEntity
  8
0
100
AcDbLine
 10
37.18454962301496
 20
98.05153904150335
 30
0.0
 11
37.18454962301496
 21
97.94845749559843
 31
0.0
  0
POINT
  5
8CD
330
1F
100
AcDbEntity
  8
0
100
AcDbPoint
 10
37.18454962301496
 20
104.3499982685502
 30
0.0
  0
ARC
  5
8CE
330
1F
100
AcDbEntity
  8
0
100
AcDbCircle
 10
37.68454962301496
 20
104.8244805519083
 30
0.0
 40
0.5
100
AcDbArc
 50
180.0
 51
266.9999999999943
  0
ARC
  5
8CF
330
1F
100
AcDbEntity
  8
0
100
AcDbCircle
 10
38.18454962301496
 20
98.05153904150335
 30
0.0
 40
1.0
100
AcDbArc
 50
93.03047684586102
 51
180.0
  0
ARC
  5
8D0
330
1F
100
AcDbEntity
  8
0
100
AcDbCircle
 10
38.18454962301496
 20
97.94845749559843
 30
0.0
 40
1.0
100
AcDbArc
 50
180.0
 51
266.9695231541389
  0
ARC
  5
8D1
330
1F
100
AcDbEntity
  8
0
100
AcDbCircle
 10
48.68454962301496
 20
94.88907413386243
 30
0.0
 40
1.5
100
AcDbArc
 50
0.0
 51
86.96952315413893
  0
LINE
  5
8D2
330
1F
100
AcDbEntity
  8
0
100
AcDbLine
 10
47.98454962301593
 20
103.783994252294
 30
0.0
 11
47.98454962301593
 21
99.56600228480738
 31
0.0
  0
LINE
  5
8D3
330
1F
100
AcDbEntity
  8
0
100
AcDbLine
 10
50.18454962301497
 20
102.2452502877992
 30
0.0
 11
50.18454962301497
 21
101.1109224032392
 31
0.0
  0
ARC
  5
8D4
330
1F
100
AcDbEntity
  8
0
100
AcDbCircle
 10
48.68454962301496
 20
102.2452502877992
 30
0.0
 40
1.5
100
AcDbArc
 50
0.0
 51
87.00000000000093
  0
ARC
  5
8D5
330
1F
100
AcDbEntity
  8
0
100
AcDbCircle
 10
48.68454962301496
 20
101.1109224032392
 30
0.0
 40
1.5
100
AcDbArc
 50
273.030476845861
 51
0.0
  0
LINE
  5
8D7
330
1F
100
AcDbEntity
  8
0
100
AcDbLine
 10
56.18454962301496
 20
110.4710173264253
 30
0.0
 11
56.18454962301496
 21
82.9999982685514
 31
0.0
  0
LINE
  5
8D8
330
1F
100
AcDbEntity
  8
0
100
AcDbLine
 10
57.18454962301496
 20
82.97381234698338
 30
0.0
 11
57.18454962301496
 21
109.6057317736803
 31
0.0
  0
LINE
  5
8E5
330
1F
100
AcDbEntity
  8
0
100
AcDbLine
 10
59.28454962301486
 20
80.99999826855139
 30
0.0
 11
59.28454962301486
 21
72.99999826855139
 31
0.0
  0
LINE
  5
8E6
330
1F
100
AcDbEntity
  8
0
100
AcDbLine
 10
59.88454962301499
 20
80.99999826855139
 30
0.0
 11
59.88454962301499
 21
72.99999826855139
 31
0.0
  0
LINE
  5
8E7
330
1F
100
AcDbEntity
  8
0
100
AcDbLine
 10
60.68454962301497
 20
80.99999826855139
 30
0.0
 11
60.68454962301497
 21
72.99999826855139
 31
0.0
  0
LINE
  5
8E8
330
1F
100
AcDbEntity
  8
0
100
AcDbLine
 10
59.18454962301392
 20
81.47381234698242
 30
0.0
 11
59.18454962301392
 21
72.47381234698242
 31
0.0
  0
LINE
  5
8E9
330
1F
100
AcDbEntity
  8
0
100
AcDbLine
 10
60.88454962301383
 20
81.47381234698242
 30
0.0
 11
60.88454962301383
 21
72.47381234698242
 31
0.0
  0
LINE
  5
8EA
330
1F
100
AcDbEntity
  8
0
100
AcDbLine
 10
54.88454962301499
 20
82.9999982685514
 30
0.0
 11
54.88454962301499
 21
71.09999826855037
 31
0.0
  0
LINE
  5
8EB
330
1F
100
AcDbEntity
  8
0
100
AcDbLine
 10
55.68454962301497
 20
82.9999982685514
 30
0.0
 11
55.68454962301497
 21
70.99999826855139
 31
0.0
  0
LINE
  5
8EC
330
1F
100
AcDbEntity
  8
0
100
AcDbLine
 10
56.18454962301496
 20
70.99999826855037
 30
0.0
 11
56.18454962301496
 21
82.9999982685514
 31
0.0
  0
LINE
  5
8ED
330
1F
100
AcDbEntity
  8
0
100
AcDbLine
 10
56.18454962301496
 20
70.99999826855139
 30
0.0
 11
54.88454962301499
 21
70.99999826855139
 31
0.0
  0
LINE
  5
8EE
330
1F
100
AcDbEntity
  8
0
100
AcDbLine
 10
57.18454962301496
 20
70.97381234698239
 30
0.0
 11
56.18454962301496
 21
70.97381234698239
 31
0.0
  0
LINE
  5
8EF
330
1F
100
AcDbEntity
  8
0
100
AcDbLine
 10
60.68454962301497
 20
72.99999826855139
 30
0.0
 11
59.18454962301392
 21
72.99999826855139
 31
0.0
  0
LINE
  5
8F0
330
1F
100
AcDbEntity
  8
0
100
AcDbLine
 10
60.88454962301383
 20
72.47381234698242
 30
0.0
 11
59.18454962301392
 21
72.47381234698242
 31
0.0
  0
LINE
  5
8F1
330
1F
100
AcDbEntity
  8
0
100
AcDbLine
 10
60.68454962301497
 20
80.99999826855139
 30
0.0
 11
59.18454962301392
 21
80.99999826855139
 31
0.0
  0
LINE
  5
8F2
330
1F
100
AcDbEntity
  8
0
100
AcDbLine
 10
56.18454962301496
 20
82.9999982685514
 30
0.0
 11
54.88454962301499
 21
82.9999982685514
 31
0.0
  0
LINE
  5
8F3
330
1F
100
AcDbEntity
  8
0
100
AcDbLine
 10
60.88454962301383
 20
81.47381234698242
 30
0.0
 11
59.18454962301392
 21
81.47381234698242
 31
0.0
  0
LINE
  5
8F4
330
1F
100
AcDbEntity
  8
0
100
AcDbLine
 10
57.18454962301496
 20
82.97381234698338
 30
0.0
 11
56.18454962301496
 21
82.97381234698338
 31
0.0
  0
LINE
  5
8FD
330
1F
100
AcDbEntity
  8
0
100
AcDbLine
 10
65.28454962301487
 20
121.9738123469822
 30
0.0
 11
73.88454962301408
 21
121.9738123469822
 31
0.0
  0
LINE
  5
8FE
330
1F
100
AcDbEntity
  8
0
100
AcDbLine
 10
66.38454962301397
 20
126.2738123469824
 30
0.0
 11
72.28454962301396
 21
126.2738123469824
 31
0.0
  0
LINE
  5
8FF
330
1F
100
AcDbEntity
  8
0
100
AcDbLine
 10
66.78454962301396
 20
127.5738123469822
 30
0.0
 11
76.12954962301398
 21
127.5738123469822
 31
0.0
  0
LINE
  5
900
330
1F
100
AcDbEntity
  8
0
100
AcDbLine
 10
59.18454962301495
 20
110.9999982685512
 30
0.0
 11
59.18454962301495
 21
120.8952545822742
 31
0.0
  0
LINE
  5
901
330
1F
100
AcDbEntity
  8
0
100
AcDbLine
 10
60.18454962301497
 20
120.9738123469824
 30
0.0
 11
60.18454962301497
 21
110.1347127158052
 31
0.0
  0
LINE
  5
902
330
1F
100
AcDbEntity
  8
0
100
AcDbLine
 10
59.18454962301495
 20
120.4738123469822
 30
0.0
 11
59.18454962301495
 21
110.9738123469832
 31
0.0
  0
LINE
  5
903
330
1F
100
AcDbEntity
  8
0
100
AcDbLine
 10
59.18454962301495
 20
110.9999982685512
 30
0.0
 11
56.18454962301496
 21
110.4710173264253
 31
0.0
  0
LINE
  5
904
330
1F
100
AcDbEntity
  8
0
100
AcDbLine
 10
60.18454962301497
 20
110.1347127158052
 30
0.0
 11
57.18454962301496
 21
109.6057317736803
 31
0.0
  0
LINE
  5
905
330
1F
100
AcDbEntity
  8
0
100
AcDbLine
 10
56.18454962301496
 20
110.4448314048571
 30
0.0
 11
59.18454962301495
 21
110.9738123469832
 31
0.0
  0
LINE
  5
906
330
1F
100
AcDbEntity
  8
0
100
AcDbLine
 10
55.18454962301497
 20
120.9999982685511
 30
0.0
 11
59.18454962301495
 21
120.8952545822742
 31
0.0
  0
LINE
  5
907
330
1F
100
AcDbEntity
  8
0
100
AcDbLine
 10
59.18454962301495
 20
120.4738123469822
 30
0.0
 11
60.18454962301497
 21
120.4738123469822
 31
0.0
  0
LINE
  5
908
330
1F
100
AcDbEntity
  8
0
100
AcDbLine
 10
57.18454962301496
 20
120.9738123469824
 30
0.0
 11
57.18454962301496
 21
120.9476264254132
 31
0.0
  0
LINE
  5
909
330
1F
100
AcDbEntity
  8
0
100
AcDbLine
 10
57.18454962301496
 20
120.9738123469824
 30
0.0
 11
57.18454962301496
 21
120.9476264254127
 31
0.0
  0
LINE
  5
90A
330
1F
100
AcDbEntity
  8
0
100
AcDbLine
 10
65.28454962301487
 20
120.9738123469824
 30
0.0
 11
65.28454962301487
 21
121.9738123469822
 31
0.0
  0
LINE
  5
90B
330
1F
100
AcDbEntity
  8
0
100
AcDbLine
 10
66.38454962301397
 20
121.9738123469822
 30
0.0
 11
66.38454962301397
 21
126.2738123469824
 31
0.0
  0
LINE
  5
90C
330
1F
100
AcDbEntity
  8
0
100
AcDbLine
 10
66.78454962301396
 20
126.2738123469822
 30
0.0
 11
66.78454962301396
 21
127.5738123469822
 31
0.0
  0
LINE
  5
90D
330
1F
100
AcDbEntity
  8
0
100
AcDbLine
 10
76.38454962301501
 20
107.4738123469824
 30
0.0
 11
76.38454962301501
 21
115.4738123469822
 31
0.0
  0
LINE
  5
90E
330
1F
100
AcDbEntity
  8
0
100
AcDbLine
 10
79.384549623015
 20
105.4738123469822
 30
0.0
 11
79.384549623015
 21
117.4738123469822
 31
0.0
  0
LINE
  5
90F
330
1F
100
AcDbEntity
  8
0
100
AcDbLine
 10
79.384549623015
 20
105.4738123469822
 30
0.0
 11
71.18454962301496
 21
105.4738123469822
 31
0.0
  0
LINE
  5
910
330
1F
100
AcDbEntity
  8
0
100
AcDbLine
 10
74.384549623015
 20
109.4738123469822
 30
0.0
 11
74.384549623015
 21
107.4738123469824
 31
0.0
  0
LINE
  5
911
330
1F
100
AcDbEntity
  8
0
100
AcDbLine
 10
74.384549623015
 20
107.4738123469824
 30
0.0
 11
76.38454962301501
 21
107.4738123469824
 31
0.0
  0
LINE
  5
912
330
1F
100
AcDbEntity
  8
0
100
AcDbLine
 10
71.18454962301496
 20
109.4738123469822
 30
0.0
 11
71.18454962301496
 21
105.4738123469822
 31
0.0
  0
LINE
  5
913
330
1F
100
AcDbEntity
  8
0
100
AcDbLine
 10
71.18454962301496
 20
109.4738123469822
 30
0.0
 11
74.384549623015
 21
109.4738123469822
 31
0.0
  0
LINE
  5
915
330
1F
100
AcDbEntity
  8
0
100
AcDbLine
 10
71.18454962301496
 20
117.4738123469822
 30
0.0
 11
79.384549623015
 21
117.4738123469822
 31
0.0
  0
LINE
  5
916
330
1F
100
AcDbEntity
  8
0
100
AcDbLine
 10
73.88454962301408
 20
121.9738123469822
 30
0.0
 11
73.88454962301408
 21
120.9738123469824
 31
0.0
  0
LINE
  5
917
330
1F
100
AcDbEntity
  8
0
100
AcDbLine
 10
72.28454962301396
 20
126.2738123469824
 30
0.0
 11
72.28454962301396
 21
121.9738123469822
 31
0.0
  0
LINE
  5
918
330
1F
100
AcDbEntity
  8
0
100
AcDbLine
 10
76.12954962301398
 20
127.5738123469822
 30
0.0
 11
76.12954962301398
 21
120.9738123469824
 31
0.0
  0
LINE
  5
919
330
1F
100
AcDbEntity
  8
0
100
AcDbLine
 10
74.384549623015
 20
113.4738123469822
 30
0.0
 11
74.384549623015
 21
115.4738123469822
 31
0.0
  0
LINE
  5
91A
330
1F
100
AcDbEntity
  8
0
100
AcDbLine
 10
74.384549623015
 20
115.4738123469822
 30
0.0
 11
76.38454962301501
 21
115.4738123469822
 31
0.0
  0
LINE
  5
91B
330
1F
100
AcDbEntity
  8
0
100
AcDbLine
 10
71.18454962301496
 20
113.4738123469822
 30
0.0
 11
71.18454962301496
 21
117.4738123469822
 31
0.0
  0
LINE
  5
91C
330
1F
100
AcDbEntity
  8
0
100
AcDbLine
 10
71.18454962301496
 20
113.4738123469822
 30
0.0
 11
74.384549623015
 21
113.4738123469822
 31
0.0
  0
LINE
  5
920
330
1F
100
AcDbEntity
  8
0
100
AcDbLine
 10
108.1845496230149
 20
21.97381234698239
 30
0.0
 11
108.1845496230149
 21
103.9738123469822
 31
0.0
  0
LINE
  5
921
330
1F
100
AcDbEntity
  8
0
100
AcDbLine
 10
109.1845496230149
 20
3.585958503814366
 30
0.0
 11
109.1845496230149
 21
120.9738123469824
 31
0.0
  0
LINE
  5
922
330
1F
100
AcDbEntity
  8
0
100
AcDbLine
 10
109.1845496230149
 20
-0.0000017314486059
 30
0.0
 11
109.1845496230149
 21
3.585958503814366
 31
0.0
  0
LINE
  5
92A
330
1F
100
AcDbEntity
  8
0
100
AcDbLine
 10
106.1845496230149
 20
33.97381234698241
 30
0.0
 11
106.1845496230149
 21
35.97381234698239
 31
0.0
  0
LINE
  5
92B
330
1F
100
AcDbEntity
  8
0
100
AcDbLine
 10
107.1845496230149
 20
33.97381234698241
 30
0.0
 11
107.1845496230149
 21
35.97381234698239
 31
0.0
  0
LINE
  5
92C
330
1F
100
AcDbEntity
  8
0
100
AcDbLine
 10
106.1845496230149
 20
26.97381234698241
 30
0.0
 11
106.1845496230149
 21
28.9738123469824
 31
0.0
  0
LINE
  5
92D
330
1F
100
AcDbEntity
  8
0
100
AcDbLine
 10
107.1845496230149
 20
26.97381234698241
 30
0.0
 11
107.1845496230149
 21
28.9738123469824
 31
0.0
  0
LINE
  5
92F
330
1F
100
AcDbEntity
  8
0
100
AcDbLine
 10
106.1845496230149
 20
40.97381234698239
 30
0.0
 11
106.1845496230149
 21
42.9738123469824
 31
0.0
  0
LINE
  5
930
330
1F
100
AcDbEntity
  8
0
100
AcDbLine
 10
107.1845496230149
 20
40.97381234698239
 30
0.0
 11
107.1845496230149
 21
42.9738123469824
 31
0.0
  0
LINE
  5
953
330
1F
100
AcDbEntity
  8
0
100
AcDbLine
 10
92.33454962301506
 20
124.3738123469824
 30
0.0
 11
98.63454962301501
 21
124.3738123469824
 31
0.0
  0
LINE
  5
954
330
1F
100
AcDbEntity
  8
0
100
AcDbLine
 10
92.33454962301506
 20
120.9738123469824
 30
0.0
 11
92.33454962301506
 21
124.3738123469824
 31
0.0
  0
LINE
  5
955
330
1F
100
AcDbEntity
  8
0
100
AcDbLine
 10
98.63454962301501
 20
124.3738123469824
 30
0.0
 11
98.63454962301501
 21
120.9738123469824
 31
0.0
  0
LINE
  5
95B
330
1F
100
AcDbEntity
  8
0
100
AcDbLine
 10
57.18454962301496
 20
120.9738123469824
 30
0.0
 11
109.1845496230149
 21
120.9738123469824
 31
0.0
  0
LINE
  5
95C
330
1F
100
AcDbEntity
  8
0
100
AcDbLine
 10
92.33454962301506
 20
120.9738123469824
 30
0.0
 11
92.33454962301506
 21
124.3738123469824
 31
0.0
  0
LINE
  5
95D
330
1F
100
AcDbEntity
  8
0
100
AcDbLine
 10
92.33454962301506
 20
124.3738123469824
 30
0.0
 11
98.63454962301501
 21
124.3738123469824
 31
0.0
  0
LINE
  5
95E
330
1F
100
AcDbEntity
  8
0
100
AcDbLine
 10
98.63454962301501
 20
124.3738123469824
 30
0.0
 11
98.63454962301501
 21
120.9738123469824
 31
0.0
  0
LINE
  5
9B1
330
1F
100
AcDbEntity
  8
2_カバ_
  6
DASHDOT
100
AcDbLine
 10
89.34602261496108
 20
81.97381234698346
 30
0.0
 11
78.78487664193009
 21
81.97381234698346
 31
0.0
  0
CIRCLE
  5
9B2
330
1F
100
AcDbEntity
  8
2_カバ_
  6
CONTINUOUS
100
AcDbCircle
 10
86.68454962301506
 20
81.97381234698346
 30
0.0
 40
1.25
  0
LINE
  5
9B3
330
1F
100
AcDbEntity
  8
2_カバ_
  6
CONTINUOUS
100
AcDbLine
 10
67.18454962301509
 20
103.9738123469822
 30
0.0
 11
109.1845496230149
 21
103.9738123469822
 31
0.0
  0
LINE
  5
9B4
330
1F
100
AcDbEntity
  8
2_カバ_
  6
CONTINUOUS
100
AcDbLine
 10
108.184549623015
 20
98.97381234698249
 30
0.0
 11
67.18454962301509
 21
98.97381234698249
 31
0.0
  0
LINE
  5
9B5
330
1F
100
AcDbEntity
  8
2_カバ_
  6
CONTINUOUS
100
AcDbLine
 10
108.184549623015
 20
96.97381234698248
 30
0.0
 11
67.18454962301509
 21
96.97381234698248
 31
0.0
  0
LINE
  5
9B6
330
1F
100
AcDbEntity
  8
2_カバ_
  6
CONTINUOUS
100
AcDbLine
 10
108.184549623015
 20
70.9738123469825
 30
0.0
 11
67.18454962301507
 21
70.9738123469825
 31
0.0
  0
LINE
  5
9B7
330
1F
100
AcDbEntity
  8
2_カバ_
  6
CONTINUOUS
100
AcDbLine
 10
108.184549623015
 20
68.97381234698251
 30
0.0
 11
67.18454962301507
 21
68.97381234698251
 31
0.0
  0
LINE
  5
9B8
330
1F
100
AcDbEntity
  8
2_カバ_
  6
CONTINUOUS
100
AcDbLine
 10
108.184549623015
 20
63.97381234698249
 30
0.0
 11
67.18454962301507
 21
63.97381234698347
 31
0.0
  0
LINE
  5
9B9
330
1F
100
AcDbEntity
  8
2_カバ_
  6
CONTINUOUS
100
AcDbLine
 10
108.184549623015
 20
61.97381234698249
 30
0.0
 11
67.18454962301507
 21
61.97381234698249
 31
0.0
  0
LINE
  5
9BA
330
1F
100
AcDbEntity
  8
2_カバ_
  6
CONTINUOUS
100
AcDbLine
 10
108.184549623015
 20
56.97381234698249
 30
0.0
 11
67.18454962301507
 21
56.97381234698249
 31
0.0
  0
LINE
  5
9BB
330
1F
100
AcDbEntity
  8
2_カバ_
  6
CONTINUOUS
100
AcDbLine
 10
108.184549623015
 20
54.9738123469825
 30
0.0
 11
67.18454962301507
 21
54.9738123469825
 31
0.0
  0
LINE
  5
9BC
330
1F
100
AcDbEntity
  8
2_カバ_
  6
CONTINUOUS
100
AcDbLine
 10
105.684549623015
 20
48.9738123469825
 30
0.0
 11
84.68454962301505
 21
48.9738123469825
 31
0.0
  0
LINE
  5
9BD
330
1F
100
AcDbEntity
  8
2_カバ_
  6
CONTINUOUS
100
AcDbLine
 10
84.68454962301505
 20
63.97381234698249
 30
0.0
 11
84.68454962301505
 21
68.97381234698251
 31
0.0
  0
LINE
  5
9BE
330
1F
100
AcDbEntity
  8
2_カバ_
  6
CONTINUOUS
100
AcDbLine
 10
84.18454962301506
 20
49.9738123469825
 30
0.0
 11
67.18454962301507
 21
49.9738123469825
 31
0.0
  0
LINE
  5
9BF
330
1F
100
AcDbEntity
  8
2_カバ_
  6
CONTINUOUS
100
AcDbLine
 10
84.18454962301506
 20
47.97381234698248
 30
0.0
 11
67.18454962301507
 21
47.97381234698248
 31
0.0
  0
LINE
  5
9C0
330
1F
100
AcDbEntity
  8
2_カバ_
  6
CONTINUOUS
100
AcDbLine
 10
84.68454962301505
 20
48.9738123469825
 30
0.0
 11
84.68454962301505
 21
54.9738123469825
 31
0.0
  0
LINE
  5
9C1
330
1F
100
AcDbEntity
  8
2_カバ_
  6
CONTINUOUS
100
AcDbLine
 10
84.18454962301506
 20
47.97381234698248
 30
0.0
 11
84.18454962301506
 21
49.9738123469825
 31
0.0
  0
LINE
  5
9C2
330
1F
100
AcDbEntity
  8
2_カバ_
  6
CONTINUOUS
100
AcDbLine
 10
84.68454962301505
 20
56.97381234698249
 30
0.0
 11
84.68454962301505
 21
61.97381234698249
 31
0.0
  0
LINE
  5
9C3
330
1F
100
AcDbEntity
  8
2_カバ_
  6
CONTINUOUS
100
AcDbLine
 10
84.18454962301506
 20
91.97381234698248
 30
0.0
 11
67.18454962301509
 21
91.97381234698248
 31
0.0
  0
LINE
  5
9C4
330
1F
100
AcDbEntity
  8
2_カバ_
  6
CONTINUOUS
100
AcDbLine
 10
84.18454962301506
 20
89.97381234698249
 30
0.0
 11
67.18454962301509
 21
89.97381234698249
 31
0.0
  0
LINE
  5
9C5
330
1F
100
AcDbEntity
  8
2_カバ_
  6
CONTINUOUS
100
AcDbLine
 10
84.18454962301506
 20
84.9738123469825
 30
0.0
 11
67.18454962301509
 21
84.9738123469825
 31
0.0
  0
LINE
  5
9C6
330
1F
100
AcDbEntity
  8
2_カバ_
  6
CONTINUOUS
100
AcDbLine
 10
84.18454962301506
 20
82.97381234698248
 30
0.0
 11
67.18454962301509
 21
82.97381234698248
 31
0.0
  0
LINE
  5
9C7
330
1F
100
AcDbEntity
  8
2_カバ_
  6
CONTINUOUS
100
AcDbLine
 10
84.18454962301506
 20
77.97381234698248
 30
0.0
 11
67.18454962301509
 21
77.97381234698248
 31
0.0
  0
LINE
  5
9C8
330
1F
100
AcDbEntity
  8
2_カバ_
  6
CONTINUOUS
100
AcDbLine
 10
84.18454962301506
 20
75.9738123469825
 30
0.0
 11
67.18454962301509
 21
75.9738123469825
 31
0.0
  0
LINE
  5
9C9
330
1F
100
AcDbEntity
  8
2_カバ_
  6
CONTINUOUS
100
AcDbLine
 10
84.18454962301506
 20
82.97381234698248
 30
0.0
 11
84.18454962301506
 21
84.9738123469825
 31
0.0
  0
LINE
  5
9CA
330
1F
100
AcDbEntity
  8
2_カバ_
  6
CONTINUOUS
100
AcDbLine
 10
84.68454962301505
 20
70.9738123469825
 30
0.0
 11
84.68454962301505
 21
96.97381234698248
 31
0.0
  0
LINE
  5
9CB
330
1F
100
AcDbEntity
  8
2_カバ_
  6
DASHDOT
100
AcDbLine
 10
86.68454962301506
 20
85.10321292337151
 30
0.0
 11
86.68454962301506
 21
79.01837158965147
 31
0.0
  0
LINE
  5
9CC
330
1F
100
AcDbEntity
  8
2_カバ_
  6
CONTINUOUS
100
AcDbLine
 10
84.18454962301506
 20
75.9738123469825
 30
0.0
 11
84.18454962301506
 21
77.97381234698248
 31
0.0
  0
LINE
  5
9CD
330
1F
100
AcDbEntity
  8
2_カバ_
  6
CONTINUOUS
100
AcDbLine
 10
84.18454962301506
 20
89.97381234698249
 30
0.0
 11
84.18454962301506
 21
91.97381234698248
 31
0.0
  0
LINE
  5
9CE
330
1F
100
AcDbEntity
  8
2_カバ_
  6
CONTINUOUS
100
AcDbLine
 10
84.68454962301505
 20
98.97381234698249
 30
0.0
 11
84.68454962301505
 21
103.9738123469822
 31
0.0
  0
LINE
  5
9CF
330
1F
100
AcDbEntity
  8
2_カバ_
  6
CONTINUOUS
100
AcDbLine
 10
105.684549623015
 20
68.97381234698251
 30
0.0
 11
105.684549623015
 21
63.97381234698249
 31
0.0
  0
LINE
  5
9D0
330
1F
100
AcDbEntity
  8
2_カバ_
  6
CONTINUOUS
100
AcDbLine
 10
100.1845496230149
 20
53.4738123469825
 30
0.0
 11
90.18454962301506
 21
53.4738123469825
 31
0.0
  0
LINE
  5
9D1
330
1F
100
AcDbEntity
  8
2_カバ_
  6
CONTINUOUS
100
AcDbLine
 10
90.18454962301506
 20
49.9738123469825
 30
0.0
 11
100.1845496230149
 21
49.9738123469825
 31
0.0
  0
ARC
  5
9D2
330
1F
100
AcDbEntity
  8
2_カバ_
  6
CONTINUOUS
100
AcDbCircle
 10
90.18454962301506
 20
52.97381234698346
 30
0.0
 40
0.5
100
AcDbArc
 50
90.0
 51
180.0
  0
ARC
  5
9D3
330
1F
100
AcDbEntity
  8
2_カバ_
  6
CONTINUOUS
100
AcDbCircle
 10
90.18454962301506
 20
50.47381234698249
 30
0.0
 40
0.5
100
AcDbArc
 50
180.0
 51
270.0
  0
LINE
  5
9D4
330
1F
100
AcDbEntity
  8
2_カバ_
  6
CONTINUOUS
100
AcDbLine
 10
89.68454962301505
 20
52.97381234698346
 30
0.0
 11
89.68454962301505
 21
50.47381234698249
 31
0.0
  0
ARC
  5
9D5
330
1F
100
AcDbEntity
  8
2_カバ_
  6
CONTINUOUS
100
AcDbCircle
 10
100.1845496230149
 20
52.97381234698249
 30
0.0
 40
0.5
100
AcDbArc
 50
0.0
 51
90.0
  0
ARC
  5
9D6
330
1F
100
AcDbEntity
  8
2_カバ_
  6
CONTINUOUS
100
AcDbCircle
 10
100.1845496230149
 20
50.47381234698249
 30
0.0
 40
0.5
100
AcDbArc
 50
270.0
 51
0.0
  0
LINE
  5
9D7
330
1F
100
AcDbEntity
  8
2_カバ_
  6
CONTINUOUS
100
AcDbLine
 10
100.684549623015
 20
50.47381234698249
 30
0.0
 11
100.684549623015
 21
52.97381234698249
 31
0.0
  0
LINE
  5
9D8
330
1F
100
AcDbEntity
  8
2_カバ_
  6
CONTINUOUS
100
AcDbLine
 10
105.684549623015
 20
54.9738123469825
 30
0.0
 11
105.684549623015
 21
48.9738123469825
 31
0.0
  0
LINE
  5
9D9
330
1F
100
AcDbEntity
  8
2_カバ_
  6
CONTINUOUS
100
AcDbLine
 10
108.184549623015
 20
49.9738123469825
 30
0.0
 11
106.184549623015
 21
49.9738123469825
 31
0.0
  0
LINE
  5
9DA
330
1F
100
AcDbEntity
  8
2_カバ_
  6
CONTINUOUS
100
AcDbLine
 10
108.184549623015
 20
47.97381234698248
 30
0.0
 11
106.184549623015
 21
47.97381234698248
 31
0.0
  0
LINE
  5
9DB
330
1F
100
AcDbEntity
  8
2_カバ_
  6
CONTINUOUS
100
AcDbLine
 10
107.184549623015
 20
47.97381234698248
 30
0.0
 11
107.184549623015
 21
49.9738123469825
 31
0.0
  0
LINE
  5
9DC
330
1F
100
AcDbEntity
  8
2_カバ_
  6
CONTINUOUS
100
AcDbLine
 10
106.184549623015
 20
47.97381234698248
 30
0.0
 11
106.184549623015
 21
49.9738123469825
 31
0.0
  0
LINE
  5
9DD
330
1F
100
AcDbEntity
  8
2_カバ_
  6
CONTINUOUS
100
AcDbLine
 10
105.684549623015
 20
61.97381234698249
 30
0.0
 11
105.684549623015
 21
56.97381234698347
 31
0.0
  0
LINE
  5
9DE
330
1F
100
AcDbEntity
  8
2_カバ_
  6
CONTINUOUS
100
AcDbLine
 10
107.184549623015
 20
54.9738123469825
 30
0.0
 11
107.184549623015
 21
56.97381234698249
 31
0.0
  0
LINE
  5
9DF
330
1F
100
AcDbEntity
  8
2_カバ_
  6
CONTINUOUS
100
AcDbLine
 10
106.184549623015
 20
54.9738123469825
 30
0.0
 11
106.184549623015
 21
56.97381234698249
 31
0.0
  0
LINE
  5
9E0
330
1F
100
AcDbEntity
  8
2_カバ_
  6
CONTINUOUS
100
AcDbLine
 10
107.184549623015
 20
61.97381234698249
 30
0.0
 11
107.184549623015
 21
63.97381234698249
 31
0.0
  0
LINE
  5
9E1
330
1F
100
AcDbEntity
  8
2_カバ_
  6
CONTINUOUS
100
AcDbLine
 10
106.184549623015
 20
61.97381234698249
 30
0.0
 11
106.184549623015
 21
63.97381234698249
 31
0.0
  0
LINE
  5
9E2
330
1F
100
AcDbEntity
  8
2_カバ_
  6
CONTINUOUS
100
AcDbLine
 10
107.184549623015
 20
96.97381234698248
 30
0.0
 11
107.184549623015
 21
98.97381234698249
 31
0.0
  0
LINE
  5
9E3
330
1F
100
AcDbEntity
  8
2_カバ_
  6
CONTINUOUS
100
AcDbLine
 10
106.184549623015
 20
96.97381234698248
 30
0.0
 11
106.184549623015
 21
98.97381234698249
 31
0.0
  0
LINE
  5
9E4
330
1F
100
AcDbEntity
  8
2_カバ_
  6
CONTINUOUS
100
AcDbLine
 10
104.1845496230149
 20
92.47381234698249
 30
0.0
 11
101.684549623015
 21
92.47381234698343
 31
0.0
  0
LINE
  5
9E5
330
1F
100
AcDbEntity
  8
2_カバ_
  6
CONTINUOUS
100
AcDbLine
 10
104.1845496230149
 20
86.47381234698249
 30
0.0
 11
101.684549623015
 21
86.47381234698249
 31
0.0
  0
LINE
  5
9E6
330
1F
100
AcDbEntity
  8
2_カバ_
  6
DASHDOT
100
AcDbLine
 10
100.1056597409639
 20
89.47381234698248
 30
0.0
 11
106.8541677470191
 21
89.47381234698248
 31
0.0
  0
LINE
  5
9E7
330
1F
100
AcDbEntity
  8
2_カバ_
  6
CONTINUOUS
100
AcDbLine
 10
101.1845496230149
 20
91.97381234698346
 30
0.0
 11
101.1845496230149
 21
86.97381234698248
 31
0.0
  0
ARC
  5
9E8
330
1F
100
AcDbEntity
  8
2_カバ_
  6
CONTINUOUS
100
AcDbCircle
 10
101.684549623015
 20
86.97381234698248
 30
0.0
 40
0.5
100
AcDbArc
 50
180.0
 51
270.0
  0
ARC
  5
9E9
330
1F
100
AcDbEntity
  8
2_カバ_
  6
CONTINUOUS
100
AcDbCircle
 10
101.684549623015
 20
91.97381234698346
 30
0.0
 40
0.5
100
AcDbArc
 50
89.99999999999673
 51
180.0
  0
LINE
  5
9EA
330
1F
100
AcDbEntity
  8
2_カバ_
  6
CONTINUOUS
100
AcDbLine
 10
107.184549623015
 20
82.97381234698248
 30
0.0
 11
107.184549623015
 21
84.9738123469825
 31
0.0
  0
LINE
  5
9EB
330
1F
100
AcDbEntity
  8
2_カバ_
  6
CONTINUOUS
100
AcDbLine
 10
106.184549623015
 20
82.97381234698248
 30
0.0
 11
106.184549623015
 21
84.9738123469825
 31
0.0
  0
LINE
  5
9EC
330
1F
100
AcDbEntity
  8
2_カバ_
  6
CONTINUOUS
100
AcDbLine
 10
105.684549623015
 20
96.97381234698248
 30
0.0
 11
105.684549623015
 21
70.97381234698345
 31
0.0
  0
LINE
  5
9ED
330
1F
100
AcDbEntity
  8
2_カバ_
  6
CONTINUOUS
100
AcDbLine
 10
107.184549623015
 20
75.9738123469825
 30
0.0
 11
107.184549623015
 21
77.97381234698345
 31
0.0
  0
LINE
  5
9EE
330
1F
100
AcDbEntity
  8
2_カバ_
  6
CONTINUOUS
100
AcDbLine
 10
106.184549623015
 20
75.9738123469825
 30
0.0
 11
106.184549623015
 21
77.97381234698345
 31
0.0
  0
LINE
  5
9EF
330
1F
100
AcDbEntity
  8
2_カバ_
  6
CONTINUOUS
100
AcDbLine
 10
108.184549623015
 20
75.9738123469825
 30
0.0
 11
106.184549623015
 21
75.9738123469825
 31
0.0
  0
LINE
  5
9F0
330
1F
100
AcDbEntity
  8
2_カバ_
  6
CONTINUOUS
100
AcDbLine
 10
107.184549623015
 20
68.97381234698251
 30
0.0
 11
107.184549623015
 21
70.9738123469825
 31
0.0
  0
LINE
  5
9F1
330
1F
100
AcDbEntity
  8
2_カバ_
  6
CONTINUOUS
100
AcDbLine
 10
106.184549623015
 20
68.97381234698251
 30
0.0
 11
106.184549623015
 21
70.9738123469825
 31
0.0
  0
LINE
  5
9F2
330
1F
100
AcDbEntity
  8
2_カバ_
  6
CONTINUOUS
100
AcDbLine
 10
108.184549623015
 20
82.97381234698248
 30
0.0
 11
106.184549623015
 21
82.97381234698248
 31
0.0
  0
LINE
  5
9F3
330
1F
100
AcDbEntity
  8
2_カバ_
  6
CONTINUOUS
100
AcDbLine
 10
108.184549623015
 20
77.97381234698248
 30
0.0
 11
106.184549623015
 21
77.97381234698248
 31
0.0
  0
LINE
  5
9F4
330
1F
100
AcDbEntity
  8
2_カバ_
  6
CONTINUOUS
100
AcDbLine
 10
107.184549623015
 20
89.97381234698249
 30
0.0
 11
107.184549623015
 21
91.97381234698248
 31
0.0
  0
LINE
  5
9F5
330
1F
100
AcDbEntity
  8
2_カバ_
  6
CONTINUOUS
100
AcDbLine
 10
104.684549623015
 20
86.97381234698248
 30
0.0
 11
104.684549623015
 21
91.97381234698248
 31
0.0
  0
LINE
  5
9F6
330
1F
100
AcDbEntity
  8
2_カバ_
  6
CONTINUOUS
100
AcDbLine
 10
106.184549623015
 20
89.97381234698249
 30
0.0
 11
106.184549623015
 21
91.97381234698248
 31
0.0
  0
LINE
  5
9F7
330
1F
100
AcDbEntity
  8
2_カバ_
  6
CONTINUOUS
100
AcDbLine
 10
108.184549623015
 20
84.9738123469825
 30
0.0
 11
106.184549623015
 21
84.9738123469825
 31
0.0
  0
LINE
  5
9F8
330
1F
100
AcDbEntity
  8
2_カバ_
  6
CONTINUOUS
100
AcDbLine
 10
108.184549623015
 20
89.97381234698249
 30
0.0
 11
106.184549623015
 21
89.97381234698249
 31
0.0
  0
ARC
  5
9F9
330
1F
100
AcDbEntity
  8
2_カバ_
  6
CONTINUOUS
100
AcDbCircle
 10
104.1845496230149
 20
86.97381234698248
 30
0.0
 40
0.5
100
AcDbArc
 50
270.0
 51
0.0
  0
LINE
  5
9FA
330
1F
100
AcDbEntity
  8
2_カバ_
  6
CONTINUOUS
100
AcDbLine
 10
108.184549623015
 20
91.97381234698248
 30
0.0
 11
106.184549623015
 21
91.97381234698248
 31
0.0
  0
ARC
  5
9FB
330
1F
100
AcDbEntity
  8
2_カバ_
  6
CONTINUOUS
100
AcDbCircle
 10
104.1845496230149
 20
91.97381234698248
 30
0.0
 40
0.5
100
AcDbArc
 50
0.0
 51
90.0
  0
LINE
  5
9FC
330
1F
100
AcDbEntity
  8
2_カバ_
  6
CONTINUOUS
100
AcDbLine
 10
105.684549623015
 20
103.9738123469822
 30
0.0
 11
105.684549623015
 21
98.97381234698249
 31
0.0
  0
LINE
  5
A27
330
1F
100
AcDbEntity
  8
0
100
AcDbLine
 10
330.1845496230138
 20
364.8428827391366
 30
0.0
 11
330.1845496230138
 21
171.1047419548289
 31
0.0
  0
LINE
  5
A28
330
1F
100
AcDbEntity
  8
0
100
AcDbLine
 10
325.1845496230139
 20
170.9738123469828
 30
0.0
 11
325.1845496230139
 21
180.9738123469829
 31
0.0
  0
LINE
  5
A29
330
1F
100
AcDbEntity
  8
0
100
AcDbLine
 10
209.184549623015
 20
180.9738123469829
 30
0.0
 11
209.184549623015
 21
354.9738123469826
 31
0.0
  0
LINE
  5
A2A
330
1F
100
AcDbEntity
  8
0
100
AcDbLine
 10
209.184549623015
 20
354.9738123469826
 30
0.0
 11
325.1845496230139
 21
354.9738123469826
 31
0.0
  0
LINE
  5
A2B
330
1F
100
AcDbEntity
  8
0
100
AcDbLine
 10
209.184549623015
 20
180.9738123469829
 30
0.0
 11
325.1845496230139
 21
180.9738123469829
 31
0.0
  0
LINE
  5
A2C
330
1F
100
AcDbEntity
  8
0
100
AcDbLine
 10
325.1845496230139
 20
364.9738123469826
 30
0.0
 11
330.1845496230138
 21
364.8428827391366
 31
0.0
  0
LINE
  5
A2D
330
1F
100
AcDbEntity
  8
0
100
AcDbLine
 10
326.5985893877506
 20
364.9367844126076
 30
0.0
 11
326.5985893877498
 21
171.0108402813578
 31
0.0
  0
LINE
  5
A2E
330
1F
100
AcDbEntity
  8
0
100
AcDbLine
 10
325.1845496230139
 20
170.9738123469828
 30
0.0
 11
330.1845496230138
 21
171.1047419548289
 31
0.0
  0
LINE
  5
A2F
330
1F
100
AcDbEntity
  8
0
100
AcDbLine
 10
209.184549623015
 20
180.9738123469829
 30
0.0
 11
209.184549623015
 21
354.9738123469826
 31
0.0
  0
LINE
  5
A30
330
1F
100
AcDbEntity
  8
0
100
AcDbLine
 10
209.184549623015
 20
354.9738123469826
 30
0.0
 11
326.5724034661828
 21
354.9738123469826
 31
0.0
  0
LINE
  5
A31
330
1F
100
AcDbEntity
  8
0
100
AcDbLine
 10
226.1845496230149
 20
180.9738123469829
 30
0.0
 11
226.1845496230149
 21
354.9738123469826
 31
0.0
  0
LINE
  5
A32
330
1F
100
AcDbEntity
  8
0
100
AcDbLine
 10
308.1845496230146
 20
180.9738123469829
 30
0.0
 11
308.1845496230146
 21
354.9738123469826
 31
0.0
  0
LINE
  5
A33
330
1F
100
AcDbEntity
  8
0
100
AcDbLine
 10
226.1845496230149
 20
353.9738123469826
 30
0.0
 11
308.1845496230146
 21
353.9738123469826
 31
0.0
  0
LINE
  5
A34
330
1F
100
AcDbEntity
  8
0
100
AcDbLine
 10
231.1845496230148
 20
351.9738123469826
 30
0.0
 11
233.1845496230148
 21
351.9738123469826
 31
0.0
  0
LINE
  5
A35
330
1F
100
AcDbEntity
  8
0
100
AcDbLine
 10
231.1845496230148
 20
181.9738123469829
 30
0.0
 11
231.1845496230148
 21
235.2238123469827
 31
0.0
  0
LINE
  5
A36
330
1F
100
AcDbEntity
  8
0
100
AcDbLine
 10
233.1845496230148
 20
181.9738123469829
 30
0.0
 11
233.1845496230148
 21
235.2238123469827
 31
0.0
  0
LINE
  5
A37
330
1F
100
AcDbEntity
  8
0
100
AcDbLine
 10
231.1845496230148
 20
300.7238123469826
 30
0.0
 11
233.1845496230148
 21
300.7238123469826
 31
0.0
  0
LINE
  5
A38
330
1F
100
AcDbEntity
  8
0
100
AcDbLine
 10
231.1845496230148
 20
235.2238123469827
 30
0.0
 11
233.1845496230148
 21
235.2238123469827
 31
0.0
  0
LINE
  5
A39
330
1F
100
AcDbEntity
  8
0
100
AcDbLine
 10
226.1845496230149
 20
181.9738123469829
 30
0.0
 11
308.1845496230146
 21
181.9738123469829
 31
0.0
  0
LINE
  5
A3A
330
1F
100
AcDbEntity
  8
0
100
AcDbLine
 10
231.1845496230148
 20
183.9738123469828
 30
0.0
 11
233.1845496230148
 21
183.9738123469828
 31
0.0
  0
LINE
  5
A3B
330
1F
100
AcDbEntity
  8
0
100
AcDbLine
 10
231.1845496230148
 20
300.7238123469826
 30
0.0
 11
231.1845496230148
 21
353.9738123469826
 31
0.0
  0
LINE
  5
A3C
330
1F
100
AcDbEntity
  8
0
100
AcDbLine
 10
233.1845496230148
 20
300.7238123469826
 30
0.0
 11
233.1845496230148
 21
353.9738123469826
 31
0.0
  0
LINE
  5
A3D
330
1F
100
AcDbEntity
  8
0
100
AcDbLine
 10
238.184549623015
 20
351.9738123469826
 30
0.0
 11
240.184549623015
 21
351.9738123469826
 31
0.0
  0
LINE
  5
A3E
330
1F
100
AcDbEntity
  8
0
100
AcDbLine
 10
238.184549623015
 20
181.9738123469829
 30
0.0
 11
238.184549623015
 21
235.2238123469827
 31
0.0
  0
LINE
  5
A3F
330
1F
100
AcDbEntity
  8
0
100
AcDbLine
 10
240.184549623015
 20
181.9738123469829
 30
0.0
 11
240.184549623015
 21
235.2238123469827
 31
0.0
  0
LINE
  5
A40
330
1F
100
AcDbEntity
  8
0
100
AcDbLine
 10
238.184549623015
 20
300.7238123469826
 30
0.0
 11
240.184549623015
 21
300.7238123469826
 31
0.0
  0
LINE
  5
A41
330
1F
100
AcDbEntity
  8
0
100
AcDbLine
 10
238.184549623015
 20
235.2238123469827
 30
0.0
 11
240.184549623015
 21
235.2238123469827
 31
0.0
  0
LINE
  5
A42
330
1F
100
AcDbEntity
  8
0
100
AcDbLine
 10
238.184549623015
 20
183.9738123469828
 30
0.0
 11
240.184549623015
 21
183.9738123469828
 31
0.0
  0
LINE
  5
A43
330
1F
100
AcDbEntity
  8
0
100
AcDbLine
 10
238.184549623015
 20
300.7238123469826
 30
0.0
 11
238.184549623015
 21
353.9738123469826
 31
0.0
  0
LINE
  5
A44
330
1F
100
AcDbEntity
  8
0
100
AcDbLine
 10
240.184549623015
 20
300.7238123469826
 30
0.0
 11
240.184549623015
 21
353.9738123469826
 31
0.0
  0
LINE
  5
A45
330
1F
100
AcDbEntity
  8
0
100
AcDbLine
 10
245.1845496230149
 20
351.9738123469826
 30
0.0
 11
247.1845496230149
 21
351.9738123469826
 31
0.0
  0
LINE
  5
A46
330
1F
100
AcDbEntity
  8
0
100
AcDbLine
 10
245.1845496230149
 20
181.9738123469829
 30
0.0
 11
245.1845496230149
 21
235.2238123469827
 31
0.0
  0
LINE
  5
A47
330
1F
100
AcDbEntity
  8
0
100
AcDbLine
 10
247.1845496230149
 20
181.9738123469829
 30
0.0
 11
247.1845496230149
 21
235.2238123469827
 31
0.0
  0
LINE
  5
A48
330
1F
100
AcDbEntity
  8
0
100
AcDbLine
 10
245.1845496230149
 20
300.7238123469826
 30
0.0
 11
247.1845496230149
 21
300.7238123469826
 31
0.0
  0
LINE
  5
A49
330
1F
100
AcDbEntity
  8
0
100
AcDbLine
 10
245.1845496230149
 20
235.2238123469827
 30
0.0
 11
247.1845496230149
 21
235.2238123469827
 31
0.0
  0
LINE
  5
A4A
330
1F
100
AcDbEntity
  8
0
100
AcDbLine
 10
245.1845496230149
 20
183.9738123469828
 30
0.0
 11
247.1845496230149
 21
183.9738123469828
 31
0.0
  0
LINE
  5
A4B
330
1F
100
AcDbEntity
  8
0
100
AcDbLine
 10
245.1845496230149
 20
300.7238123469826
 30
0.0
 11
245.1845496230149
 21
353.9738123469826
 31
0.0
  0
LINE
  5
A4C
330
1F
100
AcDbEntity
  8
0
100
AcDbLine
 10
247.1845496230149
 20
300.7238123469826
 30
0.0
 11
247.1845496230149
 21
353.9738123469826
 31
0.0
  0
LINE
  5
A4D
330
1F
100
AcDbEntity
  8
0
100
AcDbLine
 10
252.1845496230148
 20
181.9738123469829
 30
0.0
 11
252.1845496230148
 21
235.2238123469827
 31
0.0
  0
LINE
  5
A4E
330
1F
100
AcDbEntity
  8
0
100
AcDbLine
 10
254.1845496230148
 20
181.9738123469829
 30
0.0
 11
254.1845496230148
 21
235.2238123469827
 31
0.0
  0
LINE
  5
A4F
330
1F
100
AcDbEntity
  8
0
100
AcDbLine
 10
252.1845496230148
 20
300.7238123469826
 30
0.0
 11
254.1845496230148
 21
300.7238123469826
 31
0.0
  0
LINE
  5
A50
330
1F
100
AcDbEntity
  8
0
100
AcDbLine
 10
252.1845496230148
 20
235.2238123469827
 30
0.0
 11
254.1845496230148
 21
235.2238123469827
 31
0.0
  0
LINE
  5
A51
330
1F
100
AcDbEntity
  8
0
100
AcDbLine
 10
252.1845496230148
 20
183.9738123469828
 30
0.0
 11
254.1845496230148
 21
183.9738123469828
 31
0.0
  0
LINE
  5
A52
330
1F
100
AcDbEntity
  8
0
100
AcDbLine
 10
252.1845496230148
 20
300.7238123469826
 30
0.0
 11
252.1845496230148
 21
353.9738123469826
 31
0.0
  0
LINE
  5
A53
330
1F
100
AcDbEntity
  8
0
100
AcDbLine
 10
254.1845496230148
 20
300.7238123469826
 30
0.0
 11
254.1845496230148
 21
353.9738123469826
 31
0.0
  0
LINE
  5
A54
330
1F
100
AcDbEntity
  8
0
100
AcDbLine
 10
259.1845496230149
 20
351.9738123469826
 30
0.0
 11
261.1845496230149
 21
351.9738123469826
 31
0.0
  0
LINE
  5
A55
330
1F
100
AcDbEntity
  8
0
100
AcDbLine
 10
259.1845496230149
 20
181.9738123469829
 30
0.0
 11
259.1845496230149
 21
235.2238123469827
 31
0.0
  0
LINE
  5
A56
330
1F
100
AcDbEntity
  8
0
100
AcDbLine
 10
261.1845496230149
 20
181.9738123469829
 30
0.0
 11
261.1845496230149
 21
235.2238123469827
 31
0.0
  0
LINE
  5
A57
330
1F
100
AcDbEntity
  8
0
100
AcDbLine
 10
259.1845496230149
 20
300.7238123469826
 30
0.0
 11
261.1845496230149
 21
300.7238123469826
 31
0.0
  0
LINE
  5
A58
330
1F
100
AcDbEntity
  8
0
100
AcDbLine
 10
259.1845496230149
 20
235.2238123469827
 30
0.0
 11
261.1845496230149
 21
235.2238123469827
 31
0.0
  0
LINE
  5
A59
330
1F
100
AcDbEntity
  8
0
100
AcDbLine
 10
259.1845496230149
 20
183.9738123469828
 30
0.0
 11
261.1845496230149
 21
183.9738123469828
 31
0.0
  0
LINE
  5
A5A
330
1F
100
AcDbEntity
  8
0
100
AcDbLine
 10
259.1845496230149
 20
300.7238123469826
 30
0.0
 11
259.1845496230149
 21
353.9738123469826
 31
0.0
  0
LINE
  5
A5B
330
1F
100
AcDbEntity
  8
0
100
AcDbLine
 10
261.1845496230149
 20
300.7238123469826
 30
0.0
 11
261.1845496230149
 21
353.9738123469826
 31
0.0
  0
LINE
  5
A5C
330
1F
100
AcDbEntity
  8
0
100
AcDbLine
 10
266.1845496230148
 20
351.9738123469826
 30
0.0
 11
268.1845496230149
 21
351.9738123469826
 31
0.0
  0
LINE
  5
A5D
330
1F
100
AcDbEntity
  8
0
100
AcDbLine
 10
266.1845496230148
 20
181.9738123469829
 30
0.0
 11
266.1845496230148
 21
235.2238123469827
 31
0.0
  0
LINE
  5
A5E
330
1F
100
AcDbEntity
  8
0
100
AcDbLine
 10
268.1845496230149
 20
181.9738123469829
 30
0.0
 11
268.1845496230149
 21
235.2238123469827
 31
0.0
  0
LINE
  5
A5F
330
1F
100
AcDbEntity
  8
0
100
AcDbLine
 10
266.1845496230148
 20
300.7238123469826
 30
0.0
 11
268.1845496230149
 21
300.7238123469826
 31
0.0
  0
LINE
  5
A60
330
1F
100
AcDbEntity
  8
0
100
AcDbLine
 10
266.1845496230148
 20
235.2238123469827
 30
0.0
 11
268.1845496230149
 21
235.2238123469827
 31
0.0
  0
LINE
  5
A61
330
1F
100
AcDbEntity
  8
0
100
AcDbLine
 10
266.1845496230148
 20
183.9738123469828
 30
0.0
 11
268.1845496230149
 21
183.9738123469828
 31
0.0
  0
LINE
  5
A62
330
1F
100
AcDbEntity
  8
0
100
AcDbLine
 10
266.1845496230148
 20
300.7238123469826
 30
0.0
 11
266.1845496230148
 21
353.9738123469826
 31
0.0
  0
LINE
  5
A63
330
1F
100
AcDbEntity
  8
0
100
AcDbLine
 10
268.1845496230149
 20
300.7238123469826
 30
0.0
 11
268.1845496230149
 21
353.9738123469826
 31
0.0
  0
LINE
  5
A64
330
1F
100
AcDbEntity
  8
0
100
AcDbLine
 10
273.1845496230149
 20
351.9738123469826
 30
0.0
 11
275.1845496230149
 21
351.9738123469826
 31
0.0
  0
LINE
  5
A65
330
1F
100
AcDbEntity
  8
0
100
AcDbLine
 10
273.1845496230149
 20
181.9738123469829
 30
0.0
 11
273.1845496230149
 21
235.2238123469827
 31
0.0
  0
LINE
  5
A66
330
1F
100
AcDbEntity
  8
0
100
AcDbLine
 10
275.1845496230149
 20
181.9738123469829
 30
0.0
 11
275.1845496230149
 21
235.2238123469827
 31
0.0
  0
LINE
  5
A67
330
1F
100
AcDbEntity
  8
0
100
AcDbLine
 10
273.1845496230149
 20
300.7238123469826
 30
0.0
 11
275.1845496230149
 21
300.7238123469826
 31
0.0
  0
LINE
  5
A68
330
1F
100
AcDbEntity
  8
0
100
AcDbLine
 10
273.1845496230149
 20
235.2238123469827
 30
0.0
 11
275.1845496230149
 21
235.2238123469827
 31
0.0
  0
LINE
  5
A69
330
1F
100
AcDbEntity
  8
0
100
AcDbLine
 10
273.1845496230149
 20
183.9738123469828
 30
0.0
 11
275.1845496230149
 21
183.9738123469828
 31
0.0
  0
LINE
  5
A6A
330
1F
100
AcDbEntity
  8
0
100
AcDbLine
 10
273.1845496230149
 20
300.7238123469826
 30
0.0
 11
273.1845496230149
 21
353.9738123469826
 31
0.0
  0
LINE
  5
A6B
330
1F
100
AcDbEntity
  8
0
100
AcDbLine
 10
275.1845496230149
 20
300.7238123469826
 30
0.0
 11
275.1845496230149
 21
353.9738123469826
 31
0.0
  0
LINE
  5
A6C
330
1F
100
AcDbEntity
  8
0
100
AcDbLine
 10
280.1845496230149
 20
351.9738123469826
 30
0.0
 11
282.1845496230148
 21
351.9738123469826
 31
0.0
  0
LINE
  5
A6D
330
1F
100
AcDbEntity
  8
0
100
AcDbLine
 10
280.1845496230149
 20
181.9738123469829
 30
0.0
 11
280.1845496230149
 21
235.2238123469827
 31
0.0
  0
LINE
  5
A6E
330
1F
100
AcDbEntity
  8
0
100
AcDbLine
 10
282.1845496230148
 20
181.9738123469829
 30
0.0
 11
282.1845496230148
 21
235.2238123469827
 31
0.0
  0
LINE
  5
A6F
330
1F
100
AcDbEntity
  8
0
100
AcDbLine
 10
280.1845496230149
 20
300.7238123469826
 30
0.0
 11
282.1845496230148
 21
300.7238123469826
 31
0.0
  0
LINE
  5
A70
330
1F
100
AcDbEntity
  8
0
100
AcDbLine
 10
280.1845496230149
 20
235.2238123469827
 30
0.0
 11
282.1845496230148
 21
235.2238123469827
 31
0.0
  0
LINE
  5
A71
330
1F
100
AcDbEntity
  8
0
100
AcDbLine
 10
280.1845496230149
 20
183.9738123469828
 30
0.0
 11
282.1845496230148
 21
183.9738123469828
 31
0.0
  0
LINE
  5
A72
330
1F
100
AcDbEntity
  8
0
100
AcDbLine
 10
280.1845496230149
 20
300.7238123469826
 30
0.0
 11
280.1845496230149
 21
353.9738123469826
 31
0.0
  0
LINE
  5
A73
330
1F
100
AcDbEntity
  8
0
100
AcDbLine
 10
282.1845496230148
 20
300.7238123469826
 30
0.0
 11
282.1845496230148
 21
353.9738123469826
 31
0.0
  0
LINE
  5
A74
330
1F
100
AcDbEntity
  8
0
100
AcDbLine
 10
287.1845496230148
 20
351.9738123469826
 30
0.0
 11
289.1845496230148
 21
351.9738123469826
 31
0.0
  0
LINE
  5
A75
330
1F
100
AcDbEntity
  8
0
100
AcDbLine
 10
287.1845496230148
 20
181.9738123469829
 30
0.0
 11
287.1845496230148
 21
235.2238123469827
 31
0.0
  0
LINE
  5
A76
330
1F
100
AcDbEntity
  8
0
100
AcDbLine
 10
289.1845496230148
 20
181.9738123469829
 30
0.0
 11
289.1845496230148
 21
235.2238123469827
 31
0.0
  0
LINE
  5
A77
330
1F
100
AcDbEntity
  8
0
100
AcDbLine
 10
287.1845496230148
 20
300.7238123469826
 30
0.0
 11
289.1845496230148
 21
300.7238123469826
 31
0.0
  0
LINE
  5
A78
330
1F
100
AcDbEntity
  8
0
100
AcDbLine
 10
287.1845496230148
 20
235.2238123469827
 30
0.0
 11
289.1845496230148
 21
235.2238123469827
 31
0.0
  0
LINE
  5
A79
330
1F
100
AcDbEntity
  8
0
100
AcDbLine
 10
287.1845496230148
 20
183.9738123469828
 30
0.0
 11
289.1845496230148
 21
183.9738123469828
 31
0.0
  0
LINE
  5
A7A
330
1F
100
AcDbEntity
  8
0
100
AcDbLine
 10
287.1845496230148
 20
300.7238123469826
 30
0.0
 11
287.1845496230148
 21
353.9738123469826
 31
0.0
  0
LINE
  5
A7B
330
1F
100
AcDbEntity
  8
0
100
AcDbLine
 10
289.1845496230148
 20
300.7238123469826
 30
0.0
 11
289.1845496230148
 21
353.9738123469826
 31
0.0
  0
LINE
  5
A7C
330
1F
100
AcDbEntity
  8
0
100
AcDbLine
 10
294.1845496230148
 20
351.9738123469826
 30
0.0
 11
296.1845496230148
 21
351.9738123469826
 31
0.0
  0
LINE
  5
A7D
330
1F
100
AcDbEntity
  8
0
100
AcDbLine
 10
294.1845496230148
 20
181.9738123469829
 30
0.0
 11
294.1845496230148
 21
235.2238123469827
 31
0.0
  0
LINE
  5
A7E
330
1F
100
AcDbEntity
  8
0
100
AcDbLine
 10
296.1845496230148
 20
181.9738123469829
 30
0.0
 11
296.1845496230148
 21
235.2238123469827
 31
0.0
  0
LINE
  5
A7F
330
1F
100
AcDbEntity
  8
0
100
AcDbLine
 10
294.1845496230148
 20
300.7238123469826
 30
0.0
 11
296.1845496230148
 21
300.7238123469826
 31
0.0
  0
LINE
  5
A80
330
1F
100
AcDbEntity
  8
0
100
AcDbLine
 10
294.1845496230148
 20
235.2238123469827
 30
0.0
 11
296.1845496230148
 21
235.2238123469827
 31
0.0
  0
LINE
  5
A81
330
1F
100
AcDbEntity
  8
0
100
AcDbLine
 10
294.1845496230148
 20
183.9738123469828
 30
0.0
 11
296.1845496230148
 21
183.9738123469828
 31
0.0
  0
LINE
  5
A82
330
1F
100
AcDbEntity
  8
0
100
AcDbLine
 10
294.1845496230148
 20
300.7238123469826
 30
0.0
 11
294.1845496230148
 21
353.9738123469826
 31
0.0
  0
LINE
  5
A83
330
1F
100
AcDbEntity
  8
0
100
AcDbLine
 10
296.1845496230148
 20
300.7238123469826
 30
0.0
 11
296.1845496230148
 21
353.9738123469826
 31
0.0
  0
LINE
  5
A84
330
1F
100
AcDbEntity
  8
0
100
AcDbLine
 10
301.1845496230148
 20
351.9738123469826
 30
0.0
 11
303.1845496230146
 21
351.9738123469826
 31
0.0
  0
LINE
  5
A85
330
1F
100
AcDbEntity
  8
0
100
AcDbLine
 10
301.1845496230148
 20
181.9738123469829
 30
0.0
 11
301.1845496230148
 21
235.2238123469827
 31
0.0
  0
LINE
  5
A86
330
1F
100
AcDbEntity
  8
0
100
AcDbLine
 10
303.1845496230146
 20
181.9738123469829
 30
0.0
 11
303.1845496230146
 21
235.2238123469827
 31
0.0
  0
LINE
  5
A87
330
1F
100
AcDbEntity
  8
0
100
AcDbLine
 10
301.1845496230148
 20
300.7238123469826
 30
0.0
 11
303.1845496230146
 21
300.7238123469826
 31
0.0
  0
LINE
  5
A88
330
1F
100
AcDbEntity
  8
0
100
AcDbLine
 10
301.1845496230148
 20
235.2238123469827
 30
0.0
 11
303.1845496230146
 21
235.2238123469827
 31
0.0
  0
LINE
  5
A89
330
1F
100
AcDbEntity
  8
0
100
AcDbLine
 10
301.1845496230148
 20
183.9738123469828
 30
0.0
 11
303.1845496230146
 21
183.9738123469828
 31
0.0
  0
LINE
  5
A8A
330
1F
100
AcDbEntity
  8
0
100
AcDbLine
 10
301.1845496230148
 20
300.7238123469826
 30
0.0
 11
301.1845496230148
 21
353.9738123469826
 31
0.0
  0
LINE
  5
A8B
330
1F
100
AcDbEntity
  8
0
100
AcDbLine
 10
303.1845496230146
 20
300.7238123469826
 30
0.0
 11
303.1845496230146
 21
353.9738123469826
 31
0.0
  0
LINE
  5
A8C
330
1F
100
AcDbEntity
  8
0
100
AcDbLine
 10
231.1845496230148
 20
329.4738123469826
 30
0.0
 11
233.1845496230148
 21
329.4738123469826
 31
0.0
  0
LINE
  5
A8D
330
1F
100
AcDbEntity
  8
0
100
AcDbLine
 10
231.1845496230148
 20
326.4738123469827
 30
0.0
 11
233.1845496230148
 21
326.4738123469827
 31
0.0
  0
LINE
  5
A8E
330
1F
100
AcDbEntity
  8
0
100
AcDbLine
 10
231.1845496230148
 20
209.4738123469829
 30
0.0
 11
233.1845496230148
 21
209.4738123469829
 31
0.0
  0
LINE
  5
A8F
330
1F
100
AcDbEntity
  8
0
100
AcDbLine
 10
231.1845496230148
 20
206.4738123469829
 30
0.0
 11
233.1845496230148
 21
206.4738123469829
 31
0.0
  0
LINE
  5
A90
330
1F
100
AcDbEntity
  8
0
100
AcDbLine
 10
238.184549623015
 20
329.4738123469826
 30
0.0
 11
240.184549623015
 21
329.4738123469826
 31
0.0
  0
LINE
  5
A91
330
1F
100
AcDbEntity
  8
0
100
AcDbLine
 10
238.184549623015
 20
326.4738123469827
 30
0.0
 11
240.184549623015
 21
326.4738123469827
 31
0.0
  0
LINE
  5
A92
330
1F
100
AcDbEntity
  8
0
100
AcDbLine
 10
238.184549623015
 20
209.4738123469829
 30
0.0
 11
240.184549623015
 21
209.4738123469829
 31
0.0
  0
LINE
  5
A93
330
1F
100
AcDbEntity
  8
0
100
AcDbLine
 10
238.184549623015
 20
206.4738123469829
 30
0.0
 11
240.184549623015
 21
206.4738123469829
 31
0.0
  0
LINE
  5
A94
330
1F
100
AcDbEntity
  8
0
100
AcDbLine
 10
245.1845496230149
 20
329.4738123469826
 30
0.0
 11
247.1845496230149
 21
329.4738123469826
 31
0.0
  0
LINE
  5
A95
330
1F
100
AcDbEntity
  8
0
100
AcDbLine
 10
245.1845496230149
 20
326.4738123469827
 30
0.0
 11
247.1845496230149
 21
326.4738123469827
 31
0.0
  0
LINE
  5
A96
330
1F
100
AcDbEntity
  8
0
100
AcDbLine
 10
245.1845496230149
 20
209.4738123469829
 30
0.0
 11
247.1845496230149
 21
209.4738123469829
 31
0.0
  0
LINE
  5
A97
330
1F
100
AcDbEntity
  8
0
100
AcDbLine
 10
245.1845496230149
 20
206.4738123469829
 30
0.0
 11
247.1845496230149
 21
206.4738123469829
 31
0.0
  0
LINE
  5
A98
330
1F
100
AcDbEntity
  8
0
100
AcDbLine
 10
252.1845496230148
 20
329.4738123469826
 30
0.0
 11
254.1845496230148
 21
329.4738123469826
 31
0.0
  0
LINE
  5
A99
330
1F
100
AcDbEntity
  8
0
100
AcDbLine
 10
252.1845496230148
 20
326.4738123469827
 30
0.0
 11
254.1845496230148
 21
326.4738123469827
 31
0.0
  0
LINE
  5
A9A
330
1F
100
AcDbEntity
  8
0
100
AcDbLine
 10
252.1845496230148
 20
209.4738123469829
 30
0.0
 11
254.1845496230148
 21
209.4738123469829
 31
0.0
  0
LINE
  5
A9B
330
1F
100
AcDbEntity
  8
0
100
AcDbLine
 10
252.1845496230148
 20
206.4738123469829
 30
0.0
 11
254.1845496230148
 21
206.4738123469829
 31
0.0
  0
LINE
  5
A9C
330
1F
100
AcDbEntity
  8
0
100
AcDbLine
 10
259.1845496230149
 20
329.4738123469826
 30
0.0
 11
261.1845496230149
 21
329.4738123469826
 31
0.0
  0
LINE
  5
A9D
330
1F
100
AcDbEntity
  8
0
100
AcDbLine
 10
259.1845496230149
 20
326.4738123469827
 30
0.0
 11
261.1845496230149
 21
326.4738123469827
 31
0.0
  0
LINE
  5
A9E
330
1F
100
AcDbEntity
  8
0
100
AcDbLine
 10
259.1845496230149
 20
209.4738123469829
 30
0.0
 11
261.1845496230149
 21
209.4738123469829
 31
0.0
  0
LINE
  5
A9F
330
1F
100
AcDbEntity
  8
0
100
AcDbLine
 10
259.1845496230149
 20
206.4738123469829
 30
0.0
 11
261.1845496230149
 21
206.4738123469829
 31
0.0
  0
LINE
  5
AA0
330
1F
100
AcDbEntity
  8
0
100
AcDbLine
 10
266.1845496230148
 20
329.4738123469826
 30
0.0
 11
268.1845496230149
 21
329.4738123469826
 31
0.0
  0
LINE
  5
AA1
330
1F
100
AcDbEntity
  8
0
100
AcDbLine
 10
266.1845496230148
 20
326.4738123469827
 30
0.0
 11
268.1845496230149
 21
326.4738123469827
 31
0.0
  0
LINE
  5
AA2
330
1F
100
AcDbEntity
  8
0
100
AcDbLine
 10
266.1845496230148
 20
209.4738123469829
 30
0.0
 11
268.1845496230149
 21
209.4738123469829
 31
0.0
  0
LINE
  5
AA3
330
1F
100
AcDbEntity
  8
0
100
AcDbLine
 10
266.1845496230148
 20
206.4738123469829
 30
0.0
 11
268.1845496230149
 21
206.4738123469829
 31
0.0
  0
LINE
  5
AA4
330
1F
100
AcDbEntity
  8
0
100
AcDbLine
 10
273.1845496230149
 20
329.4738123469826
 30
0.0
 11
275.1845496230149
 21
329.4738123469826
 31
0.0
  0
LINE
  5
AA5
330
1F
100
AcDbEntity
  8
0
100
AcDbLine
 10
273.1845496230149
 20
326.4738123469827
 30
0.0
 11
275.1845496230149
 21
326.4738123469827
 31
0.0
  0
LINE
  5
AA6
330
1F
100
AcDbEntity
  8
0
100
AcDbLine
 10
273.1845496230149
 20
209.4738123469829
 30
0.0
 11
275.1845496230149
 21
209.4738123469829
 31
0.0
  0
LINE
  5
AA7
330
1F
100
AcDbEntity
  8
0
100
AcDbLine
 10
273.1845496230149
 20
206.4738123469829
 30
0.0
 11
275.1845496230149
 21
206.4738123469829
 31
0.0
  0
LINE
  5
AA8
330
1F
100
AcDbEntity
  8
0
100
AcDbLine
 10
280.1845496230149
 20
329.4738123469826
 30
0.0
 11
282.1845496230148
 21
329.4738123469826
 31
0.0
  0
LINE
  5
AA9
330
1F
100
AcDbEntity
  8
0
100
AcDbLine
 10
280.1845496230149
 20
326.4738123469827
 30
0.0
 11
282.1845496230148
 21
326.4738123469827
 31
0.0
  0
LINE
  5
AAA
330
1F
100
AcDbEntity
  8
0
100
AcDbLine
 10
280.1845496230149
 20
209.4738123469829
 30
0.0
 11
282.1845496230148
 21
209.4738123469829
 31
0.0
  0
LINE
  5
AAB
330
1F
100
AcDbEntity
  8
0
100
AcDbLine
 10
280.1845496230149
 20
206.4738123469829
 30
0.0
 11
282.1845496230148
 21
206.4738123469829
 31
0.0
  0
LINE
  5
AAC
330
1F
100
AcDbEntity
  8
0
100
AcDbLine
 10
287.1845496230148
 20
329.4738123469826
 30
0.0
 11
289.1845496230148
 21
329.4738123469826
 31
0.0
  0
LINE
  5
AAD
330
1F
100
AcDbEntity
  8
0
100
AcDbLine
 10
287.1845496230148
 20
326.4738123469827
 30
0.0
 11
289.1845496230148
 21
326.4738123469827
 31
0.0
  0
LINE
  5
AAE
330
1F
100
AcDbEntity
  8
0
100
AcDbLine
 10
287.1845496230148
 20
209.4738123469829
 30
0.0
 11
289.1845496230148
 21
209.4738123469829
 31
0.0
  0
LINE
  5
AAF
330
1F
100
AcDbEntity
  8
0
100
AcDbLine
 10
287.1845496230148
 20
206.4738123469829
 30
0.0
 11
289.1845496230148
 21
206.4738123469829
 31
0.0
  0
LINE
  5
AB0
330
1F
100
AcDbEntity
  8
0
100
AcDbLine
 10
294.1845496230148
 20
329.4738123469826
 30
0.0
 11
296.1845496230148
 21
329.4738123469826
 31
0.0
  0
LINE
  5
AB1
330
1F
100
AcDbEntity
  8
0
100
AcDbLine
 10
294.1845496230148
 20
326.4738123469827
 30
0.0
 11
296.1845496230148
 21
326.4738123469827
 31
0.0
  0
LINE
  5
AB2
330
1F
100
AcDbEntity
  8
0
100
AcDbLine
 10
294.1845496230148
 20
209.4738123469829
 30
0.0
 11
296.1845496230148
 21
209.4738123469829
 31
0.0
  0
LINE
  5
AB3
330
1F
100
AcDbEntity
  8
0
100
AcDbLine
 10
294.1845496230148
 20
206.4738123469829
 30
0.0
 11
296.1845496230148
 21
206.4738123469829
 31
0.0
  0
LINE
  5
AB4
330
1F
100
AcDbEntity
  8
0
100
AcDbLine
 10
301.1845496230148
 20
329.4738123469826
 30
0.0
 11
303.1845496230146
 21
329.4738123469826
 31
0.0
  0
LINE
  5
AB5
330
1F
100
AcDbEntity
  8
0
100
AcDbLine
 10
301.1845496230148
 20
326.4738123469827
 30
0.0
 11
303.1845496230146
 21
326.4738123469827
 31
0.0
  0
LINE
  5
AB6
330
1F
100
AcDbEntity
  8
0
100
AcDbLine
 10
301.1845496230148
 20
209.4738123469829
 30
0.0
 11
303.1845496230146
 21
209.4738123469829
 31
0.0
  0
LINE
  5
AB7
330
1F
100
AcDbEntity
  8
0
100
AcDbLine
 10
301.1845496230148
 20
206.4738123469829
 30
0.0
 11
303.1845496230146
 21
206.4738123469829
 31
0.0
  0
LINE
  5
AB8
330
1F
100
AcDbEntity
  8
0
100
AcDbLine
 10
281.1845496230148
 20
181.9738123469829
 30
0.0
 11
281.1845496230139
 21
181.4738123469829
 31
0.0
  0
LINE
  5
AB9
330
1F
100
AcDbEntity
  8
0
100
AcDbLine
 10
226.1845496230149
 20
181.4738123469829
 30
0.0
 11
281.1845496230148
 21
181.4738123469829
 31
0.0
  0
LINE
  5
ABA
330
1F
100
AcDbEntity
  8
0
100
AcDbLine
 10
326.5724034661818
 20
180.9738123469829
 30
0.0
 11
326.5724034661828
 21
354.9738123469826
 31
0.0
  0
LINE
  5
ABB
330
1F
100
AcDbEntity
  8
0
100
AcDbLine
 10
205.7845496230151
 20
221.6738130806731
 30
0.0
 11
205.7845496230151
 21
201.4738130806732
 31
0.0
  0
LINE
  5
ABC
330
1F
100
AcDbEntity
  8
0
100
AcDbLine
 10
206.684549623015
 20
197.9738130806731
 30
0.0
 11
206.1845496230148
 21
198.4738130806731
 31
0.0
  0
LINE
  5
ABD
330
1F
100
AcDbEntity
  8
0
100
AcDbLine
 10
206.1845496230151
 20
199.3738130806731
 30
0.0
 11
206.1845496230148
 21
198.4738130806731
 31
0.0
  0
LINE
  5
ABE
330
1F
100
AcDbEntity
  8
0
100
AcDbLine
 10
207.4845496230151
 20
197.9738130806731
 30
0.0
 11
206.684549623015
 21
197.9738130806731
 31
0.0
  0
ARC
  5
ABF
330
1F
100
AcDbEntity
  8
0
100
AcDbCircle
 10
207.184549623015
 20
199.3738130806731
 30
0.0
 40
1.0
100
AcDbArc
 50
90.0
 51
180.0
  0
LINE
  5
AC0
330
1F
100
AcDbEntity
  8
0
100
AcDbLine
 10
209.184549623015
 20
200.3738130806731
 30
0.0
 11
207.184549623015
 21
200.3738130806731
 31
0.0
  0
LINE
  5
AC1
330
1F
100
AcDbEntity
  8
0
100
AcDbLine
 10
209.184549623015
 20
199.1738130806731
 30
0.0
 11
207.4845496230151
 21
199.1738130806731
 31
0.0
  0
LINE
  5
AC2
330
1F
100
AcDbEntity
  8
0
100
AcDbLine
 10
209.184549623015
 20
201.4738130806731
 30
0.0
 11
205.7845496230151
 21
201.4738130806732
 31
0.0
  0
LINE
  5
AC3
330
1F
100
AcDbEntity
  8
0
100
AcDbLine
 10
207.4845496230151
 20
197.9738130806731
 30
0.0
 11
207.4845496230151
 21
199.1738130806731
 31
0.0
  0
LINE
  5
AC4
330
1F
100
AcDbEntity
  8
0
100
AcDbLine
 10
206.6845496230151
 20
225.1738130806731
 30
0.0
 11
206.1845496230152
 21
224.6738130806731
 31
0.0
  0
LINE
  5
AC5
330
1F
100
AcDbEntity
  8
0
100
AcDbLine
 10
206.1845496230152
 20
224.6738130806731
 30
0.0
 11
206.1845496230152
 21
223.7738130806731
 31
0.0
  0
LINE
  5
AC6
330
1F
100
AcDbEntity
  8
0
100
AcDbLine
 10
207.4845496230151
 20
225.1738130806731
 30
0.0
 11
206.6845496230151
 21
225.1738130806731
 31
0.0
  0
ARC
  5
AC7
330
1F
100
AcDbEntity
  8
0
100
AcDbCircle
 10
207.184549623015
 20
223.7738130806731
 30
0.0
 40
1.0
100
AcDbArc
 50
180.0
 51
270.0
  0
LINE
  5
AC8
330
1F
100
AcDbEntity
  8
0
100
AcDbLine
 10
209.184549623015
 20
222.7738130806732
 30
0.0
 11
207.184549623015
 21
222.7738130806732
 31
0.0
  0
LINE
  5
AC9
330
1F
100
AcDbEntity
  8
0
100
AcDbLine
 10
205.7845496230151
 20
221.6738130806731
 30
0.0
 11
209.184549623015
 21
221.6738130806731
 31
0.0
  0
LINE
  5
ACA
330
1F
100
AcDbEntity
  8
0
100
AcDbLine
 10
209.184549623015
 20
223.9738130806733
 30
0.0
 11
207.4845496230149
 21
223.9738130806733
 31
0.0
  0
LINE
  5
ACB
330
1F
100
AcDbEntity
  8
0
100
AcDbLine
 10
207.4845496230151
 20
223.9738130806731
 30
0.0
 11
207.4845496230151
 21
225.1738130806731
 31
0.0
  0
LINE
  5
ACC
330
1F
100
AcDbEntity
  8
0
100
AcDbLine
 10
209.184549623015
 20
185.9738130806729
 30
0.0
 11
206.6845496230148
 21
185.9738130806729
 31
0.0
  0
LINE
  5
ACD
330
1F
100
AcDbEntity
  8
0
100
AcDbLine
 10
206.6845496230148
 20
185.9738130806729
 30
0.0
 11
206.6845496230148
 21
191.4738130806732
 31
0.0
  0
LINE
  5
ACE
330
1F
100
AcDbEntity
  8
0
100
AcDbLine
 10
206.6845496230148
 20
191.4738130806732
 30
0.0
 11
209.184549623015
 21
191.4738130806732
 31
0.0
  0
LINE
  5
ACF
330
1F
100
AcDbEntity
  8
0
100
AcDbLine
 10
209.184549623015
 20
226.613812346983
 30
0.0
 11
208.1845496230148
 21
226.613812346983
 31
0.0
  0
LINE
  5
AD0
330
1F
100
AcDbEntity
  8
0
100
AcDbLine
 10
208.1845496230148
 20
226.613812346983
 30
0.0
 11
208.1845496230148
 21
223.9738130806733
 31
0.0
  0
LINE
  5
AD1
330
1F
100
AcDbEntity
  8
0
100
AcDbLine
 10
202.5845496230149
 20
276.9738123469827
 30
0.0
 11
209.184549623015
 21
276.9738123469827
 31
0.0
  0
LINE
  5
AD2
330
1F
100
AcDbEntity
  8
0
100
AcDbLine
 10
209.184549623015
 20
301.1338123469826
 30
0.0
 11
202.5845496230149
 21
301.1338123469826
 31
0.0
  0
LINE
  5
AD3
330
1F
100
AcDbEntity
  8
0
100
AcDbLine
 10
202.5845496230149
 20
301.1338123469826
 30
0.0
 11
202.5845496230149
 21
276.9738123469827
 31
0.0
  0
LINE
  5
AD4
330
1F
100
AcDbEntity
  8
0
100
AcDbLine
 10
203.8845496230149
 20
235.8138123469829
 30
0.0
 11
203.8845496230149
 21
264.2738123469829
 31
0.0
  0
LINE
  5
AD5
330
1F
100
AcDbEntity
  8
0
100
AcDbLine
 10
203.8845496230149
 20
239.9238123469829
 30
0.0
 11
208.1845496230148
 21
239.9238123469829
 31
0.0
  0
LINE
  5
AD6
330
1F
100
AcDbEntity
  8
0
100
AcDbLine
 10
208.1845496230148
 20
235.8138123469829
 30
0.0
 11
203.8845496230149
 21
235.8138123469829
 31
0.0
  0
LINE
  5
AD7
330
1F
100
AcDbEntity
  8
0
100
AcDbLine
 10
203.8845496230149
 20
260.1638123469829
 30
0.0
 11
209.184549623015
 21
260.1638123469829
 31
0.0
  0
LINE
  5
AD8
330
1F
100
AcDbEntity
  8
0
100
AcDbLine
 10
203.8845496230149
 20
255.1638123469829
 30
0.0
 11
209.184549623015
 21
255.1638123469829
 31
0.0
  0
LINE
  5
AD9
330
1F
100
AcDbEntity
  8
0
100
AcDbLine
 10
203.8845496230149
 20
247.5438123469829
 30
0.0
 11
209.184549623015
 21
247.5438123469829
 31
0.0
  0
LINE
  5
ADA
330
1F
100
AcDbEntity
  8
0
100
AcDbLine
 10
203.8845496230149
 20
252.5438123469829
 30
0.0
 11
209.184549623015
 21
252.5438123469829
 31
0.0
  0
LINE
  5
ADB
330
1F
100
AcDbEntity
  8
0
100
AcDbLine
 10
203.8845496230149
 20
244.9238123469829
 30
0.0
 11
208.3845496230149
 21
244.9238123469829
 31
0.0
  0
LINE
  5
ADC
330
1F
100
AcDbEntity
  8
0
100
AcDbLine
 10
208.3845496230149
 20
264.2738123469829
 30
0.0
 11
203.8845496230149
 21
264.2738123469829
 31
0.0
  0
LINE
  5
ADD
330
1F
100
AcDbEntity
  8
0
100
AcDbLine
 10
252.1845496230148
 20
351.9738123469826
 30
0.0
 11
254.1845496230148
 21
351.9738123469826
 31
0.0
  0
LINE
  5
ADE
330
1F
100
AcDbEntity
  8
0
100
AcDbLine
 10
325.1845496230139
 20
354.9738123469826
 30
0.0
 11
325.1845496230139
 21
364.9738123469826
 31
0.0
  0
LINE
  5
ADF
330
1F
100
AcDbEntity
  8
0
100
AcDbLine
 10
209.184549623015
 20
180.9738123469829
 30
0.0
 11
326.5724034661828
 21
180.9738123469829
 31
0.0
  0
LINE
  5
AE7
330
1F
100
AcDbEntity
  8
0
100
AcDbLine
 10
208.1845496230148
 20
222.7738130806732
 30
0.0
 11
208.1845496230148
 21
221.6738130806731
 31
0.0
  0
LINE
  5
AE8
330
1F
100
AcDbEntity
  8
0
100
AcDbLine
 10
208.1845496230148
 20
201.4738130806732
 30
0.0
 11
208.1845496230148
 21
200.3738130806731
 31
0.0
  0
LINE
  5
AE9
330
1F
100
AcDbEntity
  8
0
100
AcDbLine
 10
208.1845496230148
 20
199.1738130806731
 30
0.0
 11
208.1845496230148
 21
191.4738130806732
 31
0.0
  0
LINE
  5
AEA
330
1F
100
AcDbEntity
  8
0
100
AcDbLine
 10
209.184549623015
 20
322.4138123469828
 30
0.0
 11
208.1801876821639
 21
322.4138123469828
 31
0.0
  0
LINE
  5
AEB
330
1F
100
AcDbEntity
  8
0
100
AcDbLine
 10
209.184549623015
 20
233.1738130806731
 30
0.0
 11
208.1845496230148
 21
233.1738130806731
 31
0.0
  0
LINE
  5
AEC
330
1F
100
AcDbEntity
  8
0
100
AcDbLine
 10
208.1845496230148
 20
233.1738130806731
 30
0.0
 11
208.1845496230148
 21
241.5738130806733
 31
0.0
  0
LINE
  5
AED
330
1F
100
AcDbEntity
  8
0
100
AcDbLine
 10
208.1845496230148
 20
241.5738130806733
 30
0.0
 11
209.184549623015
 21
241.5738130806733
 31
0.0
  0
LINE
  5
AEE
330
1F
100
AcDbEntity
  8
0
100
AcDbLine
 10
209.184549623015
 20
243.0738130806731
 30
0.0
 11
208.3845496230149
 21
243.0738130806731
 31
0.0
  0
LINE
  5
AEF
330
1F
100
AcDbEntity
  8
0
100
AcDbLine
 10
208.3845496230149
 20
243.0738130806731
 30
0.0
 11
208.3845496230149
 21
246.0738130806733
 31
0.0
  0
LINE
  5
AF0
330
1F
100
AcDbEntity
  8
0
100
AcDbLine
 10
208.3845496230149
 20
246.0738130806733
 30
0.0
 11
209.184549623015
 21
246.0738130806733
 31
0.0
  0
LINE
  5
AF1
330
1F
100
AcDbEntity
  8
0
100
AcDbLine
 10
209.184549623015
 20
263.0738130806733
 30
0.0
 11
208.3845496230149
 21
263.0738130806733
 31
0.0
  0
LINE
  5
AF2
330
1F
100
AcDbEntity
  8
0
100
AcDbLine
 10
208.3845496230149
 20
263.0738130806733
 30
0.0
 11
208.3845496230149
 21
266.0738130806731
 31
0.0
  0
LINE
  5
AF3
330
1F
100
AcDbEntity
  8
0
100
AcDbLine
 10
208.3845496230149
 20
266.0738130806731
 30
0.0
 11
209.184549623015
 21
266.0738130806731
 31
0.0
  0
LINE
  5
AF4
330
1F
100
AcDbEntity
  8
0
  6
CONTINUOUS
100
AcDbLine
 10
208.1801876821639
 20
322.4138123469828
 30
0.0
 11
208.1801876821639
 21
307.0138123469825
 31
0.0
  0
LINE
  5
AF5
330
1F
100
AcDbEntity
  8
0
  6
CONTINUOUS
100
AcDbLine
 10
208.1801876821639
 20
307.0138123469825
 30
0.0
 11
209.184549623015
 21
307.0138123469825
 31
0.0
  0
MTEXT
  5
B76
330
1F
100
AcDbEntity
  8
0
100
AcDbMText
 10
36.7327016325728
 20
403.0364133626622
 30
0.0
 40
10.0
 41
0.0
 71
     1
 72
     5
  1
SCON-CA-400I~750I-ML-*-1/2\PSCON-CA-100SI~750SI-ML-*-1/2
1001
ACAD
1000
MTEXTBEGIN
1070
    73
1070
     1
1070
    44
1040
1.0
1070
    74
1070
     0
1000
MTEXTEND
  0
ENDSEC
  0
SECTION
  2
OBJECTS
  0
DICTIONARY
  5
C
330
0
100
AcDbDictionary
  3
ACAD_GROUP
350
D
  3
ACAD_LAYOUT
350
1A
  3
ACAD_MLINESTYLE
350
17
  3
ACAD_PLOTSETTINGS
350
19
  3
ACAD_PLOTSTYLENAME
350
E
  3
ACDBHEADERROUNDTRIPXREC
350
B78
  3
ACDBVARIABLEDICTIONARY
350
7CC
  0
DICTIONARY
  5
2DB
330
2
100
AcDbDictionary
280
     1
  3
ACAD_LAYERSTATES
360
2DC
  0
DICTIONARY
  5
7F2
330
1F
100
AcDbDictionary
280
     1
  3
ACAD_LAYOUTSELFREF
360
B99
  0
DICTIONARY
  5
7F0
330
1B
100
AcDbDictionary
280
     1
  3
ACAD_LAYOUTSELFREF
360
B98
  0
DICTIONARY
  5
D
102
{ACAD_REACTORS
330
C
102
}
330
C
100
AcDbDictionary
  0
DICTIONARY
  5
1A
102
{ACAD_REACTORS
330
C
102
}
330
C
100
AcDbDictionary
  0
DICTIONARY
  5
17
102
{ACAD_REACTORS
330
C
102
}
330
C
100
AcDbDictionary
  3
STANDARD
350
18
  0
DICTIONARY
  5
19
102
{ACAD_REACTORS
330
C
102
}
330
C
100
AcDbDictionary
  0
ACDBDICTIONARYWDFLT
  5
E
102
{ACAD_REACTORS
330
C
102
}
330
C
100
AcDbDictionary
281
     1
  3
Normal
350
F
100
AcDbDictionaryWithDefault
340
F
  0
DICTIONARY
  5
B78
102
{ACAD_REACTORS
330
C
102
}
330
C
100
AcDbDictionary
  3
CEPSNTYPE
350
B82
  3
FINGERPRINTGUID
350
B83
  3
HYPERLINKBASE
350
B7B
  3
INSUNITS
350
B81
  3
LAYOUTDICT
350
B7D
  3
LWETCUNION
350
B80
  3
PLOTSETDICT
350
B7E
  3
PLOTSTYLNAMDICT
350
B7F
  3
PSVPSCALE
350
B85
  3
PUCSBASE
350
B88
  3
PUCSORGBACK
350
B8E
  3
PUCSORGBOTTOM
350
B8A
  3
PUCSORGFRONT
350
B8D
  3
PUCSORGLEFT
350
B8B
  3
PUCSORGRIGHT
350
B8C
  3
PUCSORGTOP
350
B89
  3
PUCSORTHOREF
350
B86
  3
PUCSORTHOVIEW
350
B87
  3
STYLESHEET
350
B7C
  3
TSTACKALIGN
350
B79
  3
TSTACKSIZE
350
B7A
  3
UCSBASE
350
B91
  3
UCSORGBACK
350
B97
  3
UCSORGBOTTOM
350
B93
  3
UCSORGFRONT
350
B96
  3
UCSORGLEFT
350
B94
  3
UCSORGRIGHT
350
B95
  3
UCSORGTOP
350
B92
  3
UCSORTHOREF
350
B8F
  3
UCSORTHOVIEW
350
B90
  3
VERSIONGUID
350
B84
  0
DICTIONARY
  5
7CC
102
{ACAD_REACTORS
330
C
102
}
330
C
100
AcDbDictionary
  3
DIMASSOC
350
7CE
  3
HIDETEXT
350
7CD
  0
DICTIONARY
  5
2DC
102
{ACAD_REACTORS
330
2DB
102
}
330
2DB
100
AcDbDictionary
  0
XRECORD
  5
B99
102
{ACAD_REACTORS
330
7F2
102
}
330
7F2
100
AcDbXrecord
340
1F
  0
XRECORD
  5
B98
102
{ACAD_REACTORS
330
7F0
102
}
330
7F0
100
AcDbXrecord
340
1B
  0
MLINESTYLE
  5
18
102
{ACAD_REACTORS
330
17
102
}
330
17
100
AcDbMlineStyle
  2
STANDARD
 70
     0
  3

 62
   256
 51
90.0
 52
90.0
 71
     2
 49
0.5
 62
   256
  6
BYLAYER
 49
-0.5
 62
   256
  6
BYLAYER
  0
ACDBPLACEHOLDER
  5
F
102
{ACAD_REACTORS
330
E
102
}
330
E
100
AcDbPlaceHolder
280
     0
  0
XRECORD
  5
B82
102
{ACAD_REACTORS
330
B78
102
}
330
B78
100
AcDbXrecord
 90
        0
  0
XRECORD
  5
B83
102
{ACAD_REACTORS
330
B78
102
}
330
B78
100
AcDbXrecord
  1
{D80111D1-C122-4016-BADA-EC375832170F}
  0
XRECORD
  5
B7B
102
{ACAD_REACTORS
330
B78
102
}
330
B78
100
AcDbXrecord
  1

  0
XRECORD
  5
B81
102
{ACAD_REACTORS
330
B78
102
}
330
B78
100
AcDbXrecord
 90
        4
  0
XRECORD
  5
B7D
102
{ACAD_REACTORS
330
B78
102
}
330
B78
100
AcDbXrecord
340
1A
  0
XRECORD
  5
B80
102
{ACAD_REACTORS
330
B78
102
}
330
B78
100
AcDbXrecord
 90
    10781
  0
XRECORD
  5
B7E
102
{ACAD_REACTORS
330
B78
102
}
330
B78
100
AcDbXrecord
340
19
  0
XRECORD
  5
B7F
102
{ACAD_REACTORS
330
B78
102
}
330
B78
100
AcDbXrecord
340
E
  0
XRECORD
  5
B85
102
{ACAD_REACTORS
330
B78
102
}
330
B78
100
AcDbXrecord
 40
0.0
  0
XRECORD
  5
B88
102
{ACAD_REACTORS
330
B78
102
}
330
B78
100
AcDbXrecord
340
0
  0
XRECORD
  5
B8E
102
{ACAD_REACTORS
330
B78
102
}
330
B78
100
AcDbXrecord
 10
0.0
 20
0.0
 30
0.0
  0
XRECORD
  5
B8A
102
{ACAD_REACTORS
330
B78
102
}
330
B78
100
AcDbXrecord
 10
0.0
 20
0.0
 30
0.0
  0
XRECORD
  5
B8D
102
{ACAD_REACTORS
330
B78
102
}
330
B78
100
AcDbXrecord
 10
0.0
 20
0.0
 30
0.0
  0
XRECORD
  5
B8B
102
{ACAD_REACTORS
330
B78
102
}
330
B78
100
AcDbXrecord
 10
0.0
 20
0.0
 30
0.0
  0
XRECORD
  5
B8C
102
{ACAD_REACTORS
330
B78
102
}
330
B78
100
AcDbXrecord
 10
0.0
 20
0.0
 30
0.0
  0
XRECORD
  5
B89
102
{ACAD_REACTORS
330
B78
102
}
330
B78
100
AcDbXrecord
 10
0.0
 20
0.0
 30
0.0
  0
XRECORD
  5
B86
102
{ACAD_REACTORS
330
B78
102
}
330
B78
100
AcDbXrecord
340
0
  0
XRECORD
  5
B87
102
{ACAD_REACTORS
330
B78
102
}
330
B78
100
AcDbXrecord
 70
     0
  0
XRECORD
  5
B7C
102
{ACAD_REACTORS
330
B78
102
}
330
B78
100
AcDbXrecord
  1

  0
XRECORD
  5
B79
102
{ACAD_REACTORS
330
B78
102
}
330
B78
100
AcDbXrecord
 90
        1
  0
XRECORD
  5
B7A
102
{ACAD_REACTORS
330
B78
102
}
330
B78
100
AcDbXrecord
 90
       70
  0
XRECORD
  5
B91
102
{ACAD_REACTORS
330
B78
102
}
330
B78
100
AcDbXrecord
340
0
  0
XRECORD
  5
B97
102
{ACAD_REACTORS
330
B78
102
}
330
B78
100
AcDbXrecord
 10
0.0
 20
0.0
 30
0.0
  0
XRECORD
  5
B93
102
{ACAD_REACTORS
330
B78
102
}
330
B78
100
AcDbXrecord
 10
0.0
 20
0.0
 30
0.0
  0
XRECORD
  5
B96
102
{ACAD_REACTORS
330
B78
102
}
330
B78
100
AcDbXrecord
 10
0.0
 20
0.0
 30
0.0
  0
XRECORD
  5
B94
102
{ACAD_REACTORS
330
B78
102
}
330
B78
100
AcDbXrecord
 10
0.0
 20
0.0
 30
0.0
  0
XRECORD
  5
B95
102
{ACAD_REACTORS
330
B78
102
}
330
B78
100
AcDbXrecord
 10
0.0
 20
0.0
 30
0.0
  0
XRECORD
  5
B92
102
{ACAD_REACTORS
330
B78
102
}
330
B78
100
AcDbXrecord
 10
0.0
 20
0.0
 30
0.0
  0
XRECORD
  5
B8F
102
{ACAD_REACTORS
330
B78
102
}
330
B78
100
AcDbXrecord
340
0
  0
XRECORD
  5
B90
102
{ACAD_REACTORS
330
B78
102
}
330
B78
100
AcDbXrecord
 70
     0
  0
XRECORD
  5
B84
102
{ACAD_REACTORS
330
B78
102
}
330
B78
100
AcDbXrecord
  1
{8DA1790B-AB48-45DD-8DDA-327907BCBC75}
  0
DICTIONARYVAR
  5
7CE
102
{ACAD_REACTORS
330
7CC
102
}
330
7CC
100
DictionaryVariables
280
     0
  1
2
  0
DICTIONARYVAR
  5
7CD
102
{ACAD_REACTORS
330
7CC
102
}
330
7CC
100
DictionaryVariables
280
     0
  1
1
  0
ENDSEC
  0
EOF
