  0
SECTION
  2
HEADER
  9
$ACADVER
  1
AC1014
  9
$ACADMAINTVER
 70
     9
  9
$DWGCODEPAGE
  3
ANSI_932
  9
$INSBASE
 10
0.0
 20
0.0
 30
0.0
  9
$EXTMIN
 10
36.98133615374445
 20
-0.0000003347045095
 30
0.0
  9
$EXTMAX
 10
330.1845496230138
 20
403.6044813401938
 30
0.0
  9
$LIMMIN
 10
0.0
 20
0.0
  9
$LIMMAX
 10
420.0
 20
297.0
  9
$ORTHOMODE
 70
     0
  9
$REGENMODE
 70
     1
  9
$FILLMODE
 70
     1
  9
$QTEXTMODE
 70
     0
  9
$MIRRTEXT
 70
     1
  9
$DRAGMODE
 70
     2
  9
$LTSCALE
 40
1.0
  9
$OSMODE
 70
    55
  9
$ATTMODE
 70
     1
  9
$TEXTSIZE
 40
2.5
  9
$TRACEWID
 40
1.0
  9
$TEXTSTYLE
  7
STANDARD
  9
$CLAYER
  8
0
  9
$CELTYPE
  6
BYLAYER
  9
$CECOLOR
 62
   256
  9
$CELTSCALE
 40
1.0
  9
$DELOBJ
 70
     1
  9
$DISPSILH
 70
     0
  9
$DIMSCALE
 40
1.0
  9
$DIMASZ
 40
2.5
  9
$DIMEXO
 40
0.625
  9
$DIMDLI
 40
3.75
  9
$DIMRND
 40
0.0
  9
$DIMDLE
 40
0.0
  9
$DIMEXE
 40
1.25
  9
$DIMTP
 40
0.0
  9
$DIMTM
 40
0.0
  9
$DIMTXT
 40
2.5
  9
$DIMCEN
 40
2.5
  9
$DIMTSZ
 40
0.0
  9
$DIMTOL
 70
     0
  9
$DIMLIM
 70
     0
  9
$DIMTIH
 70
     0
  9
$DIMTOH
 70
     0
  9
$DIMSE1
 70
     0
  9
$DIMSE2
 70
     0
  9
$DIMTAD
 70
     1
  9
$DIMZIN
 70
     8
  9
$DIMBLK
  1

  9
$DIMASO
 70
     1
  9
$DIMSHO
 70
     1
  9
$DIMPOST
  1

  9
$DIMAPOST
  1

  9
$DIMALT
 70
     0
  9
$DIMALTD
 70
     3
  9
$DIMALTF
 40
0.03937007874016
  9
$DIMLFAC
 40
1.0
  9
$DIMTOFL
 70
     1
  9
$DIMTVP
 40
0.0
  9
$DIMTIX
 70
     0
  9
$DIMSOXD
 70
     0
  9
$DIMSAH
 70
     0
  9
$DIMBLK1
  1

  9
$DIMBLK2
  1

  9
$DIMSTYLE
  2
ISO-25
  9
$DIMCLRD
 70
     0
  9
$DIMCLRE
 70
     0
  9
$DIMCLRT
 70
     0
  9
$DIMTFAC
 40
1.0
  9
$DIMGAP
 40
0.625
  9
$DIMJUST
 70
     0
  9
$DIMSD1
 70
     0
  9
$DIMSD2
 70
     0
  9
$DIMTOLJ
 70
     0
  9
$DIMTZIN
 70
     8
  9
$DIMALTZ
 70
     0
  9
$DIMALTTZ
 70
     0
  9
$DIMFIT
 70
     3
  9
$DIMUPT
 70
     0
  9
$DIMUNIT
 70
     2
  9
$DIMDEC
 70
     2
  9
$DIMTDEC
 70
     2
  9
$DIMALTU
 70
     2
  9
$DIMALTTD
 70
     3
  9
$DIMTXSTY
  7
STANDARD
  9
$DIMAUNIT
 70
     0
  9
$LUNITS
 70
     2
  9
$LUPREC
 70
     4
  9
$SKETCHINC
 40
1.0
  9
$FILLETRAD
 40
10.0
  9
$AUNITS
 70
     0
  9
$AUPREC
 70
     0
  9
$MENU
  1
.
  9
$ELEVATION
 40
0.0
  9
$PELEVATION
 40
0.0
  9
$THICKNESS
 40
0.0
  9
$LIMCHECK
 70
     0
  9
$BLIPMODE
 70
     0
  9
$CHAMFERA
 40
10.0
  9
$CHAMFERB
 40
10.0
  9
$CHAMFERC
 40
20.0
  9
$CHAMFERD
 40
0.0
  9
$SKPOLY
 70
     0
  9
$TDCREATE
 40
2455874.700371516
  9
$TDUPDATE
 40
2456013.789935405
  9
$TDINDWG
 40
0.0063552662
  9
$TDUSRTIMER
 40
0.0063545486
  9
$USRTIMER
 70
     1
  9
$ANGBASE
 50
0.0
  9
$ANGDIR
 70
     0
  9
$PDMODE
 70
     0
  9
$PDSIZE
 40
0.0
  9
$PLINEWID
 40
0.0
  9
$COORDS
 70
     1
  9
$SPLFRAME
 70
     0
  9
$SPLINETYPE
 70
     6
  9
$SPLINESEGS
 70
     8
  9
$ATTDIA
 70
     0
  9
$ATTREQ
 70
     1
  9
$HANDLING
 70
 22529
  9
$HANDSEED
  5
C8B
  9
$SURFTAB1
 70
     6
  9
$SURFTAB2
 70
     6
  9
$SURFTYPE
 70
     6
  9
$SURFU
 70
     6
  9
$SURFV
 70
     6
  9
$UCSNAME
  2

  9
$UCSORG
 10
0.0
 20
0.0
 30
0.0
  9
$UCSXDIR
 10
1.0
 20
0.0
 30
0.0
  9
$UCSYDIR
 10
0.0
 20
1.0
 30
0.0
  9
$PUCSNAME
  2

  9
$PUCSORG
 10
0.0
 20
0.0
 30
0.0
  9
$PUCSXDIR
 10
1.0
 20
0.0
 30
0.0
  9
$PUCSYDIR
 10
0.0
 20
1.0
 30
0.0
  9
$USERI1
 70
     0
  9
$USERI2
 70
     0
  9
$USERI3
 70
     0
  9
$USERI4
 70
     0
  9
$USERI5
 70
     0
  9
$USERR1
 40
0.0
  9
$USERR2
 40
0.0
  9
$USERR3
 40
0.0
  9
$USERR4
 40
0.0
  9
$USERR5
 40
0.0
  9
$WORLDVIEW
 70
     1
  9
$SHADEDGE
 70
     3
  9
$SHADEDIF
 70
    70
  9
$TILEMODE
 70
     1
  9
$MAXACTVP
 70
    64
  9
$PINSBASE
 10
0.0
 20
0.0
 30
0.0
  9
$PLIMCHECK
 70
     0
  9
$PEXTMIN
 10
1.000000000000000E+20
 20
1.000000000000000E+20
 30
1.000000000000000E+20
  9
$PEXTMAX
 10
-1.000000000000000E+20
 20
-1.000000000000000E+20
 30
-1.000000000000000E+20
  9
$PLIMMIN
 10
0.0
 20
0.0
  9
$PLIMMAX
 10
420.0
 20
297.0
  9
$UNITMODE
 70
     0
  9
$VISRETAIN
 70
     1
  9
$PLINEGEN
 70
     0
  9
$PSLTSCALE
 70
     1
  9
$TREEDEPTH
 70
  3020
  9
$PICKSTYLE
 70
     1
  9
$CMLSTYLE
  2
STANDARD
  9
$CMLJUST
 70
     0
  9
$CMLSCALE
 40
20.0
  9
$PROXYGRAPHICS
 70
     1
  9
$MEASUREMENT
 70
     1
  0
ENDSEC
  0
SECTION
  2
CLASSES
  0
CLASS
  1
ACDBDICTIONARYWDFLT
  2
AcDbDictionaryWithDefault
  3
AutoCAD 2000
 90
        0
280
     0
281
     0
  0
CLASS
  1
ACDBPLACEHOLDER
  2
AcDbPlaceHolder
  3
AutoCAD 2000
 90
        0
280
     0
281
     0
  0
CLASS
  1
LAYOUT
  2
AcDbLayout
  3
AutoCAD 2000
 90
        0
280
     0
281
     0
  0
CLASS
  1
DICTIONARYVAR
  2
AcDbDictionaryVar
  3
AutoCAD 2000
 90
        0
280
     0
281
     0
  0
CLASS
  1
LONG_TRANSACTION
  2
AcDbLongTransaction
  3
AutoCAD 2000
 90
        0
280
     0
281
     0
  0
CLASS
  1
LWPOLYLINE
  2
AcDbPolyline
  3
AutoCAD 2000
 90
        0
280
     0
281
     1
  0
CLASS
  1
HATCH
  2
AcDbHatch
  3
AutoCAD 2000
 90
        0
280
     0
281
     1
  0
CLASS
  1
XRECORD
  2
AcDbXrecord
  3
AutoCAD 2000
 90
        0
280
     0
281
     0
  0
CLASS
  1
LONG_TRANSACTION
  2
AcDbLongTransaction
  3
AutoCAD 2000
 90
        0
280
     0
281
     0
  0
CLASS
  1
LWPOLYLINE
  2
AcDbPolyline
  3
AutoCAD 2000
 90
        0
280
     0
281
     1
  0
CLASS
  1
HATCH
  2
AcDbHatch
  3
AutoCAD 2000
 90
        0
280
     0
281
     1
  0
CLASS
  1
XRECORD
  2
AcDbXrecord
  3
AutoCAD 2000
 90
        0
280
     0
281
     0
  0
CLASS
  1
LONG_TRANSACTION
  2
AcDbLongTransaction
  3
AutoCAD 2000
 90
        0
280
     0
281
     0
  0
CLASS
  1
LWPOLYLINE
  2
AcDbPolyline
  3
AutoCAD 2000
 90
        0
280
     0
281
     1
  0
CLASS
  1
HATCH
  2
AcDbHatch
  3
AutoCAD 2000
 90
        0
280
     0
281
     1
  0
CLASS
  1
XRECORD
  2
AcDbXrecord
  3
AutoCAD 2000
 90
        0
280
     0
281
     0
  0
CLASS
  1
LONG_TRANSACTION
  2
AcDbLongTransaction
  3
AutoCAD 2000
 90
        0
280
     0
281
     0
  0
CLASS
  1
LWPOLYLINE
  2
AcDbPolyline
  3
AutoCAD 2000
 90
        0
280
     0
281
     1
  0
CLASS
  1
HATCH
  2
AcDbHatch
  3
AutoCAD 2000
 90
        0
280
     0
281
     1
  0
CLASS
  1
XRECORD
  2
AcDbXrecord
  3
AutoCAD 2000
 90
        0
280
     0
281
     0
  0
CLASS
  1
LONG_TRANSACTION
  2
AcDbLongTransaction
  3
AutoCAD 2000
 90
        0
280
     0
281
     0
  0
CLASS
  1
LWPOLYLINE
  2
AcDbPolyline
  3
AutoCAD 2000
 90
        0
280
     0
281
     1
  0
CLASS
  1
HATCH
  2
AcDbHatch
  3
AutoCAD 2000
 90
        0
280
     0
281
     1
  0
CLASS
  1
XRECORD
  2
AcDbXrecord
  3
AutoCAD 2000
 90
        0
280
     0
281
     0
  0
CLASS
  1
LONG_TRANSACTION
  2
AcDbLongTransaction
  3
AutoCAD 2000
 90
        0
280
     0
281
     0
  0
CLASS
  1
LWPOLYLINE
  2
AcDbPolyline
  3
AutoCAD 2000
 90
        0
280
     0
281
     1
  0
CLASS
  1
HATCH
  2
AcDbHatch
  3
AutoCAD 2000
 90
        0
280
     0
281
     1
  0
CLASS
  1
XRECORD
  2
AcDbXrecord
  3
AutoCAD 2000
 90
        0
280
     0
281
     0
  0
CLASS
  1
LONG_TRANSACTION
  2
AcDbLongTransaction
  3
AutoCAD 2000
 90
        0
280
     0
281
     0
  0
CLASS
  1
LWPOLYLINE
  2
AcDbPolyline
  3
AutoCAD 2000
 90
        0
280
     0
281
     1
  0
CLASS
  1
HATCH
  2
AcDbHatch
  3
AutoCAD 2000
 90
        0
280
     0
281
     1
  0
CLASS
  1
XRECORD
  2
AcDbXrecord
  3
AutoCAD 2000
 90
        0
280
     0
281
     0
  0
CLASS
  1
LONG_TRANSACTION
  2
AcDbLongTransaction
  3
AutoCAD 2000
 90
        0
280
     0
281
     0
  0
CLASS
  1
LWPOLYLINE
  2
AcDbPolyline
  3
AutoCAD 2000
 90
        0
280
     0
281
     1
  0
CLASS
  1
HATCH
  2
AcDbHatch
  3
AutoCAD 2000
 90
        0
280
     0
281
     1
  0
CLASS
  1
XRECORD
  2
AcDbXrecord
  3
AutoCAD 2000
 90
        0
280
     0
281
     0
  0
ENDSEC
  0
SECTION
  2
TABLES
  0
TABLE
  2
VPORT
  5
8
330
0
100
AcDbSymbolTable
 70
     2
  0
VPORT
  5
C68
330
8
100
AcDbSymbolTableRecord
100
AcDbViewportTableRecord
  2
*ACTIVE
 70
     0
 10
0.0
 20
0.0
 11
1.0
 21
1.0
 12
181.769715300493
 22
207.3575390072548
 13
0.0
 23
0.0
 14
10.0
 24
10.0
 15
10.0
 25
10.0
 16
0.0
 26
0.0
 36
1.0
 17
0.0
 27
0.0
 37
0.0
 40
417.7403510062563
 41
1.46415552855407
 42
50.0
 43
0.0
 44
0.0
 50
0.0
 51
0.0
 71
     0
 72
   100
 73
     1
 74
     3
 75
     0
 76
     0
 77
     0
 78
     0
  0
ENDTAB
  0
TABLE
  2
LTYPE
  5
5
330
0
100
AcDbSymbolTable
 70
     2
  0
LTYPE
  5
14
330
5
100
AcDbSymbolTableRecord
100
AcDbLinetypeTableRecord
  2
BYBLOCK
 70
     0
  3

 72
    65
 73
     0
 40
0.0
  0
LTYPE
  5
15
330
5
100
AcDbSymbolTableRecord
100
AcDbLinetypeTableRecord
  2
BYLAYER
 70
     0
  3

 72
    65
 73
     0
 40
0.0
  0
LTYPE
  5
16
330
5
100
AcDbSymbolTableRecord
100
AcDbLinetypeTableRecord
  2
CONTINUOUS
 70
     0
  3
Solid line
 72
    65
 73
     0
 40
0.0
  0
LTYPE
  5
7B7
330
5
100
AcDbSymbolTableRecord
100
AcDbLinetypeTableRecord
  2
DASHDOT
 70
     0
  3
__ . __ . __ . __ . __ . __ . __ . __ . __ . __
 72
    65
 73
     4
 40
7.5
 49
6.0
 74
     0
 49
-0.5
 74
     0
 49
0.5
 74
     0
 49
-0.5
 74
     0
  0
ENDTAB
  0
TABLE
  2
LAYER
  5
2
102
{ACAD_XDICTIONARY
360
527
102
}
330
0
100
AcDbSymbolTable
 70
     4
  0
LAYER
  5
10
330
2
100
AcDbSymbolTableRecord
100
AcDbLayerTableRecord
  2
0
 70
     0
 62
     7
  6
CONTINUOUS
  0
LAYER
  5
523
330
2
100
AcDbSymbolTableRecord
100
AcDbLayerTableRecord
  2
DEFPOINTS
 70
     0
 62
    -7
  6
CONTINUOUS
  0
LAYER
  5
524
330
2
100
AcDbSymbolTableRecord
100
AcDbLayerTableRecord
  2
1
 70
     0
 62
     3
  6
CONTINUOUS
  0
LAYER
  5
7B8
330
2
100
AcDbSymbolTableRecord
100
AcDbLayerTableRecord
  2
2_カバ_
 70
     0
 62
     7
  6
CONTINUOUS
  0
ENDTAB
  0
TABLE
  2
STYLE
  5
3
330
0
100
AcDbSymbolTable
 70
     1
  0
STYLE
  5
11
330
3
100
AcDbSymbolTableRecord
100
AcDbTextStyleTableRecord
  2
STANDARD
 70
     0
 40
0.0
 41
1.0
 50
0.0
 71
     0
 42
2.5
  3
txt
  4

  0
ENDTAB
  0
TABLE
  2
VIEW
  5
6
330
0
100
AcDbSymbolTable
 70
     0
  0
ENDTAB
  0
TABLE
  2
UCS
  5
7
330
0
100
AcDbSymbolTable
 70
     0
  0
ENDTAB
  0
TABLE
  2
APPID
  5
9
330
0
100
AcDbSymbolTable
 70
     1
  0
APPID
  5
12
330
9
100
AcDbSymbolTableRecord
100
AcDbRegAppTableRecord
  2
ACAD
 70
     0
  0
ENDTAB
  0
TABLE
  2
DIMSTYLE
  5
A
330
0
100
AcDbSymbolTable
 70
     2
  0
DIMSTYLE
105
27
330
A
100
AcDbSymbolTableRecord
100
AcDbDimStyleTableRecord
  2
ISO-25
 70
     0
  3

  4

  5

  6

  7

 40
1.0
 41
2.5
 42
0.625
 43
3.75
 44
1.25
 45
0.0
 46
0.0
 47
0.0
 48
0.0
140
2.5
141
2.5
142
0.0
143
0.03937007874016
144
1.0
145
0.0
146
1.0
147
0.625
 71
     0
 72
     0
 73
     0
 74
     0
 75
     0
 76
     0
 77
     1
 78
     8
170
     0
171
     3
172
     1
173
     0
174
     0
175
     0
176
     0
177
     0
178
     0
270
     2
271
     2
272
     2
273
     2
274
     3
340
11
275
     0
280
     0
281
     0
282
     0
283
     0
284
     8
285
     0
286
     0
287
     3
288
     0
  0
DIMSTYLE
105
526
330
A
100
AcDbSymbolTableRecord
100
AcDbDimStyleTableRecord
  2
STANDARD
 70
     0
  3

  4

  5

  6

  7

 40
1.0
 41
2.5
 42
0.625
 43
3.75
 44
1.25
 45
0.0
 46
0.0
 47
0.0
 48
0.0
140
2.5
141
2.5
142
0.0
143
0.0394
144
1.0
145
0.0
146
1.0
147
0.625
 71
     0
 72
     0
 73
     0
 74
     0
 75
     0
 76
     0
 77
     1
 78
     8
170
     0
171
     4
172
     1
173
     0
174
     0
175
     0
176
     0
177
     0
178
     0
270
     2
271
     4
272
     4
273
     8
274
     4
340
11
275
     0
280
     0
281
     0
282
     0
283
     1
284
     0
285
     0
286
     0
287
     3
288
     0
  0
ENDTAB
  0
TABLE
  2
BLOCK_RECORD
  5
1
330
0
100
AcDbSymbolTable
 70
     0
  0
BLOCK_RECORD
  5
1F
102
{ACAD_XDICTIONARY
360
645
102
}
330
1
100
AcDbSymbolTableRecord
100
AcDbBlockTableRecord
  2
*MODEL_SPACE
  0
BLOCK_RECORD
  5
1B
102
{ACAD_XDICTIONARY
360
643
102
}
330
1
100
AcDbSymbolTableRecord
100
AcDbBlockTableRecord
  2
*PAPER_SPACE
  0
ENDTAB
  0
ENDSEC
  0
SECTION
  2
BLOCKS
  0
BLOCK
  5
20
330
1F
100
AcDbEntity
  8
0
100
AcDbBlockBegin
  2
*MODEL_SPACE
 70
     0
 10
0.0
 20
0.0
 30
0.0
  3
*MODEL_SPACE
  1

  0
ENDBLK
  5
21
330
1F
100
AcDbEntity
  8
0
100
AcDbBlockEnd
  0
BLOCK
  5
1C
330
1B
100
AcDbEntity
 67
     1
  8
0
100
AcDbBlockBegin
  2
*PAPER_SPACE
 70
     0
 10
0.0
 20
0.0
 30
0.0
  3
*PAPER_SPACE
  1

  0
ENDBLK
  5
1D
330
1B
100
AcDbEntity
 67
     1
  8
0
100
AcDbBlockEnd
  0
ENDSEC
  0
SECTION
  2
ENTITIES
  0
LINE
  5
544
330
1F
100
AcDbEntity
  8
1
100
AcDbLine
 10
72.68454962301518
 20
175.9738137437265
 30
0.0
 11
87.6845496230152
 21
175.9738137437265
 31
0.0
  0
LINE
  5
545
330
1F
100
AcDbEntity
  8
1
100
AcDbLine
 10
80.18454962301518
 20
168.4738137437266
 30
0.0
 11
80.18454962301518
 21
183.4738137437265
 31
0.0
  0
LINE
  5
546
330
1F
100
AcDbEntity
  8
1
100
AcDbLine
 10
80.18454962301508
 20
352.4738137437267
 30
0.0
 11
80.18454962301508
 21
367.4738137437266
 31
0.0
  0
LINE
  5
547
330
1F
100
AcDbEntity
  8
1
100
AcDbLine
 10
72.68454962301518
 20
359.9738137437261
 30
0.0
 11
87.6845496230152
 21
359.9738137437261
 31
0.0
  0
LINE
  5
64F
330
1F
100
AcDbEntity
  8
0
100
AcDbLine
 10
93.78454962301436
 20
135.6738137437264
 30
0.0
 11
93.78454962301436
 21
124.3738137437262
 31
0.0
  0
LINE
  5
650
330
1F
100
AcDbEntity
  8
0
100
AcDbLine
 10
97.78454962301436
 20
124.3738137437262
 30
0.0
 11
97.78454962301436
 21
135.6738137437264
 31
0.0
  0
LINE
  5
656
330
1F
100
AcDbEntity
  8
0
100
AcDbLine
 10
55.1845496230153
 20
4.999999665295487
 30
0.0
 11
109.1845496230152
 21
3.585959900558461
 31
0.0
  0
LINE
  5
657
330
1F
100
AcDbEntity
  8
0
100
AcDbLine
 10
109.1845496230152
 20
3.585959900558461
 30
0.0
 11
56.18454962301528
 21
4.973813743726505
 31
0.0
  0
LINE
  5
659
330
1F
100
AcDbEntity
  8
0
100
AcDbLine
 10
67.1845496230153
 20
21.9738137437265
 30
0.0
 11
109.1845496230152
 21
21.9738137437265
 31
0.0
  0
LINE
  5
65A
330
1F
100
AcDbEntity
  8
0
100
AcDbLine
 10
108.1845496230152
 20
42.9738137437265
 30
0.0
 11
67.1845496230153
 21
42.9738137437265
 31
0.0
  0
LINE
  5
65B
330
1F
100
AcDbEntity
  8
0
100
AcDbLine
 10
108.1845496230152
 20
40.9738137437265
 30
0.0
 11
67.1845496230153
 21
40.9738137437265
 31
0.0
  0
LINE
  5
65C
330
1F
100
AcDbEntity
  8
0
100
AcDbLine
 10
108.1845496230152
 20
35.9738137437265
 30
0.0
 11
67.1845496230153
 21
35.9738137437265
 31
0.0
  0
LINE
  5
65D
330
1F
100
AcDbEntity
  8
0
100
AcDbLine
 10
108.1845496230152
 20
33.97381374372651
 30
0.0
 11
67.1845496230153
 21
33.97381374372651
 31
0.0
  0
LINE
  5
65E
330
1F
100
AcDbEntity
  8
0
100
AcDbLine
 10
108.1845496230152
 20
28.9738137437265
 30
0.0
 11
67.1845496230153
 21
28.9738137437265
 31
0.0
  0
LINE
  5
65F
330
1F
100
AcDbEntity
  8
0
100
AcDbLine
 10
108.1845496230152
 20
26.9738137437265
 30
0.0
 11
67.1845496230153
 21
26.9738137437265
 31
0.0
  0
LINE
  5
660
330
1F
100
AcDbEntity
  8
0
100
AcDbLine
 10
57.1845496230153
 20
120.9738137437261
 30
0.0
 11
109.1845496230152
 21
120.9738137437261
 31
0.0
  0
LINE
  5
662
330
1F
100
AcDbEntity
  8
0
100
AcDbLine
 10
37.1845496230153
 20
-0.0000003347044953
 30
0.0
 11
109.1845496230152
 21
-0.0000003347045095
 31
0.0
  0
LINE
  5
663
330
1F
100
AcDbEntity
  8
0
100
AcDbLine
 10
37.18454962301524
 20
78.99999966529549
 30
0.0
 11
37.18454962301524
 21
53.99999966529549
 31
0.0
  0
LINE
  5
665
330
1F
100
AcDbEntity
  8
0
100
AcDbLine
 10
56.18454962301528
 20
70.99999966529549
 30
0.0
 11
56.18454962301528
 21
32.99999966529548
 31
0.0
  0
LINE
  5
666
330
1F
100
AcDbEntity
  8
0
100
AcDbLine
 10
57.1845496230153
 20
32.97381374372747
 30
0.0
 11
57.1845496230153
 21
70.97381374372651
 31
0.0
  0
LINE
  5
667
330
1F
100
AcDbEntity
  8
0
100
AcDbLine
 10
67.1845496230153
 20
103.9738137437262
 30
0.0
 11
67.1845496230153
 21
21.9738137437265
 31
0.0
  0
ARC
  5
668
330
1F
100
AcDbEntity
  8
0
100
AcDbCircle
 10
38.1845496230153
 20
56.05154043824747
 30
0.0
 40
1.0
100
AcDbArc
 50
93.03047684586102
 51
180.0
  0
LINE
  5
669
330
1F
100
AcDbEntity
  8
0
100
AcDbLine
 10
55.1845496230153
 20
4.999999665295487
 30
0.0
 11
37.1845496230153
 21
4.528653077049525
 31
0.0
  0
LINE
  5
66A
330
1F
100
AcDbEntity
  8
0
100
AcDbLine
 10
37.1845496230153
 20
21.17551738193753
 30
0.0
 11
37.1845496230153
 21
-0.0000003347044953
 31
0.0
  0
LINE
  5
66B
330
1F
100
AcDbEntity
  8
0
100
AcDbLine
 10
37.33099623242191
 20
53.64644627470221
 30
0.0
 11
41.18454962301524
 21
51.99999966529549
 31
0.0
  0
LINE
  5
66C
330
1F
100
AcDbEntity
  8
0
100
AcDbLine
 10
37.65838164489429
 20
21.67483214931551
 30
0.0
 11
48.76305355738029
 21
22.2568033439155
 31
0.0
  0
LINE
  5
66D
330
1F
100
AcDbEntity
  8
0
100
AcDbLine
 10
38.13168248187531
 20
29.05014199311654
 30
0.0
 11
48.76385033472632
 21
29.61302146767945
 31
0.0
  0
LINE
  5
66E
330
1F
100
AcDbEntity
  8
0
100
AcDbLine
 10
38.13168248187531
 20
26.94985733747353
 30
0.0
 11
48.76385033472632
 21
26.38697786291049
 31
0.0
  0
LINE
  5
66F
330
1F
100
AcDbEntity
  8
0
100
AcDbLine
 10
38.13168248187531
 20
54.94985733747352
 30
0.0
 11
48.76385033472632
 21
54.38697786291051
 31
0.0
  0
LINE
  5
670
330
1F
100
AcDbEntity
  8
0
100
AcDbLine
 10
38.13168248187531
 20
50.05014199311655
 30
0.0
 11
48.76385033472632
 21
50.61302146767946
 31
0.0
  0
LINE
  5
671
330
1F
100
AcDbEntity
  8
0
100
AcDbLine
 10
38.13168248187531
 20
47.94985733747352
 30
0.0
 11
48.76385033472632
 21
47.38697786291051
 31
0.0
  0
LINE
  5
672
330
1F
100
AcDbEntity
  8
0
100
AcDbLine
 10
38.13168248187531
 20
43.05014199311655
 30
0.0
 11
48.76385033472632
 21
43.61302146767946
 31
0.0
  0
LINE
  5
673
330
1F
100
AcDbEntity
  8
0
100
AcDbLine
 10
38.13168248187531
 20
40.94985733747352
 30
0.0
 11
48.76385033472632
 21
40.3869778629105
 31
0.0
  0
LINE
  5
674
330
1F
100
AcDbEntity
  8
0
100
AcDbLine
 10
38.13168248187531
 20
36.05014199311653
 30
0.0
 11
48.76385033472632
 21
36.61302146767945
 31
0.0
  0
LINE
  5
675
330
1F
100
AcDbEntity
  8
0
100
AcDbLine
 10
38.13168248187531
 20
33.94985733747354
 30
0.0
 11
48.76385033472632
 21
33.38697786291049
 31
0.0
  0
POINT
  5
676
330
1F
100
AcDbEntity
  8
0
100
AcDbPoint
 10
37.1845496230153
 20
21.64999966529546
 30
0.0
  0
ARC
  5
677
330
1F
100
AcDbEntity
  8
0
100
AcDbCircle
 10
37.6845496230153
 20
21.17551738193753
 30
0.0
 40
0.5
100
AcDbArc
 50
92.9999999999991
 51
180.0
  0
LINE
  5
678
330
1F
100
AcDbEntity
  8
0
100
AcDbLine
 10
37.1845496230153
 20
28.05154043824746
 30
0.0
 11
37.1845496230153
 21
27.94845889234251
 31
0.0
  0
ARC
  5
679
330
1F
100
AcDbEntity
  8
0
100
AcDbCircle
 10
38.1845496230153
 20
28.05154043824746
 30
0.0
 40
1.0
100
AcDbArc
 50
93.03047684586102
 51
180.0
  0
ARC
  5
67A
330
1F
100
AcDbEntity
  8
0
100
AcDbCircle
 10
38.1845496230153
 20
27.94845889234251
 30
0.0
 40
1.0
100
AcDbArc
 50
180.0
 51
266.9695231541389
  0
LINE
  5
67B
330
1F
100
AcDbEntity
  8
0
100
AcDbLine
 10
37.1845496230153
 20
35.05154043824745
 30
0.0
 11
37.1845496230153
 21
34.94845889234248
 31
0.0
  0
ARC
  5
67C
330
1F
100
AcDbEntity
  8
0
100
AcDbCircle
 10
38.1845496230153
 20
35.05154043824746
 30
0.0
 40
1.0
100
AcDbArc
 50
93.03047684586102
 51
180.0
  0
ARC
  5
67D
330
1F
100
AcDbEntity
  8
0
100
AcDbCircle
 10
38.1845496230153
 20
34.9484588923425
 30
0.0
 40
1.0
100
AcDbArc
 50
180.0
 51
266.9695231541389
  0
ARC
  5
67E
330
1F
100
AcDbEntity
  8
0
100
AcDbCircle
 10
37.68454962301524
 20
53.99999966529549
 30
0.0
 40
0.5
100
AcDbArc
 50
180.0
 51
224.9999999999908
  0
LINE
  5
67F
330
1F
100
AcDbEntity
  8
0
100
AcDbLine
 10
37.1845496230153
 20
42.05154043824746
 30
0.0
 11
37.1845496230153
 21
41.9484588923425
 31
0.0
  0
ARC
  5
680
330
1F
100
AcDbEntity
  8
0
100
AcDbCircle
 10
38.1845496230153
 20
42.05154043824746
 30
0.0
 40
1.0
100
AcDbArc
 50
93.03047684586102
 51
180.0
  0
ARC
  5
681
330
1F
100
AcDbEntity
  8
0
100
AcDbCircle
 10
38.1845496230153
 20
41.9484588923425
 30
0.0
 40
1.0
100
AcDbArc
 50
180.0
 51
266.9695231541389
  0
LINE
  5
682
330
1F
100
AcDbEntity
  8
0
100
AcDbLine
 10
37.1845496230153
 20
56.05154043824747
 30
0.0
 11
37.1845496230153
 21
55.9484588923425
 31
0.0
  0
ARC
  5
683
330
1F
100
AcDbEntity
  8
0
100
AcDbCircle
 10
38.1845496230153
 20
55.9484588923425
 30
0.0
 40
1.0
100
AcDbArc
 50
180.0
 51
266.9695231541389
  0
LINE
  5
684
330
1F
100
AcDbEntity
  8
0
100
AcDbLine
 10
37.1845496230153
 20
49.05154043824746
 30
0.0
 11
37.1845496230153
 21
48.9484588923425
 31
0.0
  0
ARC
  5
685
330
1F
100
AcDbEntity
  8
0
100
AcDbCircle
 10
38.1845496230153
 20
49.05154043824746
 30
0.0
 40
1.0
100
AcDbArc
 50
93.03047684586102
 51
180.0
  0
ARC
  5
686
330
1F
100
AcDbEntity
  8
0
100
AcDbCircle
 10
38.1845496230153
 20
48.9484588923425
 30
0.0
 40
1.0
100
AcDbArc
 50
180.0
 51
266.9695231541389
  0
ARC
  5
687
330
1F
100
AcDbEntity
  8
0
100
AcDbCircle
 10
48.68454962301528
 20
38.11092379998354
 30
0.0
 40
1.5
100
AcDbArc
 50
273.030476845861
 51
0.0
  0
LINE
  5
688
330
1F
100
AcDbEntity
  8
0
100
AcDbLine
 10
50.1845496230153
 20
31.88907553060653
 30
0.0
 11
50.1845496230153
 21
31.11092379998353
 31
0.0
  0
ARC
  5
689
330
1F
100
AcDbEntity
  8
0
100
AcDbCircle
 10
48.68454962301528
 20
31.11092379998355
 30
0.0
 40
1.5
100
AcDbArc
 50
273.030476845861
 51
0.0
  0
LINE
  5
68A
330
1F
100
AcDbEntity
  8
0
100
AcDbLine
 10
50.1845496230153
 20
24.88907553060653
 30
0.0
 11
50.1845496230153
 21
23.75474764604744
 31
0.0
  0
ARC
  5
68B
330
1F
100
AcDbEntity
  8
0
100
AcDbCircle
 10
48.68454962301528
 20
24.88907553060653
 30
0.0
 40
1.5
100
AcDbArc
 50
0.0
 51
86.9695231541357
  0
ARC
  5
68C
330
1F
100
AcDbEntity
  8
0
100
AcDbCircle
 10
48.68454962301528
 20
23.75474764604747
 30
0.0
 40
1.5
100
AcDbArc
 50
273.0000000000023
 51
0.0
  0
ARC
  5
68D
330
1F
100
AcDbEntity
  8
0
100
AcDbCircle
 10
48.68454962301528
 20
31.88907553060653
 30
0.0
 40
1.5
100
AcDbArc
 50
0.0
 51
86.9695231541357
  0
LINE
  5
68E
330
1F
100
AcDbEntity
  8
0
  6
CONTINUOUS
100
AcDbLine
 10
43.1845496230153
 20
46.49999966529549
 30
0.0
 11
50.0545027980014
 21
46.49999966529549
 31
0.0
  0
LINE
  5
68F
330
1F
100
AcDbEntity
  8
0
  6
CONTINUOUS
100
AcDbLine
 10
41.18454962301519
 20
54.78823495941309
 30
0.0
 11
41.18454962301524
 21
53.99999966529549
 31
0.0
  0
LINE
  5
690
330
1F
100
AcDbEntity
  8
0
  6
CONTINUOUS
100
AcDbLine
 10
43.1845496230153
 20
54.68235260647186
 30
0.0
 11
43.1845496230153
 21
50.31764672411817
 31
0.0
  0
LINE
  5
691
330
1F
100
AcDbEntity
  8
0
100
AcDbLine
 10
39.18454962301524
 20
54.89411731235431
 30
0.0
 11
39.18454962301524
 21
54.85450792949963
 31
0.0
  0
LINE
  5
692
330
1F
100
AcDbEntity
  8
0
100
AcDbLine
 10
41.18454962301524
 20
47.78823495941309
 30
0.0
 11
41.18454962301524
 21
46.99999966529549
 31
0.0
  0
LINE
  5
693
330
1F
100
AcDbEntity
  8
0
100
AcDbLine
 10
43.18454962301536
 20
50.31764672411817
 30
0.0
 11
43.18454962301524
 21
53.99999966529549
 31
0.0
  0
LINE
  5
694
330
1F
100
AcDbEntity
  8
0
  6
CONTINUOUS
100
AcDbLine
 10
43.1845496230153
 20
47.68235260647185
 30
0.0
 11
43.1845496230153
 21
46.49999966529549
 31
0.0
  0
LINE
  5
695
330
1F
100
AcDbEntity
  8
0
100
AcDbLine
 10
39.18454962301524
 20
52.85450792949958
 30
0.0
 11
39.18454962301524
 21
51.99999966529549
 31
0.0
  0
LINE
  5
696
330
1F
100
AcDbEntity
  8
0
100
AcDbLine
 10
39.18454962301524
 20
54.85450792949963
 30
0.0
 11
41.18454962301524
 21
53.99999966529549
 31
0.0
  0
LINE
  5
697
330
1F
100
AcDbEntity
  8
0
100
AcDbLine
 10
39.18454962301524
 20
54.85450792949958
 30
0.0
 11
39.18454962301524
 21
54.89411731235431
 31
0.0
  0
ARC
  5
698
330
1F
100
AcDbEntity
  8
0
100
AcDbCircle
 10
39.68454962301524
 20
51.99999966529549
 30
0.0
 40
0.5
100
AcDbArc
 50
180.0
 51
270.0
  0
ARC
  5
699
330
1F
100
AcDbEntity
  8
0
100
AcDbCircle
 10
40.68454962301524
 20
51.99999966529549
 30
0.0
 40
0.5
100
AcDbArc
 50
270.0
 51
0.0
  0
LINE
  5
69A
330
1F
100
AcDbEntity
  8
0
100
AcDbLine
 10
39.68454962301524
 20
51.49999966529549
 30
0.0
 11
40.68454962301524
 21
51.49999966529549
 31
0.0
  0
ARC
  5
69B
330
1F
100
AcDbEntity
  8
0
100
AcDbCircle
 10
41.68454962301524
 20
46.99999966529549
 30
0.0
 40
0.5
100
AcDbArc
 50
180.0
 51
270.0
  0
ARC
  5
69C
330
1F
100
AcDbEntity
  8
0
100
AcDbCircle
 10
42.68454962301547
 20
46.99999966529549
 30
0.0
 40
0.5
100
AcDbArc
 50
270.0
 51
0.0
  0
ARC
  5
69D
330
1F
100
AcDbEntity
  8
0
100
AcDbCircle
 10
42.68454962301524
 20
53.99999966529549
 30
0.0
 40
0.5
100
AcDbArc
 50
0.0
 51
90.0
  0
ARC
  5
69E
330
1F
100
AcDbEntity
  8
0
100
AcDbCircle
 10
41.68454962301524
 20
53.99999966529549
 30
0.0
 40
0.5
100
AcDbArc
 50
90.0
 51
180.0
  0
LINE
  5
69F
330
1F
100
AcDbEntity
  8
0
100
AcDbLine
 10
41.18454962301524
 20
51.99999966529562
 30
0.0
 11
41.18454962301524
 21
50.21176437117695
 31
0.0
  0
LINE
  5
6A0
330
1F
100
AcDbEntity
  8
0
100
AcDbLine
 10
42.68454962301524
 20
54.49999966529549
 30
0.0
 11
41.68454962301524
 21
54.49999966529549
 31
0.0
  0
LINE
  5
6A1
330
1F
100
AcDbEntity
  8
0
100
AcDbLine
 10
43.18454962301546
 20
46.99999966529549
 30
0.0
 11
43.18454962301546
 21
47.68235260647182
 31
0.0
  0
LINE
  5
6A2
330
1F
100
AcDbEntity
  8
0
100
AcDbLine
 10
41.68454962301524
 20
46.49999966529549
 30
0.0
 11
42.68454962301547
 21
46.49999966529549
 31
0.0
  0
LINE
  5
6A3
330
1F
100
AcDbEntity
  8
0
100
AcDbLine
 10
50.1845496230153
 20
38.88907553060652
 30
0.0
 11
50.1845496230153
 21
38.11092379998354
 31
0.0
  0
LINE
  5
6A4
330
1F
100
AcDbEntity
  8
0
100
AcDbLine
 10
49.18454962301527
 20
43.69671023761055
 30
0.0
 11
49.18454962301527
 21
46.49999966529548
 31
0.0
  0
LINE
  5
6A5
330
1F
100
AcDbEntity
  8
0
100
AcDbLine
 10
50.1845496230153
 20
45.88907553060653
 30
0.0
 11
50.1845496230153
 21
45.11092379998355
 31
0.0
  0
ARC
  5
6A6
330
1F
100
AcDbEntity
  8
0
100
AcDbCircle
 10
48.68454962301528
 20
45.88907553060653
 30
0.0
 40
1.5
100
AcDbArc
 50
0.0
 51
86.9695231541357
  0
ARC
  5
6A7
330
1F
100
AcDbEntity
  8
0
100
AcDbCircle
 10
48.68454962301528
 20
45.11092379998355
 30
0.0
 40
1.5
100
AcDbArc
 50
273.030476845861
 51
0.0
  0
ARC
  5
6A8
330
1F
100
AcDbEntity
  8
0
100
AcDbCircle
 10
48.68454962301528
 20
38.88907553060653
 30
0.0
 40
1.5
100
AcDbArc
 50
0.0
 51
86.9695231541357
  0
LINE
  5
6A9
330
1F
100
AcDbEntity
  8
0
100
AcDbLine
 10
50.1845496230153
 20
52.88907553060653
 30
0.0
 11
50.1845496230153
 21
52.11092379998355
 31
0.0
  0
ARC
  5
6AA
330
1F
100
AcDbEntity
  8
0
100
AcDbCircle
 10
48.68454962301528
 20
52.88907553060653
 30
0.0
 40
1.5
100
AcDbArc
 50
0.0
 51
86.9695231541357
  0
ARC
  5
6AB
330
1F
100
AcDbEntity
  8
0
100
AcDbCircle
 10
48.68454962301528
 20
52.11092379998355
 30
0.0
 40
1.5
100
AcDbArc
 50
273.030476845861
 51
0.0
  0
LINE
  5
6AC
330
1F
100
AcDbEntity
  8
0
100
AcDbLine
 10
56.18454962301528
 20
20.99999966529547
 30
0.0
 11
56.18454962301528
 21
4.973813743725483
 31
0.0
  0
LINE
  5
6AD
330
1F
100
AcDbEntity
  8
0
100
AcDbLine
 10
57.1845496230153
 20
4.921441900588488
 30
0.0
 11
57.1845496230153
 21
20.9738137437265
 31
0.0
  0
LINE
  5
6AE
330
1F
100
AcDbEntity
  8
0
100
AcDbLine
 10
82.47583747049231
 20
4.259166220630501
 30
0.0
 11
82.47583747049231
 21
21.9738137437265
 31
0.0
  0
LINE
  5
6AF
330
1F
100
AcDbEntity
  8
0
100
AcDbLine
 10
77.89326177553727
 20
4.379165188363457
 30
0.0
 11
77.89326177553727
 21
21.97381374372752
 31
0.0
  0
LINE
  5
6B0
330
1F
100
AcDbEntity
  8
0
100
AcDbLine
 10
78.08454962301428
 20
3.799999665294477
 30
0.0
 11
78.08454962301428
 21
-0.0000003347045095
 31
0.0
  0
LINE
  5
6B1
330
1F
100
AcDbEntity
  8
0
100
AcDbLine
 10
82.28454962301524
 20
3.799999665294477
 30
0.0
 11
82.28454962301524
 21
-0.0000003347045095
 31
0.0
  0
LINE
  5
6B2
330
1F
100
AcDbEntity
  8
0
100
AcDbLine
 10
74.6845496230153
 20
3.799999665294477
 30
0.0
 11
85.6845496230153
 21
3.799999665294477
 31
0.0
  0
LINE
  5
6B3
330
1F
100
AcDbEntity
  8
0
100
AcDbLine
 10
74.6845496230153
 20
4.489374194695527
 30
0.0
 11
74.6845496230153
 21
3.799999665294477
 31
0.0
  0
LINE
  5
6B4
330
1F
100
AcDbEntity
  8
0
100
AcDbLine
 10
85.6845496230153
 20
4.201329057435486
 30
0.0
 11
85.6845496230153
 21
3.799999665294477
 31
0.0
  0
LINE
  5
6B8
330
1F
100
AcDbEntity
  8
0
100
AcDbLine
 10
60.6845496230153
 20
22.99999966529548
 30
0.0
 11
59.18454962301427
 21
22.99999966529548
 31
0.0
  0
LINE
  5
6B9
330
1F
100
AcDbEntity
  8
0
100
AcDbLine
 10
60.88454962301425
 20
22.47381374372648
 30
0.0
 11
59.18454962301427
 21
22.47381374372648
 31
0.0
  0
LINE
  5
6BA
330
1F
100
AcDbEntity
  8
0
100
AcDbLine
 10
56.18454962301528
 20
20.99999966529547
 30
0.0
 11
54.88454962301528
 21
20.99999966529547
 31
0.0
  0
LINE
  5
6BB
330
1F
100
AcDbEntity
  8
0
100
AcDbLine
 10
57.1845496230153
 20
20.9738137437265
 30
0.0
 11
56.18454962301528
 21
20.9738137437265
 31
0.0
  0
LINE
  5
6BC
330
1F
100
AcDbEntity
  8
0
100
AcDbLine
 10
60.6845496230153
 20
30.99999966529548
 30
0.0
 11
59.18454962301427
 21
30.99999966529548
 31
0.0
  0
LINE
  5
6BD
330
1F
100
AcDbEntity
  8
0
100
AcDbLine
 10
56.18454962301528
 20
32.99999966529548
 30
0.0
 11
54.88454962301528
 21
32.99999966529548
 31
0.0
  0
LINE
  5
6BE
330
1F
100
AcDbEntity
  8
0
100
AcDbLine
 10
60.88454962301425
 20
31.4738137437265
 30
0.0
 11
59.18454962301427
 21
31.4738137437265
 31
0.0
  0
LINE
  5
6BF
330
1F
100
AcDbEntity
  8
0
100
AcDbLine
 10
57.1845496230153
 20
32.97381374372747
 30
0.0
 11
56.18454962301528
 21
32.97381374372747
 31
0.0
  0
LINE
  5
6C0
330
1F
100
AcDbEntity
  8
0
100
AcDbLine
 10
59.28454962301525
 20
30.99999966529548
 30
0.0
 11
59.28454962301525
 21
22.99999966529548
 31
0.0
  0
LINE
  5
6C1
330
1F
100
AcDbEntity
  8
0
100
AcDbLine
 10
59.88454962301528
 20
30.99999966529548
 30
0.0
 11
59.88454962301528
 21
22.99999966529548
 31
0.0
  0
LINE
  5
6C2
330
1F
100
AcDbEntity
  8
0
100
AcDbLine
 10
60.6845496230153
 20
30.99999966529548
 30
0.0
 11
60.6845496230153
 21
22.99999966529548
 31
0.0
  0
LINE
  5
6C3
330
1F
100
AcDbEntity
  8
0
100
AcDbLine
 10
54.88454962301528
 20
32.99999966529548
 30
0.0
 11
54.88454962301528
 21
21.09999966529448
 31
0.0
  0
LINE
  5
6C4
330
1F
100
AcDbEntity
  8
0
100
AcDbLine
 10
55.6845496230153
 20
32.99999966529548
 30
0.0
 11
55.6845496230153
 21
20.99999966529547
 31
0.0
  0
LINE
  5
6C5
330
1F
100
AcDbEntity
  8
0
100
AcDbLine
 10
56.18454962301528
 20
32.99999966529548
 30
0.0
 11
56.18454962301528
 21
20.99999966529446
 31
0.0
  0
LINE
  5
6C6
330
1F
100
AcDbEntity
  8
0
100
AcDbLine
 10
59.18454962301427
 20
31.4738137437265
 30
0.0
 11
59.18454962301427
 21
22.47381374372648
 31
0.0
  0
LINE
  5
6C7
330
1F
100
AcDbEntity
  8
0
100
AcDbLine
 10
60.88454962301425
 20
31.4738137437265
 30
0.0
 11
60.88454962301425
 21
22.47381374372648
 31
0.0
  0
LINE
  5
6CA
330
1F
100
AcDbEntity
  8
0
100
AcDbLine
 10
37.1845496230153
 20
120.5286530770492
 30
0.0
 11
55.18454962301829
 21
120.9999996652942
 31
0.0
  0
LINE
  5
6CB
330
1F
100
AcDbEntity
  8
0
100
AcDbLine
 10
47.98454962301627
 20
96.42823495941252
 30
0.0
 11
47.98454962301627
 21
92.57176437117754
 31
0.0
  0
LINE
  5
6CC
330
1F
100
AcDbEntity
  8
0
100
AcDbLine
 10
50.1845496230153
 20
94.88907553060656
 30
0.0
 11
50.1845496230153
 21
94.11092379998356
 31
0.0
  0
LINE
  5
6CD
330
1F
100
AcDbEntity
  8
0
100
AcDbLine
 10
37.33099623242191
 20
79.35355305588877
 30
0.0
 11
41.18454962301524
 21
80.9999996652955
 31
0.0
  0
LINE
  5
6CE
330
1F
100
AcDbEntity
  8
0
100
AcDbLine
 10
38.13168248187531
 20
64.05014199311654
 30
0.0
 11
48.76385033472632
 21
64.61302146767946
 31
0.0
  0
LINE
  5
6CF
330
1F
100
AcDbEntity
  8
0
100
AcDbLine
 10
38.13168248187531
 20
61.94985733747352
 30
0.0
 11
48.76385033472632
 21
61.3869778629105
 31
0.0
  0
LINE
  5
6D0
330
1F
100
AcDbEntity
  8
0
100
AcDbLine
 10
38.13168248187531
 20
57.05014199311655
 30
0.0
 11
48.76385033472632
 21
57.61302146767945
 31
0.0
  0
LINE
  5
6D1
330
1F
100
AcDbEntity
  8
0
100
AcDbLine
 10
38.13168248187531
 20
92.05014199311651
 30
0.0
 11
48.76385033472632
 21
92.61302146767944
 31
0.0
  0
LINE
  5
6D2
330
1F
100
AcDbEntity
  8
0
100
AcDbLine
 10
38.13168248187531
 20
89.94985733747354
 30
0.0
 11
48.76385033472632
 21
89.38697786291049
 31
0.0
  0
LINE
  5
6D3
330
1F
100
AcDbEntity
  8
0
100
AcDbLine
 10
38.13168248187531
 20
85.05014199311656
 30
0.0
 11
48.76385033472632
 21
85.61302146767948
 31
0.0
  0
LINE
  5
6D4
330
1F
100
AcDbEntity
  8
0
100
AcDbLine
 10
38.13168248187531
 20
82.94985733747351
 30
0.0
 11
48.76385033472632
 21
82.3869778629105
 31
0.0
  0
LINE
  5
6D5
330
1F
100
AcDbEntity
  8
0
100
AcDbLine
 10
38.13168248187531
 20
78.05014199311655
 30
0.0
 11
48.76385033472632
 21
78.61302146767946
 31
0.0
  0
LINE
  5
6D6
330
1F
100
AcDbEntity
  8
0
100
AcDbLine
 10
38.13168248187531
 20
75.94985733747353
 30
0.0
 11
48.76385033472632
 21
75.3869778629105
 31
0.0
  0
LINE
  5
6D7
330
1F
100
AcDbEntity
  8
0
100
AcDbLine
 10
38.13168248187531
 20
71.05014199311655
 30
0.0
 11
48.76385033472632
 21
71.61302146767946
 31
0.0
  0
LINE
  5
6D8
330
1F
100
AcDbEntity
  8
0
100
AcDbLine
 10
38.13168248187531
 20
68.94985733747353
 30
0.0
 11
48.76385033472632
 21
68.38697786291048
 31
0.0
  0
LINE
  5
6D9
330
1F
100
AcDbEntity
  8
0
100
AcDbLine
 10
37.1845496230153
 20
63.05154043824746
 30
0.0
 11
37.1845496230153
 21
62.94845889234251
 31
0.0
  0
ARC
  5
6DA
330
1F
100
AcDbEntity
  8
0
100
AcDbCircle
 10
38.1845496230153
 20
63.05154043824746
 30
0.0
 40
1.0
100
AcDbArc
 50
93.03047684586102
 51
180.0
  0
ARC
  5
6DB
330
1F
100
AcDbEntity
  8
0
100
AcDbCircle
 10
38.1845496230153
 20
62.94845889234251
 30
0.0
 40
1.0
100
AcDbArc
 50
180.0
 51
266.9695231541389
  0
LINE
  5
6DC
330
1F
100
AcDbEntity
  8
0
100
AcDbLine
 10
37.1845496230153
 20
70.05154043824745
 30
0.0
 11
37.1845496230153
 21
69.9484588923425
 31
0.0
  0
ARC
  5
6DD
330
1F
100
AcDbEntity
  8
0
100
AcDbCircle
 10
38.1845496230153
 20
70.05154043824745
 30
0.0
 40
1.0
100
AcDbArc
 50
93.03047684586102
 51
180.0
  0
ARC
  5
6DE
330
1F
100
AcDbEntity
  8
0
100
AcDbCircle
 10
38.1845496230153
 20
69.9484588923425
 30
0.0
 40
1.0
100
AcDbArc
 50
180.0
 51
266.9695231541389
  0
ARC
  5
6DF
330
1F
100
AcDbEntity
  8
0
100
AcDbCircle
 10
37.68454962301524
 20
78.99999966529549
 30
0.0
 40
0.5
100
AcDbArc
 50
134.9999999999722
 51
180.0
  0
LINE
  5
6E0
330
1F
100
AcDbEntity
  8
0
100
AcDbLine
 10
37.1845496230153
 20
77.05154043824745
 30
0.0
 11
37.1845496230153
 21
76.9484588923425
 31
0.0
  0
ARC
  5
6E1
330
1F
100
AcDbEntity
  8
0
100
AcDbCircle
 10
38.1845496230153
 20
77.05154043824745
 30
0.0
 40
1.0
100
AcDbArc
 50
93.03047684586102
 51
180.0
  0
ARC
  5
6E2
330
1F
100
AcDbEntity
  8
0
100
AcDbCircle
 10
38.1845496230153
 20
76.9484588923425
 30
0.0
 40
1.0
100
AcDbArc
 50
180.0
 51
266.9695231541389
  0
LINE
  5
6E3
330
1F
100
AcDbEntity
  8
0
100
AcDbLine
 10
37.1845496230153
 20
84.05154043824746
 30
0.0
 11
37.1845496230153
 21
83.9484588923425
 31
0.0
  0
ARC
  5
6E4
330
1F
100
AcDbEntity
  8
0
100
AcDbCircle
 10
38.1845496230153
 20
84.05154043824746
 30
0.0
 40
1.0
100
AcDbArc
 50
93.03047684586102
 51
180.0
  0
ARC
  5
6E5
330
1F
100
AcDbEntity
  8
0
100
AcDbCircle
 10
38.1845496230153
 20
83.9484588923425
 30
0.0
 40
1.0
100
AcDbArc
 50
180.0
 51
266.9695231541389
  0
LINE
  5
6E6
330
1F
100
AcDbEntity
  8
0
100
AcDbLine
 10
37.1845496230153
 20
91.05154043824743
 30
0.0
 11
37.1845496230153
 21
90.94845889234248
 31
0.0
  0
ARC
  5
6E7
330
1F
100
AcDbEntity
  8
0
100
AcDbCircle
 10
38.1845496230153
 20
91.05154043824743
 30
0.0
 40
1.0
100
AcDbArc
 50
93.03047684586102
 51
180.0
  0
ARC
  5
6E8
330
1F
100
AcDbEntity
  8
0
100
AcDbCircle
 10
38.1845496230153
 20
90.94845889234248
 30
0.0
 40
1.0
100
AcDbArc
 50
180.0
 51
266.9695231541389
  0
LINE
  5
6E9
330
1F
100
AcDbEntity
  8
0
  6
CONTINUOUS
100
AcDbLine
 10
41.18454962301524
 20
75.78823495941306
 30
0.0
 11
41.18454962301524
 21
71.21176437117694
 31
0.0
  0
LINE
  5
6EA
330
1F
100
AcDbEntity
  8
0
  6
CONTINUOUS
100
AcDbLine
 10
43.1845496230153
 20
75.68235260647184
 30
0.0
 11
43.1845496230153
 21
71.31764672411816
 31
0.0
  0
LINE
  5
6EB
330
1F
100
AcDbEntity
  8
0
100
AcDbLine
 10
39.18454962301524
 20
71.10588201823573
 30
0.0
 11
39.18454962301524
 21
75.89411731235434
 31
0.0
  0
LINE
  5
6EC
330
1F
100
AcDbEntity
  8
0
100
AcDbLine
 10
39.18454962301564
 20
75.89411731235429
 30
0.0
 11
39.18454962301552
 21
71.10588201823578
 31
0.0
  0
ARC
  5
6ED
330
1F
100
AcDbEntity
  8
0
100
AcDbCircle
 10
48.68454962301528
 20
73.88907553060653
 30
0.0
 40
1.5
100
AcDbArc
 50
0.0
 51
86.9695231541357
  0
LINE
  5
6EE
330
1F
100
AcDbEntity
  8
0
  6
CONTINUOUS
100
AcDbLine
 10
41.18454962301524
 20
61.78823495941308
 30
0.0
 11
41.18454962301524
 21
57.21176437117694
 31
0.0
  0
LINE
  5
6EF
330
1F
100
AcDbEntity
  8
0
  6
CONTINUOUS
100
AcDbLine
 10
41.18454962301524
 20
68.7882349594131
 30
0.0
 11
41.18454962301524
 21
64.21176437117695
 31
0.0
  0
LINE
  5
6F0
330
1F
100
AcDbEntity
  8
0
  6
CONTINUOUS
100
AcDbLine
 10
43.1845496230153
 20
68.68235260647186
 30
0.0
 11
43.1845496230153
 21
64.31764672411818
 31
0.0
  0
LINE
  5
6F1
330
1F
100
AcDbEntity
  8
0
100
AcDbLine
 10
39.1845496230153
 20
61.89411731235435
 30
0.0
 11
39.18454962301524
 21
57.10588201823574
 31
0.0
  0
LINE
  5
6F2
330
1F
100
AcDbEntity
  8
0
100
AcDbLine
 10
39.18454962301524
 20
64.10588201823575
 30
0.0
 11
39.18454962301524
 21
68.89411731235433
 31
0.0
  0
LINE
  5
6F3
330
1F
100
AcDbEntity
  8
0
  6
CONTINUOUS
100
AcDbLine
 10
43.1845496230153
 20
61.68235260647186
 30
0.0
 11
43.1845496230153
 21
57.31764672411817
 31
0.0
  0
LINE
  5
6F4
330
1F
100
AcDbEntity
  8
0
100
AcDbLine
 10
39.18454962301524
 20
57.10588201823574
 30
0.0
 11
39.18454962301524
 21
61.89411731235431
 31
0.0
  0
LINE
  5
6F5
330
1F
100
AcDbEntity
  8
0
100
AcDbLine
 10
39.18454962301547
 20
68.89411731235433
 30
0.0
 11
39.18454962301535
 21
64.10588201823575
 31
0.0
  0
LINE
  5
6F6
330
1F
100
AcDbEntity
  8
0
100
AcDbLine
 10
50.1845496230153
 20
59.88907553060652
 30
0.0
 11
50.1845496230153
 21
59.11092379998354
 31
0.0
  0
ARC
  5
6F7
330
1F
100
AcDbEntity
  8
0
100
AcDbCircle
 10
48.68454962301528
 20
59.88907553060652
 30
0.0
 40
1.5
100
AcDbArc
 50
0.0
 51
86.9695231541357
  0
ARC
  5
6F8
330
1F
100
AcDbEntity
  8
0
100
AcDbCircle
 10
48.68454962301528
 20
59.11092379998354
 30
0.0
 40
1.5
100
AcDbArc
 50
273.030476845861
 51
0.0
  0
LINE
  5
6F9
330
1F
100
AcDbEntity
  8
0
100
AcDbLine
 10
50.1845496230153
 20
66.88907553060653
 30
0.0
 11
50.1845496230153
 21
66.11092379998352
 31
0.0
  0
ARC
  5
6FA
330
1F
100
AcDbEntity
  8
0
100
AcDbCircle
 10
48.68454962301528
 20
66.88907553060653
 30
0.0
 40
1.5
100
AcDbArc
 50
0.0
 51
86.9695231541357
  0
LINE
  5
6FB
330
1F
100
AcDbEntity
  8
0
100
AcDbLine
 10
50.1845496230153
 20
73.88907553060653
 30
0.0
 11
50.1845496230153
 21
73.11092379998355
 31
0.0
  0
ARC
  5
6FC
330
1F
100
AcDbEntity
  8
0
100
AcDbCircle
 10
48.68454962301528
 20
73.11092379998355
 30
0.0
 40
1.5
100
AcDbArc
 50
273.030476845861
 51
0.0
  0
ARC
  5
6FD
330
1F
100
AcDbEntity
  8
0
100
AcDbCircle
 10
48.68454962301528
 20
66.11092379998352
 30
0.0
 40
1.5
100
AcDbArc
 50
273.030476845861
 51
0.0
  0
LWPOLYLINE
  5
6FE
330
1F
100
AcDbEntity
  8
0
100
AcDbPolyline
 90
        3
 70
     0
 43
0.0
 10
50.05450279800185
 20
86.4999996652955
 10
43.1845496230153
 20
86.4999996652955
 10
43.1845496230153
 20
85.31764672411817
  0
LINE
  5
6FF
330
1F
100
AcDbEntity
  8
0
  6
CONTINUOUS
100
AcDbLine
 10
41.18454962301524
 20
78.99999966529549
 30
0.0
 11
41.18454962301524
 21
78.21176437117696
 31
0.0
  0
LINE
  5
700
330
1F
100
AcDbEntity
  8
0
  6
CONTINUOUS
100
AcDbLine
 10
43.1845496230153
 20
82.68235260647186
 30
0.0
 11
43.1845496230153
 21
78.31764672411816
 31
0.0
  0
LINE
  5
701
330
1F
100
AcDbEntity
  8
0
100
AcDbLine
 10
39.18454962301524
 20
78.10588201823573
 30
0.0
 11
39.18454962301524
 21
78.14549140109145
 31
0.0
  0
LINE
  5
702
330
1F
100
AcDbEntity
  8
0
100
AcDbLine
 10
41.18454962301524
 20
82.78823495941308
 30
0.0
 11
41.18454962301524
 21
80.9999996652955
 31
0.0
  0
LINE
  5
703
330
1F
100
AcDbEntity
  8
0
100
AcDbLine
 10
43.18454962301524
 20
85.31764672411815
 30
0.0
 11
43.18454962301524
 21
85.9999996652955
 31
0.0
  0
LINE
  5
704
330
1F
100
AcDbEntity
  8
0
100
AcDbLine
 10
39.1845496230157
 20
78.14549140109164
 30
0.0
 11
39.18454962301564
 21
78.10588201823577
 31
0.0
  0
LINE
  5
705
330
1F
100
AcDbEntity
  8
0
100
AcDbLine
 10
39.1845496230157
 20
78.14549140109164
 30
0.0
 11
41.18454962301524
 21
78.99999966529549
 31
0.0
  0
ARC
  5
706
330
1F
100
AcDbEntity
  8
0
100
AcDbCircle
 10
40.68454962301546
 20
80.9999996652955
 30
0.0
 40
0.5
100
AcDbArc
 50
0.0
 51
90.0
  0
ARC
  5
707
330
1F
100
AcDbEntity
  8
0
100
AcDbCircle
 10
39.68454962301547
 20
80.9999996652955
 30
0.0
 40
0.5
100
AcDbArc
 50
90.0
 51
180.0
  0
LINE
  5
708
330
1F
100
AcDbEntity
  8
0
100
AcDbLine
 10
39.18454962301547
 20
80.9999996652955
 30
0.0
 11
39.1845496230157
 21
80.14549140109165
 31
0.0
  0
LINE
  5
709
330
1F
100
AcDbEntity
  8
0
100
AcDbLine
 10
40.68454962301546
 20
81.49999966529549
 30
0.0
 11
39.68454962301547
 21
81.49999966529549
 31
0.0
  0
ARC
  5
70A
330
1F
100
AcDbEntity
  8
0
100
AcDbCircle
 10
41.68454962301524
 20
78.99999966529549
 30
0.0
 40
0.5
100
AcDbArc
 50
180.0
 51
270.0
  0
ARC
  5
70B
330
1F
100
AcDbEntity
  8
0
100
AcDbCircle
 10
42.68454962301547
 20
78.99999966529549
 30
0.0
 40
0.5
100
AcDbArc
 50
270.0
 51
0.0
  0
ARC
  5
70C
330
1F
100
AcDbEntity
  8
0
100
AcDbCircle
 10
42.68454962301524
 20
85.9999996652955
 30
0.0
 40
0.5
100
AcDbArc
 50
0.0
 51
90.0
  0
ARC
  5
70D
330
1F
100
AcDbEntity
  8
0
100
AcDbCircle
 10
41.68454962301524
 20
85.9999996652955
 30
0.0
 40
0.5
100
AcDbArc
 50
90.0
 51
180.0
  0
LINE
  5
70E
330
1F
100
AcDbEntity
  8
0
100
AcDbLine
 10
41.18454962301524
 20
85.9999996652955
 30
0.0
 11
41.18454962301524
 21
85.21176437117693
 31
0.0
  0
LINE
  5
70F
330
1F
100
AcDbEntity
  8
0
100
AcDbLine
 10
42.68454962301524
 20
86.4999996652955
 30
0.0
 11
41.68454962301524
 21
86.4999996652955
 31
0.0
  0
LINE
  5
710
330
1F
100
AcDbEntity
  8
0
100
AcDbLine
 10
43.18454962301546
 20
78.99999966529549
 30
0.0
 11
43.18454962301536
 21
82.68235260647179
 31
0.0
  0
LINE
  5
711
330
1F
100
AcDbEntity
  8
0
100
AcDbLine
 10
41.68454962301524
 20
78.49999966529551
 30
0.0
 11
42.68454962301547
 21
78.49999966529551
 31
0.0
  0
LINE
  5
712
330
1F
100
AcDbEntity
  8
0
  6
CONTINUOUS
100
AcDbLine
 10
43.1845496230153
 20
86.4999996652955
 30
0.0
 11
43.1845496230153
 21
85.31764672411817
 31
0.0
  0
LINE
  5
713
330
1F
100
AcDbEntity
  8
0
100
AcDbLine
 10
50.1845496230153
 20
80.88907553060655
 30
0.0
 11
50.1845496230153
 21
80.11092379998355
 31
0.0
  0
ARC
  5
714
330
1F
100
AcDbEntity
  8
0
100
AcDbCircle
 10
48.68454962301528
 20
80.11092379998355
 30
0.0
 40
1.5
100
AcDbArc
 50
273.030476845861
 51
0.0
  0
LINE
  5
715
330
1F
100
AcDbEntity
  8
0
100
AcDbLine
 10
49.18454962301527
 20
86.4999996652955
 30
0.0
 11
49.18454962301527
 21
89.30328909297953
 31
0.0
  0
LINE
  5
716
330
1F
100
AcDbEntity
  8
0
100
AcDbLine
 10
47.98454962301627
 20
89.04896213961649
 30
0.0
 11
49.18454962301527
 21
89.01753903373354
 31
0.0
  0
LINE
  5
717
330
1F
100
AcDbEntity
  8
0
100
AcDbLine
 10
50.1845496230153
 20
87.88907553060646
 30
0.0
 11
50.1845496230153
 21
87.11092379998353
 31
0.0
  0
ARC
  5
718
330
1F
100
AcDbEntity
  8
0
100
AcDbCircle
 10
48.68454962301528
 20
87.11092379998353
 30
0.0
 40
1.5
100
AcDbArc
 50
273.030476845861
 51
0.0
  0
ARC
  5
719
330
1F
100
AcDbEntity
  8
0
100
AcDbCircle
 10
48.68454962301528
 20
94.11092379998356
 30
0.0
 40
1.5
100
AcDbArc
 50
273.030476845861
 51
0.0
  0
LINE
  5
71A
330
1F
100
AcDbEntity
  8
0
100
AcDbLine
 10
47.98454962301627
 20
89.42823495941253
 30
0.0
 11
47.98454962301627
 21
89.04896213961649
 31
0.0
  0
ARC
  5
71B
330
1F
100
AcDbEntity
  8
0
100
AcDbCircle
 10
48.68454962301528
 20
87.88907553060646
 30
0.0
 40
1.5
100
AcDbArc
 50
0.0
 51
86.9695231541357
  0
ARC
  5
71C
330
1F
100
AcDbEntity
  8
0
100
AcDbCircle
 10
48.68454962301528
 20
80.88907553060655
 30
0.0
 40
1.5
100
AcDbArc
 50
0.0
 51
86.9695231541357
  0
LINE
  5
71D
330
1F
100
AcDbEntity
  8
0
100
AcDbLine
 10
38.13168248187531
 20
96.94985733747351
 30
0.0
 11
48.76385033472632
 21
96.3869778629105
 31
0.0
  0
LINE
  5
71E
330
1F
100
AcDbEntity
  8
0
100
AcDbLine
 10
37.65838164489429
 20
104.3251671812752
 30
0.0
 11
48.76305355738029
 21
103.7431959866754
 31
0.0
  0
LINE
  5
71F
330
1F
100
AcDbEntity
  8
0
100
AcDbLine
 10
38.13168248187531
 20
99.05014199311658
 30
0.0
 11
48.76385033472632
 21
99.61302146767948
 31
0.0
  0
LINE
  5
720
330
1F
100
AcDbEntity
  8
0
100
AcDbLine
 10
37.1845496230153
 20
104.8244819486524
 30
0.0
 11
37.1845496230153
 21
120.5286530770492
 31
0.0
  0
LINE
  5
721
330
1F
100
AcDbEntity
  8
0
100
AcDbLine
 10
37.1845496230153
 20
98.05154043824742
 30
0.0
 11
37.1845496230153
 21
97.94845889234252
 31
0.0
  0
POINT
  5
722
330
1F
100
AcDbEntity
  8
0
100
AcDbPoint
 10
37.1845496230153
 20
104.3499996652944
 30
0.0
  0
ARC
  5
723
330
1F
100
AcDbEntity
  8
0
100
AcDbCircle
 10
37.6845496230153
 20
104.8244819486524
 30
0.0
 40
0.5
100
AcDbArc
 50
180.0
 51
266.9999999999976
  0
ARC
  5
724
330
1F
100
AcDbEntity
  8
0
100
AcDbCircle
 10
38.1845496230153
 20
98.05154043824742
 30
0.0
 40
1.0
100
AcDbArc
 50
93.03047684586102
 51
180.0
  0
ARC
  5
725
330
1F
100
AcDbEntity
  8
0
100
AcDbCircle
 10
38.1845496230153
 20
97.94845889234252
 30
0.0
 40
1.0
100
AcDbArc
 50
180.0
 51
266.9695231541389
  0
ARC
  5
726
330
1F
100
AcDbEntity
  8
0
100
AcDbCircle
 10
48.68454962301528
 20
94.88907553060656
 30
0.0
 40
1.5
100
AcDbArc
 50
0.0
 51
86.9695231541357
  0
LINE
  5
727
330
1F
100
AcDbEntity
  8
0
100
AcDbLine
 10
47.98454962301627
 20
103.7839956490379
 30
0.0
 11
47.98454962301627
 21
99.56600368155148
 31
0.0
  0
LINE
  5
728
330
1F
100
AcDbEntity
  8
0
100
AcDbLine
 10
50.1845496230153
 20
102.2452516845434
 30
0.0
 11
50.1845496230153
 21
101.1109237999834
 31
0.0
  0
ARC
  5
729
330
1F
100
AcDbEntity
  8
0
100
AcDbCircle
 10
48.68454962301528
 20
102.2452516845434
 30
0.0
 40
1.5
100
AcDbArc
 50
0.0
 51
87.00000000000093
  0
ARC
  5
72A
330
1F
100
AcDbEntity
  8
0
100
AcDbCircle
 10
48.68454962301528
 20
101.1109237999834
 30
0.0
 40
1.5
100
AcDbArc
 50
273.030476845861
 51
0.0
  0
LINE
  5
72C
330
1F
100
AcDbEntity
  8
0
100
AcDbLine
 10
56.18454962301528
 20
110.4710187231694
 30
0.0
 11
56.18454962301528
 21
82.99999966529545
 31
0.0
  0
LINE
  5
72D
330
1F
100
AcDbEntity
  8
0
100
AcDbLine
 10
57.1845496230153
 20
82.97381374372745
 30
0.0
 11
57.1845496230153
 21
109.6057331704245
 31
0.0
  0
LINE
  5
73A
330
1F
100
AcDbEntity
  8
0
100
AcDbLine
 10
59.28454962301525
 20
80.9999996652955
 30
0.0
 11
59.28454962301525
 21
72.99999966529546
 31
0.0
  0
LINE
  5
73B
330
1F
100
AcDbEntity
  8
0
100
AcDbLine
 10
59.88454962301528
 20
80.9999996652955
 30
0.0
 11
59.88454962301528
 21
72.99999966529546
 31
0.0
  0
LINE
  5
73C
330
1F
100
AcDbEntity
  8
0
100
AcDbLine
 10
60.6845496230153
 20
80.9999996652955
 30
0.0
 11
60.6845496230153
 21
72.99999966529546
 31
0.0
  0
LINE
  5
73D
330
1F
100
AcDbEntity
  8
0
100
AcDbLine
 10
59.18454962301427
 20
81.47381374372651
 30
0.0
 11
59.18454962301427
 21
72.4738137437265
 31
0.0
  0
LINE
  5
73E
330
1F
100
AcDbEntity
  8
0
100
AcDbLine
 10
60.88454962301425
 20
81.47381374372651
 30
0.0
 11
60.88454962301425
 21
72.4738137437265
 31
0.0
  0
LINE
  5
73F
330
1F
100
AcDbEntity
  8
0
100
AcDbLine
 10
54.88454962301528
 20
82.99999966529545
 30
0.0
 11
54.88454962301528
 21
71.09999966529449
 31
0.0
  0
LINE
  5
740
330
1F
100
AcDbEntity
  8
0
100
AcDbLine
 10
55.6845496230153
 20
82.99999966529545
 30
0.0
 11
55.6845496230153
 21
70.99999966529549
 31
0.0
  0
LINE
  5
741
330
1F
100
AcDbEntity
  8
0
100
AcDbLine
 10
56.18454962301528
 20
70.99999966529447
 30
0.0
 11
56.18454962301528
 21
82.99999966529545
 31
0.0
  0
LINE
  5
742
330
1F
100
AcDbEntity
  8
0
100
AcDbLine
 10
56.18454962301528
 20
70.99999966529549
 30
0.0
 11
54.88454962301528
 21
70.99999966529549
 31
0.0
  0
LINE
  5
743
330
1F
100
AcDbEntity
  8
0
100
AcDbLine
 10
57.1845496230153
 20
70.97381374372651
 30
0.0
 11
56.18454962301528
 21
70.97381374372651
 31
0.0
  0
LINE
  5
744
330
1F
100
AcDbEntity
  8
0
100
AcDbLine
 10
60.6845496230153
 20
72.99999966529546
 30
0.0
 11
59.18454962301427
 21
72.99999966529546
 31
0.0
  0
LINE
  5
745
330
1F
100
AcDbEntity
  8
0
100
AcDbLine
 10
60.88454962301425
 20
72.4738137437265
 30
0.0
 11
59.18454962301427
 21
72.4738137437265
 31
0.0
  0
LINE
  5
746
330
1F
100
AcDbEntity
  8
0
100
AcDbLine
 10
60.6845496230153
 20
80.9999996652955
 30
0.0
 11
59.18454962301427
 21
80.9999996652955
 31
0.0
  0
LINE
  5
747
330
1F
100
AcDbEntity
  8
0
100
AcDbLine
 10
56.18454962301528
 20
82.99999966529545
 30
0.0
 11
54.88454962301528
 21
82.99999966529545
 31
0.0
  0
LINE
  5
748
330
1F
100
AcDbEntity
  8
0
100
AcDbLine
 10
60.88454962301425
 20
81.47381374372651
 30
0.0
 11
59.18454962301427
 21
81.47381374372651
 31
0.0
  0
LINE
  5
749
330
1F
100
AcDbEntity
  8
0
100
AcDbLine
 10
57.1845496230153
 20
82.97381374372745
 30
0.0
 11
56.18454962301528
 21
82.97381374372745
 31
0.0
  0
LINE
  5
752
330
1F
100
AcDbEntity
  8
0
100
AcDbLine
 10
65.28454962301527
 20
121.9738137437262
 30
0.0
 11
73.88454962301437
 21
121.9738137437262
 31
0.0
  0
LINE
  5
753
330
1F
100
AcDbEntity
  8
0
100
AcDbLine
 10
66.38454962301432
 20
126.2738137437265
 30
0.0
 11
72.28454962301436
 21
126.2738137437265
 31
0.0
  0
LINE
  5
754
330
1F
100
AcDbEntity
  8
0
100
AcDbLine
 10
66.78454962301429
 20
127.5738137437261
 30
0.0
 11
76.12954962301436
 21
127.5738137437261
 31
0.0
  0
LINE
  5
755
330
1F
100
AcDbEntity
  8
0
100
AcDbLine
 10
59.1845496230153
 20
110.9999996652953
 30
0.0
 11
59.1845496230153
 21
120.8952559790184
 31
0.0
  0
LINE
  5
756
330
1F
100
AcDbEntity
  8
0
100
AcDbLine
 10
60.18454962301528
 20
120.9738137437261
 30
0.0
 11
60.18454962301528
 21
110.1347141125494
 31
0.0
  0
LINE
  5
757
330
1F
100
AcDbEntity
  8
0
100
AcDbLine
 10
59.1845496230153
 20
120.4738137437264
 30
0.0
 11
59.1845496230153
 21
110.9738137437274
 31
0.0
  0
LINE
  5
758
330
1F
100
AcDbEntity
  8
0
100
AcDbLine
 10
59.1845496230153
 20
110.9999996652953
 30
0.0
 11
56.18454962301528
 21
110.4710187231694
 31
0.0
  0
LINE
  5
759
330
1F
100
AcDbEntity
  8
0
100
AcDbLine
 10
60.18454962301528
 20
110.1347141125494
 30
0.0
 11
57.1845496230153
 21
109.6057331704245
 31
0.0
  0
LINE
  5
75A
330
1F
100
AcDbEntity
  8
0
100
AcDbLine
 10
56.18454962301528
 20
110.4448328016014
 30
0.0
 11
59.1845496230153
 21
110.9738137437274
 31
0.0
  0
LINE
  5
75B
330
1F
100
AcDbEntity
  8
0
100
AcDbLine
 10
55.1845496230153
 20
120.9999996652949
 30
0.0
 11
59.1845496230153
 21
120.8952559790184
 31
0.0
  0
LINE
  5
75C
330
1F
100
AcDbEntity
  8
0
100
AcDbLine
 10
59.1845496230153
 20
120.4738137437264
 30
0.0
 11
60.18454962301528
 21
120.4738137437264
 31
0.0
  0
LINE
  5
75D
330
1F
100
AcDbEntity
  8
0
100
AcDbLine
 10
57.1845496230153
 20
120.9738137437261
 30
0.0
 11
57.1845496230153
 21
120.9476278221572
 31
0.0
  0
LINE
  5
75E
330
1F
100
AcDbEntity
  8
0
100
AcDbLine
 10
57.1845496230153
 20
120.9738137437261
 30
0.0
 11
57.1845496230153
 21
120.9476278221568
 31
0.0
  0
LINE
  5
75F
330
1F
100
AcDbEntity
  8
0
100
AcDbLine
 10
65.28454962301527
 20
120.9738137437261
 30
0.0
 11
65.28454962301527
 21
121.9738137437262
 31
0.0
  0
LINE
  5
760
330
1F
100
AcDbEntity
  8
0
100
AcDbLine
 10
66.38454962301432
 20
121.9738137437262
 30
0.0
 11
66.38454962301432
 21
126.2738137437265
 31
0.0
  0
LINE
  5
761
330
1F
100
AcDbEntity
  8
0
100
AcDbLine
 10
66.78454962301429
 20
126.2738137437263
 30
0.0
 11
66.78454962301429
 21
127.5738137437261
 31
0.0
  0
LINE
  5
762
330
1F
100
AcDbEntity
  8
0
100
AcDbLine
 10
76.3845496230153
 20
107.4738137437263
 30
0.0
 11
76.3845496230153
 21
115.4738137437262
 31
0.0
  0
LINE
  5
763
330
1F
100
AcDbEntity
  8
0
100
AcDbLine
 10
79.38454962301531
 20
105.4738137437263
 30
0.0
 11
79.38454962301531
 21
117.4738137437262
 31
0.0
  0
LINE
  5
764
330
1F
100
AcDbEntity
  8
0
100
AcDbLine
 10
79.38454962301531
 20
105.4738137437263
 30
0.0
 11
71.1845496230153
 21
105.4738137437263
 31
0.0
  0
LINE
  5
765
330
1F
100
AcDbEntity
  8
0
100
AcDbLine
 10
74.38454962301531
 20
109.4738137437262
 30
0.0
 11
74.38454962301531
 21
107.4738137437263
 31
0.0
  0
LINE
  5
766
330
1F
100
AcDbEntity
  8
0
100
AcDbLine
 10
74.38454962301531
 20
107.4738137437263
 30
0.0
 11
76.3845496230153
 21
107.4738137437263
 31
0.0
  0
LINE
  5
767
330
1F
100
AcDbEntity
  8
0
100
AcDbLine
 10
71.1845496230153
 20
109.4738137437262
 30
0.0
 11
71.1845496230153
 21
105.4738137437263
 31
0.0
  0
LINE
  5
768
330
1F
100
AcDbEntity
  8
0
100
AcDbLine
 10
71.1845496230153
 20
109.4738137437262
 30
0.0
 11
74.38454962301531
 21
109.4738137437262
 31
0.0
  0
LINE
  5
76A
330
1F
100
AcDbEntity
  8
0
100
AcDbLine
 10
71.1845496230153
 20
117.4738137437262
 30
0.0
 11
79.38454962301531
 21
117.4738137437262
 31
0.0
  0
LINE
  5
76B
330
1F
100
AcDbEntity
  8
0
100
AcDbLine
 10
73.88454962301437
 20
121.9738137437262
 30
0.0
 11
73.88454962301437
 21
120.9738137437261
 31
0.0
  0
LINE
  5
76C
330
1F
100
AcDbEntity
  8
0
100
AcDbLine
 10
72.28454962301436
 20
126.2738137437265
 30
0.0
 11
72.28454962301436
 21
121.9738137437262
 31
0.0
  0
LINE
  5
76D
330
1F
100
AcDbEntity
  8
0
100
AcDbLine
 10
76.12954962301436
 20
127.5738137437261
 30
0.0
 11
76.12954962301436
 21
120.9738137437261
 31
0.0
  0
LINE
  5
76E
330
1F
100
AcDbEntity
  8
0
100
AcDbLine
 10
74.38454962301531
 20
113.4738137437262
 30
0.0
 11
74.38454962301531
 21
115.4738137437262
 31
0.0
  0
LINE
  5
76F
330
1F
100
AcDbEntity
  8
0
100
AcDbLine
 10
74.38454962301531
 20
115.4738137437262
 30
0.0
 11
76.3845496230153
 21
115.4738137437262
 31
0.0
  0
LINE
  5
770
330
1F
100
AcDbEntity
  8
0
100
AcDbLine
 10
71.1845496230153
 20
113.4738137437262
 30
0.0
 11
71.1845496230153
 21
117.4738137437262
 31
0.0
  0
LINE
  5
771
330
1F
100
AcDbEntity
  8
0
100
AcDbLine
 10
71.1845496230153
 20
113.4738137437262
 30
0.0
 11
74.38454962301531
 21
113.4738137437262
 31
0.0
  0
LINE
  5
775
330
1F
100
AcDbEntity
  8
0
100
AcDbLine
 10
108.1845496230152
 20
21.9738137437265
 30
0.0
 11
108.1845496230152
 21
103.9738137437262
 31
0.0
  0
LINE
  5
776
330
1F
100
AcDbEntity
  8
0
100
AcDbLine
 10
109.1845496230152
 20
3.585959900558461
 30
0.0
 11
109.1845496230152
 21
120.9738137437261
 31
0.0
  0
LINE
  5
777
330
1F
100
AcDbEntity
  8
0
100
AcDbLine
 10
109.1845496230152
 20
-0.0000003347045095
 30
0.0
 11
109.1845496230152
 21
3.585959900558461
 31
0.0
  0
LINE
  5
77F
330
1F
100
AcDbEntity
  8
0
100
AcDbLine
 10
106.1845496230152
 20
33.97381374372651
 30
0.0
 11
106.1845496230152
 21
35.9738137437265
 31
0.0
  0
LINE
  5
780
330
1F
100
AcDbEntity
  8
0
100
AcDbLine
 10
107.1845496230152
 20
33.97381374372651
 30
0.0
 11
107.1845496230152
 21
35.9738137437265
 31
0.0
  0
LINE
  5
781
330
1F
100
AcDbEntity
  8
0
100
AcDbLine
 10
106.1845496230152
 20
26.9738137437265
 30
0.0
 11
106.1845496230152
 21
28.9738137437265
 31
0.0
  0
LINE
  5
782
330
1F
100
AcDbEntity
  8
0
100
AcDbLine
 10
107.1845496230152
 20
26.9738137437265
 30
0.0
 11
107.1845496230152
 21
28.9738137437265
 31
0.0
  0
LINE
  5
784
330
1F
100
AcDbEntity
  8
0
100
AcDbLine
 10
106.1845496230152
 20
40.9738137437265
 30
0.0
 11
106.1845496230152
 21
42.9738137437265
 31
0.0
  0
LINE
  5
785
330
1F
100
AcDbEntity
  8
0
100
AcDbLine
 10
107.1845496230152
 20
40.9738137437265
 30
0.0
 11
107.1845496230152
 21
42.9738137437265
 31
0.0
  0
LINE
  5
7A8
330
1F
100
AcDbEntity
  8
0
100
AcDbLine
 10
92.33454962301529
 20
124.3738137437262
 30
0.0
 11
98.63454962301537
 21
124.3738137437262
 31
0.0
  0
LINE
  5
7A9
330
1F
100
AcDbEntity
  8
0
100
AcDbLine
 10
92.33454962301529
 20
120.9738137437261
 30
0.0
 11
92.33454962301529
 21
124.3738137437262
 31
0.0
  0
LINE
  5
7AA
330
1F
100
AcDbEntity
  8
0
100
AcDbLine
 10
91.53454962301436
 20
130.1738137437264
 30
0.0
 11
93.78454962301436
 21
130.1738137437264
 31
0.0
  0
LINE
  5
7AB
330
1F
100
AcDbEntity
  8
0
100
AcDbLine
 10
91.53454962301436
 20
120.9738137437261
 30
0.0
 11
91.53454962301436
 21
130.1738137437264
 31
0.0
  0
LINE
  5
7AC
330
1F
100
AcDbEntity
  8
0
100
AcDbLine
 10
91.53454962301436
 20
120.9738137437261
 30
0.0
 11
91.53454962301443
 21
130.1738137437264
 31
0.0
  0
LINE
  5
7AD
330
1F
100
AcDbEntity
  8
0
100
AcDbLine
 10
98.63454962301537
 20
124.3738137437262
 30
0.0
 11
98.63454962301537
 21
120.9738137437261
 31
0.0
  0
LINE
  5
7AE
330
1F
100
AcDbEntity
  8
0
100
AcDbLine
 10
97.78454962301431
 20
130.1738137437264
 30
0.0
 11
100.0345496230143
 21
130.1738137437264
 31
0.0
  0
LINE
  5
7AF
330
1F
100
AcDbEntity
  8
0
100
AcDbLine
 10
100.0345496230143
 20
130.1738137437264
 30
0.0
 11
100.0345496230143
 21
120.9738137437261
 31
0.0
  0
LINE
  5
7B5
330
1F
100
AcDbEntity
  8
0
100
AcDbLine
 10
97.78454962301436
 20
135.6738137437264
 30
0.0
 11
93.78454962301436
 21
135.6738137437264
 31
0.0
  0
LINE
  5
7B6
330
1F
100
AcDbEntity
  8
0
100
AcDbLine
 10
93.78454962301436
 20
135.6738137437264
 30
0.0
 11
97.78454962301436
 21
135.6738137437264
 31
0.0
  0
LINE
  5
809
330
1F
100
AcDbEntity
  8
2_カバ_
  6
DASHDOT
100
AcDbLine
 10
89.34602261496143
 20
81.97381374372737
 30
0.0
 11
78.78487664193045
 21
81.97381374372737
 31
0.0
  0
CIRCLE
  5
80A
330
1F
100
AcDbEntity
  8
2_カバ_
  6
CONTINUOUS
100
AcDbCircle
 10
86.68454962301543
 20
81.97381374372737
 30
0.0
 40
1.25
  0
LINE
  5
80B
330
1F
100
AcDbEntity
  8
2_カバ_
  6
CONTINUOUS
100
AcDbLine
 10
67.18454962301544
 20
103.9738137437262
 30
0.0
 11
109.1845496230152
 21
103.9738137437262
 31
0.0
  0
LINE
  5
80C
330
1F
100
AcDbEntity
  8
2_カバ_
  6
CONTINUOUS
100
AcDbLine
 10
108.1845496230154
 20
98.97381374372637
 30
0.0
 11
67.18454962301544
 21
98.97381374372637
 31
0.0
  0
LINE
  5
80D
330
1F
100
AcDbEntity
  8
2_カバ_
  6
CONTINUOUS
100
AcDbLine
 10
108.1845496230154
 20
96.97381374372641
 30
0.0
 11
67.18454962301544
 21
96.97381374372641
 31
0.0
  0
LINE
  5
80E
330
1F
100
AcDbEntity
  8
2_カバ_
  6
CONTINUOUS
100
AcDbLine
 10
108.1845496230154
 20
70.97381374372638
 30
0.0
 11
67.18454962301542
 21
70.97381374372638
 31
0.0
  0
LINE
  5
80F
330
1F
100
AcDbEntity
  8
2_カバ_
  6
CONTINUOUS
100
AcDbLine
 10
108.1845496230154
 20
68.97381374372641
 30
0.0
 11
67.18454962301542
 21
68.97381374372641
 31
0.0
  0
LINE
  5
810
330
1F
100
AcDbEntity
  8
2_カバ_
  6
CONTINUOUS
100
AcDbLine
 10
108.1845496230154
 20
63.97381374372638
 30
0.0
 11
67.18454962301542
 21
63.97381374372736
 31
0.0
  0
LINE
  5
811
330
1F
100
AcDbEntity
  8
2_カバ_
  6
CONTINUOUS
100
AcDbLine
 10
108.1845496230154
 20
61.97381374372639
 30
0.0
 11
67.18454962301542
 21
61.97381374372639
 31
0.0
  0
LINE
  5
812
330
1F
100
AcDbEntity
  8
2_カバ_
  6
CONTINUOUS
100
AcDbLine
 10
108.1845496230154
 20
56.97381374372639
 30
0.0
 11
67.18454962301542
 21
56.97381374372639
 31
0.0
  0
LINE
  5
813
330
1F
100
AcDbEntity
  8
2_カバ_
  6
CONTINUOUS
100
AcDbLine
 10
108.1845496230154
 20
54.9738137437264
 30
0.0
 11
67.18454962301542
 21
54.9738137437264
 31
0.0
  0
LINE
  5
814
330
1F
100
AcDbEntity
  8
2_カバ_
  6
CONTINUOUS
100
AcDbLine
 10
105.6845496230154
 20
48.97381374372638
 30
0.0
 11
84.68454962301541
 21
48.97381374372638
 31
0.0
  0
LINE
  5
815
330
1F
100
AcDbEntity
  8
2_カバ_
  6
CONTINUOUS
100
AcDbLine
 10
84.68454962301541
 20
63.97381374372638
 30
0.0
 11
84.68454962301541
 21
68.97381374372641
 31
0.0
  0
LINE
  5
816
330
1F
100
AcDbEntity
  8
2_カバ_
  6
CONTINUOUS
100
AcDbLine
 10
84.18454962301543
 20
49.9738137437264
 30
0.0
 11
67.18454962301542
 21
49.9738137437264
 31
0.0
  0
LINE
  5
817
330
1F
100
AcDbEntity
  8
2_カバ_
  6
CONTINUOUS
100
AcDbLine
 10
84.18454962301543
 20
47.9738137437264
 30
0.0
 11
67.18454962301542
 21
47.9738137437264
 31
0.0
  0
LINE
  5
818
330
1F
100
AcDbEntity
  8
2_カバ_
  6
CONTINUOUS
100
AcDbLine
 10
84.68454962301541
 20
48.97381374372638
 30
0.0
 11
84.68454962301541
 21
54.9738137437264
 31
0.0
  0
LINE
  5
819
330
1F
100
AcDbEntity
  8
2_カバ_
  6
CONTINUOUS
100
AcDbLine
 10
84.18454962301543
 20
47.9738137437264
 30
0.0
 11
84.18454962301543
 21
49.9738137437264
 31
0.0
  0
LINE
  5
81A
330
1F
100
AcDbEntity
  8
2_カバ_
  6
CONTINUOUS
100
AcDbLine
 10
84.68454962301541
 20
56.97381374372639
 30
0.0
 11
84.68454962301541
 21
61.97381374372639
 31
0.0
  0
LINE
  5
81B
330
1F
100
AcDbEntity
  8
2_カバ_
  6
CONTINUOUS
100
AcDbLine
 10
84.18454962301543
 20
91.97381374372637
 30
0.0
 11
67.18454962301544
 21
91.97381374372637
 31
0.0
  0
LINE
  5
81C
330
1F
100
AcDbEntity
  8
2_カバ_
  6
CONTINUOUS
100
AcDbLine
 10
84.18454962301543
 20
89.97381374372636
 30
0.0
 11
67.18454962301544
 21
89.97381374372636
 31
0.0
  0
LINE
  5
81D
330
1F
100
AcDbEntity
  8
2_カバ_
  6
CONTINUOUS
100
AcDbLine
 10
84.18454962301543
 20
84.97381374372642
 30
0.0
 11
67.18454962301544
 21
84.97381374372642
 31
0.0
  0
LINE
  5
81E
330
1F
100
AcDbEntity
  8
2_カバ_
  6
CONTINUOUS
100
AcDbLine
 10
84.18454962301543
 20
82.97381374372639
 30
0.0
 11
67.18454962301544
 21
82.97381374372639
 31
0.0
  0
LINE
  5
81F
330
1F
100
AcDbEntity
  8
2_カバ_
  6
CONTINUOUS
100
AcDbLine
 10
84.18454962301543
 20
77.97381374372641
 30
0.0
 11
67.18454962301544
 21
77.97381374372641
 31
0.0
  0
LINE
  5
820
330
1F
100
AcDbEntity
  8
2_カバ_
  6
CONTINUOUS
100
AcDbLine
 10
84.18454962301543
 20
75.97381374372638
 30
0.0
 11
67.18454962301544
 21
75.97381374372638
 31
0.0
  0
LINE
  5
821
330
1F
100
AcDbEntity
  8
2_カバ_
  6
CONTINUOUS
100
AcDbLine
 10
84.18454962301543
 20
82.97381374372639
 30
0.0
 11
84.18454962301543
 21
84.97381374372642
 31
0.0
  0
LINE
  5
822
330
1F
100
AcDbEntity
  8
2_カバ_
  6
CONTINUOUS
100
AcDbLine
 10
84.68454962301541
 20
70.97381374372638
 30
0.0
 11
84.68454962301541
 21
96.97381374372641
 31
0.0
  0
LINE
  5
823
330
1F
100
AcDbEntity
  8
2_カバ_
  6
DASHDOT
100
AcDbLine
 10
86.68454962301543
 20
85.1032143201154
 30
0.0
 11
86.68454962301543
 21
79.01837298639536
 31
0.0
  0
LINE
  5
824
330
1F
100
AcDbEntity
  8
2_カバ_
  6
CONTINUOUS
100
AcDbLine
 10
84.18454962301543
 20
75.97381374372638
 30
0.0
 11
84.18454962301543
 21
77.97381374372641
 31
0.0
  0
LINE
  5
825
330
1F
100
AcDbEntity
  8
2_カバ_
  6
CONTINUOUS
100
AcDbLine
 10
84.18454962301543
 20
89.97381374372636
 30
0.0
 11
84.18454962301543
 21
91.97381374372637
 31
0.0
  0
LINE
  5
826
330
1F
100
AcDbEntity
  8
2_カバ_
  6
CONTINUOUS
100
AcDbLine
 10
84.68454962301541
 20
98.97381374372637
 30
0.0
 11
84.68454962301541
 21
103.9738137437262
 31
0.0
  0
LINE
  5
827
330
1F
100
AcDbEntity
  8
2_カバ_
  6
CONTINUOUS
100
AcDbLine
 10
105.6845496230154
 20
68.97381374372641
 30
0.0
 11
105.6845496230154
 21
63.97381374372638
 31
0.0
  0
LINE
  5
828
330
1F
100
AcDbEntity
  8
2_カバ_
  6
CONTINUOUS
100
AcDbLine
 10
100.1845496230151
 20
53.47381374372639
 30
0.0
 11
90.18454962301539
 21
53.47381374372639
 31
0.0
  0
LINE
  5
829
330
1F
100
AcDbEntity
  8
2_カバ_
  6
CONTINUOUS
100
AcDbLine
 10
90.18454962301539
 20
49.9738137437264
 30
0.0
 11
100.1845496230151
 21
49.9738137437264
 31
0.0
  0
ARC
  5
82A
330
1F
100
AcDbEntity
  8
2_カバ_
  6
CONTINUOUS
100
AcDbCircle
 10
90.18454962301539
 20
52.97381374372736
 30
0.0
 40
0.5
100
AcDbArc
 50
90.0
 51
180.0
  0
ARC
  5
82B
330
1F
100
AcDbEntity
  8
2_カバ_
  6
CONTINUOUS
100
AcDbCircle
 10
90.18454962301539
 20
50.4738137437264
 30
0.0
 40
0.5
100
AcDbArc
 50
180.0
 51
270.0
  0
LINE
  5
82C
330
1F
100
AcDbEntity
  8
2_カバ_
  6
CONTINUOUS
100
AcDbLine
 10
89.68454962301541
 20
52.97381374372736
 30
0.0
 11
89.68454962301541
 21
50.4738137437264
 31
0.0
  0
ARC
  5
82D
330
1F
100
AcDbEntity
  8
2_カバ_
  6
CONTINUOUS
100
AcDbCircle
 10
100.1845496230151
 20
52.9738137437264
 30
0.0
 40
0.5
100
AcDbArc
 50
0.0
 51
90.0
  0
ARC
  5
82E
330
1F
100
AcDbEntity
  8
2_カバ_
  6
CONTINUOUS
100
AcDbCircle
 10
100.1845496230151
 20
50.4738137437264
 30
0.0
 40
0.5
100
AcDbArc
 50
270.0
 51
0.0
  0
LINE
  5
82F
330
1F
100
AcDbEntity
  8
2_カバ_
  6
CONTINUOUS
100
AcDbLine
 10
100.6845496230154
 20
50.4738137437264
 30
0.0
 11
100.6845496230154
 21
52.9738137437264
 31
0.0
  0
LINE
  5
830
330
1F
100
AcDbEntity
  8
2_カバ_
  6
CONTINUOUS
100
AcDbLine
 10
105.6845496230154
 20
54.9738137437264
 30
0.0
 11
105.6845496230154
 21
48.97381374372638
 31
0.0
  0
LINE
  5
831
330
1F
100
AcDbEntity
  8
2_カバ_
  6
CONTINUOUS
100
AcDbLine
 10
108.1845496230154
 20
49.9738137437264
 30
0.0
 11
106.1845496230154
 21
49.9738137437264
 31
0.0
  0
LINE
  5
832
330
1F
100
AcDbEntity
  8
2_カバ_
  6
CONTINUOUS
100
AcDbLine
 10
108.1845496230154
 20
47.9738137437264
 30
0.0
 11
106.1845496230154
 21
47.9738137437264
 31
0.0
  0
LINE
  5
833
330
1F
100
AcDbEntity
  8
2_カバ_
  6
CONTINUOUS
100
AcDbLine
 10
107.1845496230154
 20
47.9738137437264
 30
0.0
 11
107.1845496230154
 21
49.9738137437264
 31
0.0
  0
LINE
  5
834
330
1F
100
AcDbEntity
  8
2_カバ_
  6
CONTINUOUS
100
AcDbLine
 10
106.1845496230154
 20
47.9738137437264
 30
0.0
 11
106.1845496230154
 21
49.9738137437264
 31
0.0
  0
LINE
  5
835
330
1F
100
AcDbEntity
  8
2_カバ_
  6
CONTINUOUS
100
AcDbLine
 10
105.6845496230154
 20
61.97381374372639
 30
0.0
 11
105.6845496230154
 21
56.97381374372736
 31
0.0
  0
LINE
  5
836
330
1F
100
AcDbEntity
  8
2_カバ_
  6
CONTINUOUS
100
AcDbLine
 10
107.1845496230154
 20
54.9738137437264
 30
0.0
 11
107.1845496230154
 21
56.97381374372639
 31
0.0
  0
LINE
  5
837
330
1F
100
AcDbEntity
  8
2_カバ_
  6
CONTINUOUS
100
AcDbLine
 10
106.1845496230154
 20
54.9738137437264
 30
0.0
 11
106.1845496230154
 21
56.97381374372639
 31
0.0
  0
LINE
  5
838
330
1F
100
AcDbEntity
  8
2_カバ_
  6
CONTINUOUS
100
AcDbLine
 10
107.1845496230154
 20
61.97381374372639
 30
0.0
 11
107.1845496230154
 21
63.97381374372638
 31
0.0
  0
LINE
  5
839
330
1F
100
AcDbEntity
  8
2_カバ_
  6
CONTINUOUS
100
AcDbLine
 10
106.1845496230154
 20
61.97381374372639
 30
0.0
 11
106.1845496230154
 21
63.97381374372638
 31
0.0
  0
LINE
  5
83A
330
1F
100
AcDbEntity
  8
2_カバ_
  6
CONTINUOUS
100
AcDbLine
 10
107.1845496230154
 20
96.97381374372641
 30
0.0
 11
107.1845496230154
 21
98.97381374372637
 31
0.0
  0
LINE
  5
83B
330
1F
100
AcDbEntity
  8
2_カバ_
  6
CONTINUOUS
100
AcDbLine
 10
106.1845496230154
 20
96.97381374372641
 30
0.0
 11
106.1845496230154
 21
98.97381374372637
 31
0.0
  0
LINE
  5
83C
330
1F
100
AcDbEntity
  8
2_カバ_
  6
CONTINUOUS
100
AcDbLine
 10
104.1845496230151
 20
92.47381374372636
 30
0.0
 11
101.6845496230154
 21
92.47381374372734
 31
0.0
  0
LINE
  5
83D
330
1F
100
AcDbEntity
  8
2_カバ_
  6
CONTINUOUS
100
AcDbLine
 10
104.1845496230151
 20
86.47381374372637
 30
0.0
 11
101.6845496230154
 21
86.47381374372637
 31
0.0
  0
LINE
  5
83E
330
1F
100
AcDbEntity
  8
2_カバ_
  6
DASHDOT
100
AcDbLine
 10
100.1056597409644
 20
89.47381374372637
 30
0.0
 11
106.8541677470194
 21
89.47381374372637
 31
0.0
  0
LINE
  5
83F
330
1F
100
AcDbEntity
  8
2_カバ_
  6
CONTINUOUS
100
AcDbLine
 10
101.1845496230151
 20
91.97381374372737
 30
0.0
 11
101.1845496230151
 21
86.97381374372637
 31
0.0
  0
ARC
  5
840
330
1F
100
AcDbEntity
  8
2_カバ_
  6
CONTINUOUS
100
AcDbCircle
 10
101.6845496230154
 20
86.97381374372637
 30
0.0
 40
0.5
100
AcDbArc
 50
180.0
 51
270.0
  0
ARC
  5
841
330
1F
100
AcDbEntity
  8
2_カバ_
  6
CONTINUOUS
100
AcDbCircle
 10
101.6845496230154
 20
91.97381374372737
 30
0.0
 40
0.5
100
AcDbArc
 50
89.99999999999673
 51
180.0
  0
LINE
  5
842
330
1F
100
AcDbEntity
  8
2_カバ_
  6
CONTINUOUS
100
AcDbLine
 10
107.1845496230154
 20
82.97381374372639
 30
0.0
 11
107.1845496230154
 21
84.97381374372642
 31
0.0
  0
LINE
  5
843
330
1F
100
AcDbEntity
  8
2_カバ_
  6
CONTINUOUS
100
AcDbLine
 10
106.1845496230154
 20
82.97381374372639
 30
0.0
 11
106.1845496230154
 21
84.97381374372642
 31
0.0
  0
LINE
  5
844
330
1F
100
AcDbEntity
  8
2_カバ_
  6
CONTINUOUS
100
AcDbLine
 10
105.6845496230154
 20
96.97381374372641
 30
0.0
 11
105.6845496230154
 21
70.97381374372736
 31
0.0
  0
LINE
  5
845
330
1F
100
AcDbEntity
  8
2_カバ_
  6
CONTINUOUS
100
AcDbLine
 10
107.1845496230154
 20
75.97381374372638
 30
0.0
 11
107.1845496230154
 21
77.97381374372736
 31
0.0
  0
LINE
  5
846
330
1F
100
AcDbEntity
  8
2_カバ_
  6
CONTINUOUS
100
AcDbLine
 10
106.1845496230154
 20
75.97381374372638
 30
0.0
 11
106.1845496230154
 21
77.97381374372736
 31
0.0
  0
LINE
  5
847
330
1F
100
AcDbEntity
  8
2_カバ_
  6
CONTINUOUS
100
AcDbLine
 10
108.1845496230154
 20
75.97381374372638
 30
0.0
 11
106.1845496230154
 21
75.97381374372638
 31
0.0
  0
LINE
  5
848
330
1F
100
AcDbEntity
  8
2_カバ_
  6
CONTINUOUS
100
AcDbLine
 10
107.1845496230154
 20
68.97381374372641
 30
0.0
 11
107.1845496230154
 21
70.97381374372638
 31
0.0
  0
LINE
  5
849
330
1F
100
AcDbEntity
  8
2_カバ_
  6
CONTINUOUS
100
AcDbLine
 10
106.1845496230154
 20
68.97381374372641
 30
0.0
 11
106.1845496230154
 21
70.97381374372638
 31
0.0
  0
LINE
  5
84A
330
1F
100
AcDbEntity
  8
2_カバ_
  6
CONTINUOUS
100
AcDbLine
 10
108.1845496230154
 20
82.97381374372639
 30
0.0
 11
106.1845496230154
 21
82.97381374372639
 31
0.0
  0
LINE
  5
84B
330
1F
100
AcDbEntity
  8
2_カバ_
  6
CONTINUOUS
100
AcDbLine
 10
108.1845496230154
 20
77.97381374372641
 30
0.0
 11
106.1845496230154
 21
77.97381374372641
 31
0.0
  0
LINE
  5
84C
330
1F
100
AcDbEntity
  8
2_カバ_
  6
CONTINUOUS
100
AcDbLine
 10
107.1845496230154
 20
89.97381374372636
 30
0.0
 11
107.1845496230154
 21
91.97381374372637
 31
0.0
  0
LINE
  5
84D
330
1F
100
AcDbEntity
  8
2_カバ_
  6
CONTINUOUS
100
AcDbLine
 10
104.6845496230154
 20
86.97381374372637
 30
0.0
 11
104.6845496230154
 21
91.97381374372637
 31
0.0
  0
LINE
  5
84E
330
1F
100
AcDbEntity
  8
2_カバ_
  6
CONTINUOUS
100
AcDbLine
 10
106.1845496230154
 20
89.97381374372636
 30
0.0
 11
106.1845496230154
 21
91.97381374372637
 31
0.0
  0
LINE
  5
84F
330
1F
100
AcDbEntity
  8
2_カバ_
  6
CONTINUOUS
100
AcDbLine
 10
108.1845496230154
 20
84.97381374372642
 30
0.0
 11
106.1845496230154
 21
84.97381374372642
 31
0.0
  0
LINE
  5
850
330
1F
100
AcDbEntity
  8
2_カバ_
  6
CONTINUOUS
100
AcDbLine
 10
108.1845496230154
 20
89.97381374372636
 30
0.0
 11
106.1845496230154
 21
89.97381374372636
 31
0.0
  0
ARC
  5
851
330
1F
100
AcDbEntity
  8
2_カバ_
  6
CONTINUOUS
100
AcDbCircle
 10
104.1845496230151
 20
86.97381374372637
 30
0.0
 40
0.5
100
AcDbArc
 50
270.0
 51
0.0
  0
LINE
  5
852
330
1F
100
AcDbEntity
  8
2_カバ_
  6
CONTINUOUS
100
AcDbLine
 10
108.1845496230154
 20
91.97381374372637
 30
0.0
 11
106.1845496230154
 21
91.97381374372637
 31
0.0
  0
ARC
  5
853
330
1F
100
AcDbEntity
  8
2_カバ_
  6
CONTINUOUS
100
AcDbCircle
 10
104.1845496230151
 20
91.97381374372637
 30
0.0
 40
0.5
100
AcDbArc
 50
0.0
 51
90.0
  0
LINE
  5
854
330
1F
100
AcDbEntity
  8
2_カバ_
  6
CONTINUOUS
100
AcDbLine
 10
105.6845496230154
 20
103.9738137437262
 30
0.0
 11
105.6845496230154
 21
98.97381374372637
 31
0.0
  0
LINE
  5
87E
330
1F
100
AcDbEntity
  8
0
100
AcDbLine
 10
330.1845496230138
 20
364.8428841358805
 30
0.0
 11
330.1845496230138
 21
171.1047433515725
 31
0.0
  0
LINE
  5
87F
330
1F
100
AcDbEntity
  8
0
100
AcDbLine
 10
325.1845496230139
 20
170.9738137437265
 30
0.0
 11
325.1845496230139
 21
180.9738137437265
 31
0.0
  0
LINE
  5
880
330
1F
100
AcDbEntity
  8
0
100
AcDbLine
 10
209.184549623015
 20
180.9738137437265
 30
0.0
 11
209.184549623015
 21
354.9738137437266
 31
0.0
  0
LINE
  5
881
330
1F
100
AcDbEntity
  8
0
100
AcDbLine
 10
209.184549623015
 20
354.9738137437266
 30
0.0
 11
325.1845496230139
 21
354.9738137437266
 31
0.0
  0
LINE
  5
882
330
1F
100
AcDbEntity
  8
0
100
AcDbLine
 10
209.184549623015
 20
180.9738137437265
 30
0.0
 11
325.1845496230139
 21
180.9738137437265
 31
0.0
  0
LINE
  5
883
330
1F
100
AcDbEntity
  8
0
100
AcDbLine
 10
325.1845496230139
 20
364.9738137437267
 30
0.0
 11
330.1845496230138
 21
364.8428841358805
 31
0.0
  0
LINE
  5
884
330
1F
100
AcDbEntity
  8
0
100
AcDbLine
 10
326.5985893877509
 20
364.9367858093511
 30
0.0
 11
326.59858938775
 21
171.0108416781015
 31
0.0
  0
LINE
  5
885
330
1F
100
AcDbEntity
  8
0
100
AcDbLine
 10
325.1845496230139
 20
170.9738137437265
 30
0.0
 11
330.1845496230138
 21
171.1047433515725
 31
0.0
  0
LINE
  5
886
330
1F
100
AcDbEntity
  8
0
100
AcDbLine
 10
209.184549623015
 20
180.9738137437265
 30
0.0
 11
209.184549623015
 21
354.9738137437266
 31
0.0
  0
LINE
  5
887
330
1F
100
AcDbEntity
  8
0
100
AcDbLine
 10
209.184549623015
 20
354.9738137437266
 30
0.0
 11
326.5724034661825
 21
354.9738137437266
 31
0.0
  0
LINE
  5
888
330
1F
100
AcDbEntity
  8
0
100
AcDbLine
 10
226.1845496230149
 20
180.9738137437265
 30
0.0
 11
226.1845496230149
 21
354.9738137437266
 31
0.0
  0
LINE
  5
889
330
1F
100
AcDbEntity
  8
0
100
AcDbLine
 10
308.1845496230148
 20
180.9738137437265
 30
0.0
 11
308.1845496230148
 21
354.9738137437266
 31
0.0
  0
LINE
  5
88A
330
1F
100
AcDbEntity
  8
0
100
AcDbLine
 10
226.1845496230149
 20
353.9738137437266
 30
0.0
 11
308.1845496230148
 21
353.9738137437266
 31
0.0
  0
LINE
  5
88B
330
1F
100
AcDbEntity
  8
0
100
AcDbLine
 10
231.1845496230148
 20
351.9738137437265
 30
0.0
 11
233.1845496230151
 21
351.9738137437265
 31
0.0
  0
LINE
  5
88C
330
1F
100
AcDbEntity
  8
0
100
AcDbLine
 10
231.1845496230148
 20
181.9738137437265
 30
0.0
 11
231.1845496230148
 21
235.2238137437264
 31
0.0
  0
LINE
  5
88D
330
1F
100
AcDbEntity
  8
0
100
AcDbLine
 10
233.1845496230151
 20
181.9738137437265
 30
0.0
 11
233.1845496230151
 21
235.2238137437264
 31
0.0
  0
LINE
  5
88E
330
1F
100
AcDbEntity
  8
0
100
AcDbLine
 10
231.1845496230148
 20
300.7238137437263
 30
0.0
 11
233.1845496230151
 21
300.7238137437263
 31
0.0
  0
LINE
  5
88F
330
1F
100
AcDbEntity
  8
0
100
AcDbLine
 10
231.1845496230148
 20
235.2238137437264
 30
0.0
 11
233.1845496230151
 21
235.2238137437264
 31
0.0
  0
LINE
  5
890
330
1F
100
AcDbEntity
  8
0
100
AcDbLine
 10
226.1845496230149
 20
181.9738137437265
 30
0.0
 11
308.1845496230148
 21
181.9738137437265
 31
0.0
  0
LINE
  5
891
330
1F
100
AcDbEntity
  8
0
100
AcDbLine
 10
231.1845496230148
 20
183.9738137437265
 30
0.0
 11
233.1845496230151
 21
183.9738137437265
 31
0.0
  0
LINE
  5
892
330
1F
100
AcDbEntity
  8
0
100
AcDbLine
 10
231.1845496230148
 20
300.7238137437263
 30
0.0
 11
231.1845496230148
 21
353.9738137437266
 31
0.0
  0
LINE
  5
893
330
1F
100
AcDbEntity
  8
0
100
AcDbLine
 10
233.1845496230151
 20
300.7238137437263
 30
0.0
 11
233.1845496230151
 21
353.9738137437266
 31
0.0
  0
LINE
  5
894
330
1F
100
AcDbEntity
  8
0
100
AcDbLine
 10
238.184549623015
 20
351.9738137437265
 30
0.0
 11
240.184549623015
 21
351.9738137437265
 31
0.0
  0
LINE
  5
895
330
1F
100
AcDbEntity
  8
0
100
AcDbLine
 10
238.184549623015
 20
181.9738137437265
 30
0.0
 11
238.184549623015
 21
235.2238137437264
 31
0.0
  0
LINE
  5
896
330
1F
100
AcDbEntity
  8
0
100
AcDbLine
 10
240.184549623015
 20
181.9738137437265
 30
0.0
 11
240.184549623015
 21
235.2238137437264
 31
0.0
  0
LINE
  5
897
330
1F
100
AcDbEntity
  8
0
100
AcDbLine
 10
238.184549623015
 20
300.7238137437263
 30
0.0
 11
240.184549623015
 21
300.7238137437263
 31
0.0
  0
LINE
  5
898
330
1F
100
AcDbEntity
  8
0
100
AcDbLine
 10
238.184549623015
 20
235.2238137437264
 30
0.0
 11
240.184549623015
 21
235.2238137437264
 31
0.0
  0
LINE
  5
899
330
1F
100
AcDbEntity
  8
0
100
AcDbLine
 10
238.184549623015
 20
183.9738137437265
 30
0.0
 11
240.184549623015
 21
183.9738137437265
 31
0.0
  0
LINE
  5
89A
330
1F
100
AcDbEntity
  8
0
100
AcDbLine
 10
238.184549623015
 20
300.7238137437263
 30
0.0
 11
238.184549623015
 21
353.9738137437266
 31
0.0
  0
LINE
  5
89B
330
1F
100
AcDbEntity
  8
0
100
AcDbLine
 10
240.184549623015
 20
300.7238137437263
 30
0.0
 11
240.184549623015
 21
353.9738137437266
 31
0.0
  0
LINE
  5
89C
330
1F
100
AcDbEntity
  8
0
100
AcDbLine
 10
245.1845496230149
 20
351.9738137437265
 30
0.0
 11
247.1845496230149
 21
351.9738137437265
 31
0.0
  0
LINE
  5
89D
330
1F
100
AcDbEntity
  8
0
100
AcDbLine
 10
245.1845496230149
 20
181.9738137437265
 30
0.0
 11
245.1845496230149
 21
235.2238137437264
 31
0.0
  0
LINE
  5
89E
330
1F
100
AcDbEntity
  8
0
100
AcDbLine
 10
247.1845496230149
 20
181.9738137437265
 30
0.0
 11
247.1845496230149
 21
235.2238137437264
 31
0.0
  0
LINE
  5
89F
330
1F
100
AcDbEntity
  8
0
100
AcDbLine
 10
245.1845496230149
 20
300.7238137437263
 30
0.0
 11
247.1845496230149
 21
300.7238137437263
 31
0.0
  0
LINE
  5
8A0
330
1F
100
AcDbEntity
  8
0
100
AcDbLine
 10
245.1845496230149
 20
235.2238137437264
 30
0.0
 11
247.1845496230149
 21
235.2238137437264
 31
0.0
  0
LINE
  5
8A1
330
1F
100
AcDbEntity
  8
0
100
AcDbLine
 10
245.1845496230149
 20
183.9738137437265
 30
0.0
 11
247.1845496230149
 21
183.9738137437265
 31
0.0
  0
LINE
  5
8A2
330
1F
100
AcDbEntity
  8
0
100
AcDbLine
 10
245.1845496230149
 20
300.7238137437263
 30
0.0
 11
245.1845496230149
 21
353.9738137437266
 31
0.0
  0
LINE
  5
8A3
330
1F
100
AcDbEntity
  8
0
100
AcDbLine
 10
247.1845496230149
 20
300.7238137437263
 30
0.0
 11
247.1845496230149
 21
353.9738137437266
 31
0.0
  0
LINE
  5
8A4
330
1F
100
AcDbEntity
  8
0
100
AcDbLine
 10
252.1845496230148
 20
181.9738137437265
 30
0.0
 11
252.1845496230148
 21
235.2238137437264
 31
0.0
  0
LINE
  5
8A5
330
1F
100
AcDbEntity
  8
0
100
AcDbLine
 10
254.1845496230151
 20
181.9738137437265
 30
0.0
 11
254.1845496230151
 21
235.2238137437264
 31
0.0
  0
LINE
  5
8A6
330
1F
100
AcDbEntity
  8
0
100
AcDbLine
 10
252.1845496230148
 20
300.7238137437263
 30
0.0
 11
254.1845496230151
 21
300.7238137437263
 31
0.0
  0
LINE
  5
8A7
330
1F
100
AcDbEntity
  8
0
100
AcDbLine
 10
252.1845496230148
 20
235.2238137437264
 30
0.0
 11
254.1845496230151
 21
235.2238137437264
 31
0.0
  0
LINE
  5
8A8
330
1F
100
AcDbEntity
  8
0
100
AcDbLine
 10
252.1845496230148
 20
183.9738137437265
 30
0.0
 11
254.1845496230151
 21
183.9738137437265
 31
0.0
  0
LINE
  5
8A9
330
1F
100
AcDbEntity
  8
0
100
AcDbLine
 10
252.1845496230148
 20
300.7238137437263
 30
0.0
 11
252.1845496230148
 21
353.9738137437266
 31
0.0
  0
LINE
  5
8AA
330
1F
100
AcDbEntity
  8
0
100
AcDbLine
 10
254.1845496230151
 20
300.7238137437263
 30
0.0
 11
254.1845496230151
 21
353.9738137437266
 31
0.0
  0
LINE
  5
8AB
330
1F
100
AcDbEntity
  8
0
100
AcDbLine
 10
259.1845496230149
 20
351.9738137437265
 30
0.0
 11
261.1845496230149
 21
351.9738137437265
 31
0.0
  0
LINE
  5
8AC
330
1F
100
AcDbEntity
  8
0
100
AcDbLine
 10
259.1845496230149
 20
181.9738137437265
 30
0.0
 11
259.1845496230149
 21
235.2238137437264
 31
0.0
  0
LINE
  5
8AD
330
1F
100
AcDbEntity
  8
0
100
AcDbLine
 10
261.1845496230149
 20
181.9738137437265
 30
0.0
 11
261.1845496230149
 21
235.2238137437264
 31
0.0
  0
LINE
  5
8AE
330
1F
100
AcDbEntity
  8
0
100
AcDbLine
 10
259.1845496230149
 20
300.7238137437263
 30
0.0
 11
261.1845496230149
 21
300.7238137437263
 31
0.0
  0
LINE
  5
8AF
330
1F
100
AcDbEntity
  8
0
100
AcDbLine
 10
259.1845496230149
 20
235.2238137437264
 30
0.0
 11
261.1845496230149
 21
235.2238137437264
 31
0.0
  0
LINE
  5
8B0
330
1F
100
AcDbEntity
  8
0
100
AcDbLine
 10
259.1845496230149
 20
183.9738137437265
 30
0.0
 11
261.1845496230149
 21
183.9738137437265
 31
0.0
  0
LINE
  5
8B1
330
1F
100
AcDbEntity
  8
0
100
AcDbLine
 10
259.1845496230149
 20
300.7238137437263
 30
0.0
 11
259.1845496230149
 21
353.9738137437266
 31
0.0
  0
LINE
  5
8B2
330
1F
100
AcDbEntity
  8
0
100
AcDbLine
 10
261.1845496230149
 20
300.7238137437263
 30
0.0
 11
261.1845496230149
 21
353.9738137437266
 31
0.0
  0
LINE
  5
8B3
330
1F
100
AcDbEntity
  8
0
100
AcDbLine
 10
266.1845496230148
 20
351.9738137437265
 30
0.0
 11
268.1845496230149
 21
351.9738137437265
 31
0.0
  0
LINE
  5
8B4
330
1F
100
AcDbEntity
  8
0
100
AcDbLine
 10
266.1845496230148
 20
181.9738137437265
 30
0.0
 11
266.1845496230148
 21
235.2238137437264
 31
0.0
  0
LINE
  5
8B5
330
1F
100
AcDbEntity
  8
0
100
AcDbLine
 10
268.1845496230149
 20
181.9738137437265
 30
0.0
 11
268.1845496230149
 21
235.2238137437264
 31
0.0
  0
LINE
  5
8B6
330
1F
100
AcDbEntity
  8
0
100
AcDbLine
 10
266.1845496230148
 20
300.7238137437263
 30
0.0
 11
268.1845496230149
 21
300.7238137437263
 31
0.0
  0
LINE
  5
8B7
330
1F
100
AcDbEntity
  8
0
100
AcDbLine
 10
266.1845496230148
 20
235.2238137437264
 30
0.0
 11
268.1845496230149
 21
235.2238137437264
 31
0.0
  0
LINE
  5
8B8
330
1F
100
AcDbEntity
  8
0
100
AcDbLine
 10
266.1845496230148
 20
183.9738137437265
 30
0.0
 11
268.1845496230149
 21
183.9738137437265
 31
0.0
  0
LINE
  5
8B9
330
1F
100
AcDbEntity
  8
0
100
AcDbLine
 10
266.1845496230148
 20
300.7238137437263
 30
0.0
 11
266.1845496230148
 21
353.9738137437266
 31
0.0
  0
LINE
  5
8BA
330
1F
100
AcDbEntity
  8
0
100
AcDbLine
 10
268.1845496230149
 20
300.7238137437263
 30
0.0
 11
268.1845496230149
 21
353.9738137437266
 31
0.0
  0
LINE
  5
8BB
330
1F
100
AcDbEntity
  8
0
100
AcDbLine
 10
273.1845496230149
 20
351.9738137437265
 30
0.0
 11
275.1845496230149
 21
351.9738137437265
 31
0.0
  0
LINE
  5
8BC
330
1F
100
AcDbEntity
  8
0
100
AcDbLine
 10
273.1845496230149
 20
181.9738137437265
 30
0.0
 11
273.1845496230149
 21
235.2238137437264
 31
0.0
  0
LINE
  5
8BD
330
1F
100
AcDbEntity
  8
0
100
AcDbLine
 10
275.1845496230149
 20
181.9738137437265
 30
0.0
 11
275.1845496230149
 21
235.2238137437264
 31
0.0
  0
LINE
  5
8BE
330
1F
100
AcDbEntity
  8
0
100
AcDbLine
 10
273.1845496230149
 20
300.7238137437263
 30
0.0
 11
275.1845496230149
 21
300.7238137437263
 31
0.0
  0
LINE
  5
8BF
330
1F
100
AcDbEntity
  8
0
100
AcDbLine
 10
273.1845496230149
 20
235.2238137437264
 30
0.0
 11
275.1845496230149
 21
235.2238137437264
 31
0.0
  0
LINE
  5
8C0
330
1F
100
AcDbEntity
  8
0
100
AcDbLine
 10
273.1845496230149
 20
183.9738137437265
 30
0.0
 11
275.1845496230149
 21
183.9738137437265
 31
0.0
  0
LINE
  5
8C1
330
1F
100
AcDbEntity
  8
0
100
AcDbLine
 10
273.1845496230149
 20
300.7238137437263
 30
0.0
 11
273.1845496230149
 21
353.9738137437266
 31
0.0
  0
LINE
  5
8C2
330
1F
100
AcDbEntity
  8
0
100
AcDbLine
 10
275.1845496230149
 20
300.7238137437263
 30
0.0
 11
275.1845496230149
 21
353.9738137437266
 31
0.0
  0
LINE
  5
8C3
330
1F
100
AcDbEntity
  8
0
100
AcDbLine
 10
280.1845496230149
 20
351.9738137437265
 30
0.0
 11
282.1845496230148
 21
351.9738137437265
 31
0.0
  0
LINE
  5
8C4
330
1F
100
AcDbEntity
  8
0
100
AcDbLine
 10
280.1845496230149
 20
181.9738137437265
 30
0.0
 11
280.1845496230149
 21
235.2238137437264
 31
0.0
  0
LINE
  5
8C5
330
1F
100
AcDbEntity
  8
0
100
AcDbLine
 10
282.1845496230148
 20
181.9738137437265
 30
0.0
 11
282.1845496230148
 21
235.2238137437264
 31
0.0
  0
LINE
  5
8C6
330
1F
100
AcDbEntity
  8
0
100
AcDbLine
 10
280.1845496230149
 20
300.7238137437263
 30
0.0
 11
282.1845496230148
 21
300.7238137437263
 31
0.0
  0
LINE
  5
8C7
330
1F
100
AcDbEntity
  8
0
100
AcDbLine
 10
280.1845496230149
 20
235.2238137437264
 30
0.0
 11
282.1845496230148
 21
235.2238137437264
 31
0.0
  0
LINE
  5
8C8
330
1F
100
AcDbEntity
  8
0
100
AcDbLine
 10
280.1845496230149
 20
183.9738137437265
 30
0.0
 11
282.1845496230148
 21
183.9738137437265
 31
0.0
  0
LINE
  5
8C9
330
1F
100
AcDbEntity
  8
0
100
AcDbLine
 10
280.1845496230149
 20
300.7238137437263
 30
0.0
 11
280.1845496230149
 21
353.9738137437266
 31
0.0
  0
LINE
  5
8CA
330
1F
100
AcDbEntity
  8
0
100
AcDbLine
 10
282.1845496230148
 20
300.7238137437263
 30
0.0
 11
282.1845496230148
 21
353.9738137437266
 31
0.0
  0
LINE
  5
8CB
330
1F
100
AcDbEntity
  8
0
100
AcDbLine
 10
287.1845496230148
 20
351.9738137437265
 30
0.0
 11
289.1845496230148
 21
351.9738137437265
 31
0.0
  0
LINE
  5
8CC
330
1F
100
AcDbEntity
  8
0
100
AcDbLine
 10
287.1845496230148
 20
181.9738137437265
 30
0.0
 11
287.1845496230148
 21
235.2238137437264
 31
0.0
  0
LINE
  5
8CD
330
1F
100
AcDbEntity
  8
0
100
AcDbLine
 10
289.1845496230148
 20
181.9738137437265
 30
0.0
 11
289.1845496230148
 21
235.2238137437264
 31
0.0
  0
LINE
  5
8CE
330
1F
100
AcDbEntity
  8
0
100
AcDbLine
 10
287.1845496230148
 20
300.7238137437263
 30
0.0
 11
289.1845496230148
 21
300.7238137437263
 31
0.0
  0
LINE
  5
8CF
330
1F
100
AcDbEntity
  8
0
100
AcDbLine
 10
287.1845496230148
 20
235.2238137437264
 30
0.0
 11
289.1845496230148
 21
235.2238137437264
 31
0.0
  0
LINE
  5
8D0
330
1F
100
AcDbEntity
  8
0
100
AcDbLine
 10
287.1845496230148
 20
183.9738137437265
 30
0.0
 11
289.1845496230148
 21
183.9738137437265
 31
0.0
  0
LINE
  5
8D1
330
1F
100
AcDbEntity
  8
0
100
AcDbLine
 10
287.1845496230148
 20
300.7238137437263
 30
0.0
 11
287.1845496230148
 21
353.9738137437266
 31
0.0
  0
LINE
  5
8D2
330
1F
100
AcDbEntity
  8
0
100
AcDbLine
 10
289.1845496230148
 20
300.7238137437263
 30
0.0
 11
289.1845496230148
 21
353.9738137437266
 31
0.0
  0
LINE
  5
8D3
330
1F
100
AcDbEntity
  8
0
100
AcDbLine
 10
294.1845496230148
 20
351.9738137437265
 30
0.0
 11
296.1845496230148
 21
351.9738137437265
 31
0.0
  0
LINE
  5
8D4
330
1F
100
AcDbEntity
  8
0
100
AcDbLine
 10
294.1845496230148
 20
181.9738137437265
 30
0.0
 11
294.1845496230148
 21
235.2238137437264
 31
0.0
  0
LINE
  5
8D5
330
1F
100
AcDbEntity
  8
0
100
AcDbLine
 10
296.1845496230148
 20
181.9738137437265
 30
0.0
 11
296.1845496230148
 21
235.2238137437264
 31
0.0
  0
LINE
  5
8D6
330
1F
100
AcDbEntity
  8
0
100
AcDbLine
 10
294.1845496230148
 20
300.7238137437263
 30
0.0
 11
296.1845496230148
 21
300.7238137437263
 31
0.0
  0
LINE
  5
8D7
330
1F
100
AcDbEntity
  8
0
100
AcDbLine
 10
294.1845496230148
 20
235.2238137437264
 30
0.0
 11
296.1845496230148
 21
235.2238137437264
 31
0.0
  0
LINE
  5
8D8
330
1F
100
AcDbEntity
  8
0
100
AcDbLine
 10
294.1845496230148
 20
183.9738137437265
 30
0.0
 11
296.1845496230148
 21
183.9738137437265
 31
0.0
  0
LINE
  5
8D9
330
1F
100
AcDbEntity
  8
0
100
AcDbLine
 10
294.1845496230148
 20
300.7238137437263
 30
0.0
 11
294.1845496230148
 21
353.9738137437266
 31
0.0
  0
LINE
  5
8DA
330
1F
100
AcDbEntity
  8
0
100
AcDbLine
 10
296.1845496230148
 20
300.7238137437263
 30
0.0
 11
296.1845496230148
 21
353.9738137437266
 31
0.0
  0
LINE
  5
8DB
330
1F
100
AcDbEntity
  8
0
100
AcDbLine
 10
301.1845496230148
 20
351.9738137437265
 30
0.0
 11
303.1845496230148
 21
351.9738137437265
 31
0.0
  0
LINE
  5
8DC
330
1F
100
AcDbEntity
  8
0
100
AcDbLine
 10
301.1845496230148
 20
181.9738137437265
 30
0.0
 11
301.1845496230148
 21
235.2238137437264
 31
0.0
  0
LINE
  5
8DD
330
1F
100
AcDbEntity
  8
0
100
AcDbLine
 10
303.1845496230148
 20
181.9738137437265
 30
0.0
 11
303.1845496230148
 21
235.2238137437264
 31
0.0
  0
LINE
  5
8DE
330
1F
100
AcDbEntity
  8
0
100
AcDbLine
 10
301.1845496230148
 20
300.7238137437263
 30
0.0
 11
303.1845496230148
 21
300.7238137437263
 31
0.0
  0
LINE
  5
8DF
330
1F
100
AcDbEntity
  8
0
100
AcDbLine
 10
301.1845496230148
 20
235.2238137437264
 30
0.0
 11
303.1845496230148
 21
235.2238137437264
 31
0.0
  0
LINE
  5
8E0
330
1F
100
AcDbEntity
  8
0
100
AcDbLine
 10
301.1845496230148
 20
183.9738137437265
 30
0.0
 11
303.1845496230148
 21
183.9738137437265
 31
0.0
  0
LINE
  5
8E1
330
1F
100
AcDbEntity
  8
0
100
AcDbLine
 10
301.1845496230148
 20
300.7238137437263
 30
0.0
 11
301.1845496230148
 21
353.9738137437266
 31
0.0
  0
LINE
  5
8E2
330
1F
100
AcDbEntity
  8
0
100
AcDbLine
 10
303.1845496230148
 20
300.7238137437263
 30
0.0
 11
303.1845496230148
 21
353.9738137437266
 31
0.0
  0
LINE
  5
8E3
330
1F
100
AcDbEntity
  8
0
100
AcDbLine
 10
231.1845496230148
 20
329.4738137437266
 30
0.0
 11
233.1845496230151
 21
329.4738137437266
 31
0.0
  0
LINE
  5
8E4
330
1F
100
AcDbEntity
  8
0
100
AcDbLine
 10
231.1845496230148
 20
326.4738137437266
 30
0.0
 11
233.1845496230151
 21
326.4738137437266
 31
0.0
  0
LINE
  5
8E5
330
1F
100
AcDbEntity
  8
0
100
AcDbLine
 10
231.1845496230148
 20
209.4738137437265
 30
0.0
 11
233.1845496230151
 21
209.4738137437265
 31
0.0
  0
LINE
  5
8E6
330
1F
100
AcDbEntity
  8
0
100
AcDbLine
 10
231.1845496230148
 20
206.4738137437265
 30
0.0
 11
233.1845496230151
 21
206.4738137437265
 31
0.0
  0
LINE
  5
8E7
330
1F
100
AcDbEntity
  8
0
100
AcDbLine
 10
238.184549623015
 20
329.4738137437266
 30
0.0
 11
240.184549623015
 21
329.4738137437266
 31
0.0
  0
LINE
  5
8E8
330
1F
100
AcDbEntity
  8
0
100
AcDbLine
 10
238.184549623015
 20
326.4738137437266
 30
0.0
 11
240.184549623015
 21
326.4738137437266
 31
0.0
  0
LINE
  5
8E9
330
1F
100
AcDbEntity
  8
0
100
AcDbLine
 10
238.184549623015
 20
209.4738137437265
 30
0.0
 11
240.184549623015
 21
209.4738137437265
 31
0.0
  0
LINE
  5
8EA
330
1F
100
AcDbEntity
  8
0
100
AcDbLine
 10
238.184549623015
 20
206.4738137437265
 30
0.0
 11
240.184549623015
 21
206.4738137437265
 31
0.0
  0
LINE
  5
8EB
330
1F
100
AcDbEntity
  8
0
100
AcDbLine
 10
245.1845496230149
 20
329.4738137437266
 30
0.0
 11
247.1845496230149
 21
329.4738137437266
 31
0.0
  0
LINE
  5
8EC
330
1F
100
AcDbEntity
  8
0
100
AcDbLine
 10
245.1845496230149
 20
326.4738137437266
 30
0.0
 11
247.1845496230149
 21
326.4738137437266
 31
0.0
  0
LINE
  5
8ED
330
1F
100
AcDbEntity
  8
0
100
AcDbLine
 10
245.1845496230149
 20
209.4738137437265
 30
0.0
 11
247.1845496230149
 21
209.4738137437265
 31
0.0
  0
LINE
  5
8EE
330
1F
100
AcDbEntity
  8
0
100
AcDbLine
 10
245.1845496230149
 20
206.4738137437265
 30
0.0
 11
247.1845496230149
 21
206.4738137437265
 31
0.0
  0
LINE
  5
8EF
330
1F
100
AcDbEntity
  8
0
100
AcDbLine
 10
252.1845496230148
 20
329.4738137437266
 30
0.0
 11
254.1845496230151
 21
329.4738137437266
 31
0.0
  0
LINE
  5
8F0
330
1F
100
AcDbEntity
  8
0
100
AcDbLine
 10
252.1845496230148
 20
326.4738137437266
 30
0.0
 11
254.1845496230151
 21
326.4738137437266
 31
0.0
  0
LINE
  5
8F1
330
1F
100
AcDbEntity
  8
0
100
AcDbLine
 10
252.1845496230148
 20
209.4738137437265
 30
0.0
 11
254.1845496230151
 21
209.4738137437265
 31
0.0
  0
LINE
  5
8F2
330
1F
100
AcDbEntity
  8
0
100
AcDbLine
 10
252.1845496230148
 20
206.4738137437265
 30
0.0
 11
254.1845496230151
 21
206.4738137437265
 31
0.0
  0
LINE
  5
8F3
330
1F
100
AcDbEntity
  8
0
100
AcDbLine
 10
259.1845496230149
 20
329.4738137437266
 30
0.0
 11
261.1845496230149
 21
329.4738137437266
 31
0.0
  0
LINE
  5
8F4
330
1F
100
AcDbEntity
  8
0
100
AcDbLine
 10
259.1845496230149
 20
326.4738137437266
 30
0.0
 11
261.1845496230149
 21
326.4738137437266
 31
0.0
  0
LINE
  5
8F5
330
1F
100
AcDbEntity
  8
0
100
AcDbLine
 10
259.1845496230149
 20
209.4738137437265
 30
0.0
 11
261.1845496230149
 21
209.4738137437265
 31
0.0
  0
LINE
  5
8F6
330
1F
100
AcDbEntity
  8
0
100
AcDbLine
 10
259.1845496230149
 20
206.4738137437265
 30
0.0
 11
261.1845496230149
 21
206.4738137437265
 31
0.0
  0
LINE
  5
8F7
330
1F
100
AcDbEntity
  8
0
100
AcDbLine
 10
266.1845496230148
 20
329.4738137437266
 30
0.0
 11
268.1845496230149
 21
329.4738137437266
 31
0.0
  0
LINE
  5
8F8
330
1F
100
AcDbEntity
  8
0
100
AcDbLine
 10
266.1845496230148
 20
326.4738137437266
 30
0.0
 11
268.1845496230149
 21
326.4738137437266
 31
0.0
  0
LINE
  5
8F9
330
1F
100
AcDbEntity
  8
0
100
AcDbLine
 10
266.1845496230148
 20
209.4738137437265
 30
0.0
 11
268.1845496230149
 21
209.4738137437265
 31
0.0
  0
LINE
  5
8FA
330
1F
100
AcDbEntity
  8
0
100
AcDbLine
 10
266.1845496230148
 20
206.4738137437265
 30
0.0
 11
268.1845496230149
 21
206.4738137437265
 31
0.0
  0
LINE
  5
8FB
330
1F
100
AcDbEntity
  8
0
100
AcDbLine
 10
273.1845496230149
 20
329.4738137437266
 30
0.0
 11
275.1845496230149
 21
329.4738137437266
 31
0.0
  0
LINE
  5
8FC
330
1F
100
AcDbEntity
  8
0
100
AcDbLine
 10
273.1845496230149
 20
326.4738137437266
 30
0.0
 11
275.1845496230149
 21
326.4738137437266
 31
0.0
  0
LINE
  5
8FD
330
1F
100
AcDbEntity
  8
0
100
AcDbLine
 10
273.1845496230149
 20
209.4738137437265
 30
0.0
 11
275.1845496230149
 21
209.4738137437265
 31
0.0
  0
LINE
  5
8FE
330
1F
100
AcDbEntity
  8
0
100
AcDbLine
 10
273.1845496230149
 20
206.4738137437265
 30
0.0
 11
275.1845496230149
 21
206.4738137437265
 31
0.0
  0
LINE
  5
8FF
330
1F
100
AcDbEntity
  8
0
100
AcDbLine
 10
280.1845496230149
 20
329.4738137437266
 30
0.0
 11
282.1845496230148
 21
329.4738137437266
 31
0.0
  0
LINE
  5
900
330
1F
100
AcDbEntity
  8
0
100
AcDbLine
 10
280.1845496230149
 20
326.4738137437266
 30
0.0
 11
282.1845496230148
 21
326.4738137437266
 31
0.0
  0
LINE
  5
901
330
1F
100
AcDbEntity
  8
0
100
AcDbLine
 10
280.1845496230149
 20
209.4738137437265
 30
0.0
 11
282.1845496230148
 21
209.4738137437265
 31
0.0
  0
LINE
  5
902
330
1F
100
AcDbEntity
  8
0
100
AcDbLine
 10
280.1845496230149
 20
206.4738137437265
 30
0.0
 11
282.1845496230148
 21
206.4738137437265
 31
0.0
  0
LINE
  5
903
330
1F
100
AcDbEntity
  8
0
100
AcDbLine
 10
287.1845496230148
 20
329.4738137437266
 30
0.0
 11
289.1845496230148
 21
329.4738137437266
 31
0.0
  0
LINE
  5
904
330
1F
100
AcDbEntity
  8
0
100
AcDbLine
 10
287.1845496230148
 20
326.4738137437266
 30
0.0
 11
289.1845496230148
 21
326.4738137437266
 31
0.0
  0
LINE
  5
905
330
1F
100
AcDbEntity
  8
0
100
AcDbLine
 10
287.1845496230148
 20
209.4738137437265
 30
0.0
 11
289.1845496230148
 21
209.4738137437265
 31
0.0
  0
LINE
  5
906
330
1F
100
AcDbEntity
  8
0
100
AcDbLine
 10
287.1845496230148
 20
206.4738137437265
 30
0.0
 11
289.1845496230148
 21
206.4738137437265
 31
0.0
  0
LINE
  5
907
330
1F
100
AcDbEntity
  8
0
100
AcDbLine
 10
294.1845496230148
 20
329.4738137437266
 30
0.0
 11
296.1845496230148
 21
329.4738137437266
 31
0.0
  0
LINE
  5
908
330
1F
100
AcDbEntity
  8
0
100
AcDbLine
 10
294.1845496230148
 20
326.4738137437266
 30
0.0
 11
296.1845496230148
 21
326.4738137437266
 31
0.0
  0
LINE
  5
909
330
1F
100
AcDbEntity
  8
0
100
AcDbLine
 10
294.1845496230148
 20
209.4738137437265
 30
0.0
 11
296.1845496230148
 21
209.4738137437265
 31
0.0
  0
LINE
  5
90A
330
1F
100
AcDbEntity
  8
0
100
AcDbLine
 10
294.1845496230148
 20
206.4738137437265
 30
0.0
 11
296.1845496230148
 21
206.4738137437265
 31
0.0
  0
LINE
  5
90B
330
1F
100
AcDbEntity
  8
0
100
AcDbLine
 10
301.1845496230148
 20
329.4738137437266
 30
0.0
 11
303.1845496230148
 21
329.4738137437266
 31
0.0
  0
LINE
  5
90C
330
1F
100
AcDbEntity
  8
0
100
AcDbLine
 10
301.1845496230148
 20
326.4738137437266
 30
0.0
 11
303.1845496230148
 21
326.4738137437266
 31
0.0
  0
LINE
  5
90D
330
1F
100
AcDbEntity
  8
0
100
AcDbLine
 10
301.1845496230148
 20
209.4738137437265
 30
0.0
 11
303.1845496230148
 21
209.4738137437265
 31
0.0
  0
LINE
  5
90E
330
1F
100
AcDbEntity
  8
0
100
AcDbLine
 10
301.1845496230148
 20
206.4738137437265
 30
0.0
 11
303.1845496230148
 21
206.4738137437265
 31
0.0
  0
LINE
  5
90F
330
1F
100
AcDbEntity
  8
0
100
AcDbLine
 10
281.1845496230148
 20
181.9738137437265
 30
0.0
 11
281.1845496230139
 21
181.4738137437265
 31
0.0
  0
LINE
  5
910
330
1F
100
AcDbEntity
  8
0
100
AcDbLine
 10
226.1845496230149
 20
181.4738137437265
 30
0.0
 11
281.1845496230148
 21
181.4738137437265
 31
0.0
  0
LINE
  5
911
330
1F
100
AcDbEntity
  8
0
100
AcDbLine
 10
326.5724034661818
 20
180.9738137437265
 30
0.0
 11
326.5724034661825
 21
354.9738137437266
 31
0.0
  0
LINE
  5
912
330
1F
100
AcDbEntity
  8
0
100
AcDbLine
 10
206.6845496230151
 20
325.4738144774165
 30
0.0
 11
206.1845496230152
 21
325.9738144774165
 31
0.0
  0
LINE
  5
913
330
1F
100
AcDbEntity
  8
0
100
AcDbLine
 10
206.1845496230152
 20
326.8738144774165
 30
0.0
 11
206.1845496230152
 21
325.9738144774165
 31
0.0
  0
LINE
  5
914
330
1F
100
AcDbEntity
  8
0
100
AcDbLine
 10
207.4845496230153
 20
325.4738144774165
 30
0.0
 11
206.6845496230151
 21
325.4738144774165
 31
0.0
  0
ARC
  5
915
330
1F
100
AcDbEntity
  8
0
100
AcDbCircle
 10
207.1845496230153
 20
326.8738144774165
 30
0.0
 40
1.0
100
AcDbArc
 50
90.0
 51
180.0
  0
LINE
  5
916
330
1F
100
AcDbEntity
  8
0
100
AcDbLine
 10
209.184549623015
 20
327.8738144774166
 30
0.0
 11
207.1845496230153
 21
327.8738144774166
 31
0.0
  0
LINE
  5
917
330
1F
100
AcDbEntity
  8
0
100
AcDbLine
 10
209.184549623015
 20
326.6738144774166
 30
0.0
 11
207.4845496230155
 21
326.6738144774166
 31
0.0
  0
LINE
  5
918
330
1F
100
AcDbEntity
  8
0
100
AcDbLine
 10
207.4845496230153
 20
325.4738144774165
 30
0.0
 11
207.4845496230153
 21
326.6738144774166
 31
0.0
  0
LINE
  5
919
330
1F
100
AcDbEntity
  8
0
100
AcDbLine
 10
206.6845496230154
 20
344.9738144774168
 30
0.0
 11
206.1845496230154
 21
344.4738144774168
 31
0.0
  0
LINE
  5
91A
330
1F
100
AcDbEntity
  8
0
100
AcDbLine
 10
206.1845496230154
 20
344.4738144774168
 30
0.0
 11
206.1845496230154
 21
343.5738144774167
 31
0.0
  0
LINE
  5
91B
330
1F
100
AcDbEntity
  8
0
100
AcDbLine
 10
207.4845496230153
 20
344.9738144774168
 30
0.0
 11
206.6845496230154
 21
344.9738144774168
 31
0.0
  0
ARC
  5
91C
330
1F
100
AcDbEntity
  8
0
100
AcDbCircle
 10
207.1845496230154
 20
343.5738144774167
 30
0.0
 40
1.0
100
AcDbArc
 50
180.0
 51
270.0
  0
LINE
  5
91D
330
1F
100
AcDbEntity
  8
0
100
AcDbLine
 10
209.184549623015
 20
342.5738144774168
 30
0.0
 11
207.1845496230154
 21
342.5738144774168
 31
0.0
  0
LINE
  5
91E
330
1F
100
AcDbEntity
  8
0
100
AcDbLine
 10
209.184549623015
 20
343.7738144774165
 30
0.0
 11
207.4845496230151
 21
343.7738144774165
 31
0.0
  0
LINE
  5
91F
330
1F
100
AcDbEntity
  8
0
100
AcDbLine
 10
207.4845496230153
 20
343.7738144774165
 30
0.0
 11
207.4845496230153
 21
344.9738144774168
 31
0.0
  0
LINE
  5
920
330
1F
100
AcDbEntity
  8
0
100
AcDbLine
 10
203.6845496230155
 20
307.6238144774166
 30
0.0
 11
207.674645478633
 21
306.2797821892086
 31
0.0
  0
LINE
  5
921
330
1F
100
AcDbEntity
  8
0
100
AcDbLine
 10
203.6845496230155
 20
276.1738144774168
 30
0.0
 11
207.674645478633
 21
277.517846765625
 31
0.0
  0
LINE
  5
922
330
1F
100
AcDbEntity
  8
0
100
AcDbLine
 10
203.6845496230155
 20
310.5238144774168
 30
0.0
 11
209.184549623015
 21
312.3764460563641
 31
0.0
  0
LINE
  5
923
330
1F
100
AcDbEntity
  8
0
100
AcDbLine
 10
203.6845496230155
 20
273.2738144774169
 30
0.0
 11
209.184549623015
 21
271.4211828984697
 31
0.0
  0
LINE
  5
924
330
1F
100
AcDbEntity
  8
0
100
AcDbLine
 10
207.674645478633
 20
306.2797821892086
 30
0.0
 11
207.674645478633
 21
277.517846765625
 31
0.0
  0
LINE
  5
925
330
1F
100
AcDbEntity
  8
0
100
AcDbLine
 10
199.3148040937635
 20
276.1738144774168
 30
0.0
 11
199.3148040937635
 21
278.2138028262906
 31
0.0
  0
LINE
  5
926
330
1F
100
AcDbEntity
  8
0
100
AcDbLine
 10
194.4845496230156
 20
273.2738144774169
 30
0.0
 11
198.187025615654
 21
278.2138028262906
 31
0.0
  0
LINE
  5
927
330
1F
100
AcDbEntity
  8
0
100
AcDbLine
 10
194.4845496230156
 20
273.2738144774169
 30
0.0
 11
203.6845496230155
 21
273.2738144774169
 31
0.0
  0
LINE
  5
928
330
1F
100
AcDbEntity
  8
0
100
AcDbLine
 10
203.6845496230155
 20
276.1738144774168
 30
0.0
 11
199.3148040937635
 21
276.1738144774168
 31
0.0
  0
LINE
  5
929
330
1F
100
AcDbEntity
  8
0
100
AcDbLine
 10
203.6845496230155
 20
273.2738144774169
 30
0.0
 11
203.6845496230155
 21
276.1738144774168
 31
0.0
  0
LINE
  5
92A
330
1F
100
AcDbEntity
  8
0
100
AcDbLine
 10
199.3148040937635
 20
278.2138028262906
 30
0.0
 11
198.187025615654
 21
278.2138028262906
 31
0.0
  0
LINE
  5
92B
330
1F
100
AcDbEntity
  8
0
100
AcDbLine
 10
199.3148040937635
 20
307.6238144774166
 30
0.0
 11
199.3148040937635
 21
305.5838261285432
 31
0.0
  0
LINE
  5
92C
330
1F
100
AcDbEntity
  8
0
100
AcDbLine
 10
194.4845496230156
 20
310.5238144774168
 30
0.0
 11
198.187025615654
 21
305.5838261285432
 31
0.0
  0
LINE
  5
92D
330
1F
100
AcDbEntity
  8
0
100
AcDbLine
 10
199.3148040937635
 20
305.5838261285432
 30
0.0
 11
198.187025615654
 21
305.5838261285432
 31
0.0
  0
LINE
  5
92E
330
1F
100
AcDbEntity
  8
0
100
AcDbLine
 10
194.4845496230156
 20
310.5238144774168
 30
0.0
 11
203.6845496230155
 21
310.5238144774168
 31
0.0
  0
LINE
  5
92F
330
1F
100
AcDbEntity
  8
0
100
AcDbLine
 10
203.6845496230155
 20
307.6238144774166
 30
0.0
 11
199.3148040937635
 21
307.6238144774166
 31
0.0
  0
LINE
  5
930
330
1F
100
AcDbEntity
  8
0
100
AcDbLine
 10
203.674645478633
 20
310.5238144774168
 30
0.0
 11
203.674645478633
 21
307.6238144774166
 31
0.0
  0
LINE
  5
931
330
1F
100
AcDbEntity
  8
0
100
AcDbLine
 10
205.7845496230152
 20
221.6738144774168
 30
0.0
 11
205.7845496230152
 21
201.4738144774168
 31
0.0
  0
LINE
  5
932
330
1F
100
AcDbEntity
  8
0
100
AcDbLine
 10
206.684549623015
 20
197.9738144774166
 30
0.0
 11
206.1845496230148
 21
198.4738144774168
 31
0.0
  0
LINE
  5
933
330
1F
100
AcDbEntity
  8
0
100
AcDbLine
 10
206.1845496230152
 20
199.3738144774169
 30
0.0
 11
206.1845496230148
 21
198.4738144774168
 31
0.0
  0
LINE
  5
934
330
1F
100
AcDbEntity
  8
0
100
AcDbLine
 10
207.4845496230151
 20
197.9738144774166
 30
0.0
 11
206.684549623015
 21
197.9738144774166
 31
0.0
  0
ARC
  5
935
330
1F
100
AcDbEntity
  8
0
100
AcDbCircle
 10
207.184549623015
 20
199.3738144774168
 30
0.0
 40
1.0
100
AcDbArc
 50
90.0
 51
180.0
  0
LINE
  5
936
330
1F
100
AcDbEntity
  8
0
100
AcDbLine
 10
209.184549623015
 20
200.3738144774168
 30
0.0
 11
207.184549623015
 21
200.3738144774168
 31
0.0
  0
LINE
  5
937
330
1F
100
AcDbEntity
  8
0
100
AcDbLine
 10
209.184549623015
 20
199.1738144774169
 30
0.0
 11
207.4845496230153
 21
199.1738144774169
 31
0.0
  0
LINE
  5
938
330
1F
100
AcDbEntity
  8
0
100
AcDbLine
 10
209.184549623015
 20
201.4738144774168
 30
0.0
 11
205.7845496230152
 21
201.4738144774168
 31
0.0
  0
LINE
  5
939
330
1F
100
AcDbEntity
  8
0
100
AcDbLine
 10
207.4845496230151
 20
197.9738144774166
 30
0.0
 11
207.4845496230151
 21
199.1738144774169
 31
0.0
  0
LINE
  5
93A
330
1F
100
AcDbEntity
  8
0
100
AcDbLine
 10
206.6845496230153
 20
225.1738144774169
 30
0.0
 11
206.1845496230152
 21
224.6738144774169
 31
0.0
  0
LINE
  5
93B
330
1F
100
AcDbEntity
  8
0
100
AcDbLine
 10
206.1845496230152
 20
224.6738144774169
 30
0.0
 11
206.1845496230152
 21
223.7738144774167
 31
0.0
  0
LINE
  5
93C
330
1F
100
AcDbEntity
  8
0
100
AcDbLine
 10
207.4845496230151
 20
225.1738144774169
 30
0.0
 11
206.6845496230153
 21
225.1738144774169
 31
0.0
  0
ARC
  5
93D
330
1F
100
AcDbEntity
  8
0
100
AcDbCircle
 10
207.1845496230153
 20
223.7738144774169
 30
0.0
 40
1.0
100
AcDbArc
 50
180.0
 51
270.0
  0
LINE
  5
93E
330
1F
100
AcDbEntity
  8
0
100
AcDbLine
 10
209.184549623015
 20
222.7738144774169
 30
0.0
 11
207.1845496230153
 21
222.7738144774169
 31
0.0
  0
LINE
  5
93F
330
1F
100
AcDbEntity
  8
0
100
AcDbLine
 10
205.7845496230152
 20
221.6738144774168
 30
0.0
 11
209.184549623015
 21
221.6738144774168
 31
0.0
  0
LINE
  5
940
330
1F
100
AcDbEntity
  8
0
100
AcDbLine
 10
209.184549623015
 20
223.9738144774169
 30
0.0
 11
207.4845496230151
 21
223.9738144774169
 31
0.0
  0
LINE
  5
941
330
1F
100
AcDbEntity
  8
0
100
AcDbLine
 10
207.4845496230151
 20
223.9738144774168
 30
0.0
 11
207.4845496230151
 21
225.1738144774169
 31
0.0
  0
LINE
  5
942
330
1F
100
AcDbEntity
  8
0
100
AcDbLine
 10
209.184549623015
 20
185.9738144774166
 30
0.0
 11
206.684549623015
 21
185.9738144774166
 31
0.0
  0
LINE
  5
943
330
1F
100
AcDbEntity
  8
0
100
AcDbLine
 10
206.684549623015
 20
185.9738144774166
 30
0.0
 11
206.684549623015
 21
191.4738144774166
 31
0.0
  0
LINE
  5
944
330
1F
100
AcDbEntity
  8
0
100
AcDbLine
 10
206.684549623015
 20
191.4738144774166
 30
0.0
 11
209.184549623015
 21
191.4738144774166
 31
0.0
  0
LINE
  5
945
330
1F
100
AcDbEntity
  8
0
100
AcDbLine
 10
209.184549623015
 20
226.6138137437264
 30
0.0
 11
208.1845496230148
 21
226.6138137437264
 31
0.0
  0
LINE
  5
946
330
1F
100
AcDbEntity
  8
0
100
AcDbLine
 10
208.1845496230148
 20
226.6138137437264
 30
0.0
 11
208.1845496230148
 21
223.9738144774169
 31
0.0
  0
LINE
  5
947
330
1F
100
AcDbEntity
  8
0
100
AcDbLine
 10
202.5845496230149
 20
276.9738137437264
 30
0.0
 11
206.059547444872
 21
276.9738137437264
 31
0.0
  0
LINE
  5
948
330
1F
100
AcDbEntity
  8
0
100
AcDbLine
 10
207.674645478633
 20
301.1338137437263
 30
0.0
 11
202.5845496230149
 21
301.1338137437263
 31
0.0
  0
LINE
  5
949
330
1F
100
AcDbEntity
  8
0
100
AcDbLine
 10
202.5845496230149
 20
301.1338137437263
 30
0.0
 11
202.5845496230149
 21
276.9738137437264
 31
0.0
  0
LINE
  5
94A
330
1F
100
AcDbEntity
  8
0
100
AcDbLine
 10
203.8845496230149
 20
235.8138137437264
 30
0.0
 11
203.8845496230149
 21
264.2738137437266
 31
0.0
  0
LINE
  5
94B
330
1F
100
AcDbEntity
  8
0
100
AcDbLine
 10
203.8845496230149
 20
239.9238137437265
 30
0.0
 11
208.1845496230148
 21
239.9238137437265
 31
0.0
  0
LINE
  5
94C
330
1F
100
AcDbEntity
  8
0
100
AcDbLine
 10
208.1845496230148
 20
235.8138137437264
 30
0.0
 11
203.8845496230149
 21
235.8138137437264
 31
0.0
  0
LINE
  5
94D
330
1F
100
AcDbEntity
  8
0
100
AcDbLine
 10
203.8845496230149
 20
260.1638137437265
 30
0.0
 11
209.184549623015
 21
260.1638137437265
 31
0.0
  0
LINE
  5
94E
330
1F
100
AcDbEntity
  8
0
100
AcDbLine
 10
203.8845496230149
 20
255.1638137437265
 30
0.0
 11
209.184549623015
 21
255.1638137437265
 31
0.0
  0
LINE
  5
94F
330
1F
100
AcDbEntity
  8
0
100
AcDbLine
 10
203.8845496230149
 20
247.5438137437266
 30
0.0
 11
209.184549623015
 21
247.5438137437266
 31
0.0
  0
LINE
  5
950
330
1F
100
AcDbEntity
  8
0
100
AcDbLine
 10
203.8845496230149
 20
252.5438137437264
 30
0.0
 11
209.184549623015
 21
252.5438137437264
 31
0.0
  0
LINE
  5
951
330
1F
100
AcDbEntity
  8
0
100
AcDbLine
 10
203.8845496230149
 20
244.9238137437264
 30
0.0
 11
208.3845496230153
 21
244.9238137437264
 31
0.0
  0
LINE
  5
952
330
1F
100
AcDbEntity
  8
0
100
AcDbLine
 10
208.3845496230153
 20
264.2738137437266
 30
0.0
 11
203.8845496230149
 21
264.2738137437266
 31
0.0
  0
LINE
  5
953
330
1F
100
AcDbEntity
  8
0
100
AcDbLine
 10
252.1845496230148
 20
351.9738137437265
 30
0.0
 11
254.1845496230151
 21
351.9738137437265
 31
0.0
  0
LINE
  5
954
330
1F
100
AcDbEntity
  8
0
100
AcDbLine
 10
325.1845496230139
 20
354.9738137437266
 30
0.0
 11
325.1845496230139
 21
364.9738137437267
 31
0.0
  0
LINE
  5
955
330
1F
100
AcDbEntity
  8
0
100
AcDbLine
 10
209.184549623015
 20
180.9738137437265
 30
0.0
 11
326.5724034661825
 21
180.9738137437265
 31
0.0
  0
LINE
  5
95D
330
1F
100
AcDbEntity
  8
0
100
AcDbLine
 10
208.1845496230148
 20
222.7738144774169
 30
0.0
 11
208.1845496230148
 21
221.6738144774168
 31
0.0
  0
LINE
  5
95E
330
1F
100
AcDbEntity
  8
0
100
AcDbLine
 10
208.1845496230148
 20
201.4738144774168
 30
0.0
 11
208.1845496230148
 21
200.3738144774168
 31
0.0
  0
LINE
  5
95F
330
1F
100
AcDbEntity
  8
0
100
AcDbLine
 10
208.1845496230148
 20
199.1738144774169
 30
0.0
 11
208.1845496230151
 21
191.4738144774166
 31
0.0
  0
LINE
  5
960
330
1F
100
AcDbEntity
  8
0
100
AcDbLine
 10
209.184549623015
 20
322.4138137437265
 30
0.0
 11
208.1801876821639
 21
322.4138137437265
 31
0.0
  0
LINE
  5
961
330
1F
100
AcDbEntity
  8
0
100
AcDbLine
 10
208.1801876821639
 20
322.4138137437265
 30
0.0
 11
208.1801876821639
 21
312.0381346657616
 31
0.0
  0
LINE
  5
962
330
1F
100
AcDbEntity
  8
0
100
AcDbLine
 10
209.184549623015
 20
233.1738144774169
 30
0.0
 11
208.1845496230148
 21
233.1738144774169
 31
0.0
  0
LINE
  5
963
330
1F
100
AcDbEntity
  8
0
100
AcDbLine
 10
208.1845496230148
 20
233.1738144774169
 30
0.0
 11
208.1845496230148
 21
241.573814477417
 31
0.0
  0
LINE
  5
964
330
1F
100
AcDbEntity
  8
0
100
AcDbLine
 10
208.1845496230148
 20
241.573814477417
 30
0.0
 11
209.184549623015
 21
241.573814477417
 31
0.0
  0
LINE
  5
965
330
1F
100
AcDbEntity
  8
0
100
AcDbLine
 10
209.184549623015
 20
243.0738144774168
 30
0.0
 11
208.3845496230153
 21
243.0738144774168
 31
0.0
  0
LINE
  5
966
330
1F
100
AcDbEntity
  8
0
100
AcDbLine
 10
208.3845496230153
 20
243.0738144774168
 30
0.0
 11
208.3845496230153
 21
246.073814477417
 31
0.0
  0
LINE
  5
967
330
1F
100
AcDbEntity
  8
0
100
AcDbLine
 10
208.3845496230153
 20
246.073814477417
 30
0.0
 11
209.184549623015
 21
246.073814477417
 31
0.0
  0
LINE
  5
968
330
1F
100
AcDbEntity
  8
0
100
AcDbLine
 10
209.184549623015
 20
263.073814477417
 30
0.0
 11
208.3845496230153
 21
263.073814477417
 31
0.0
  0
LINE
  5
969
330
1F
100
AcDbEntity
  8
0
100
AcDbLine
 10
208.3845496230153
 20
263.073814477417
 30
0.0
 11
208.3845496230153
 21
266.0738144774167
 31
0.0
  0
LINE
  5
96A
330
1F
100
AcDbEntity
  8
0
100
AcDbLine
 10
208.3845496230153
 20
266.0738144774167
 30
0.0
 11
209.184549623015
 21
266.0738144774167
 31
0.0
  0
LINE
  5
96B
330
1F
100
AcDbEntity
  8
0
100
AcDbLine
 10
209.184549623015
 20
328.9238144774166
 30
0.0
 11
205.7845496230152
 21
328.9238144774166
 31
0.0
  0
LINE
  5
96C
330
1F
100
AcDbEntity
  8
0
100
AcDbLine
 10
205.7845496230152
 20
328.9238144774166
 30
0.0
 11
205.7845496230152
 21
341.5238144774165
 31
0.0
  0
LINE
  5
96D
330
1F
100
AcDbEntity
  8
0
100
AcDbLine
 10
205.7845496230152
 20
341.5238144774165
 30
0.0
 11
209.184549623015
 21
341.5238144774165
 31
0.0
  0
LINE
  5
96E
330
1F
100
AcDbEntity
  8
0
100
AcDbLine
 10
98.63454962301524
 20
204.0900968863184
 30
0.0
 11
98.63454962301524
 21
219.0575306011353
 31
0.0
  0
LINE
  5
96F
330
1F
100
AcDbEntity
  8
0
100
AcDbLine
 10
92.33454962301513
 20
219.6738137437264
 30
0.0
 11
92.33454962301513
 21
203.4738137437264
 31
0.0
  0
LINE
  5
970
330
1F
100
AcDbEntity
  8
0
100
AcDbLine
 10
93.88454962301523
 20
220.1738137437263
 30
0.0
 11
93.88454962301523
 21
202.9738137437262
 31
0.0
  0
LINE
  5
971
330
1F
100
AcDbEntity
  8
0
100
AcDbLine
 10
97.08454962301516
 20
202.9738137437262
 30
0.0
 11
97.08454962301516
 21
220.1738137437263
 31
0.0
  0
LINE
  5
972
330
1F
100
AcDbEntity
  8
0
100
AcDbLine
 10
90.88454962301524
 20
229.1738137437262
 30
0.0
 11
90.88454962301524
 21
193.9738137437263
 31
0.0
  0
LINE
  5
973
330
1F
100
AcDbEntity
  8
0
100
AcDbLine
 10
99.98454962301511
 20
192.9738137437263
 30
0.0
 11
99.98454962301511
 21
230.1738137437264
 31
0.0
  0
LINE
  5
974
330
1F
100
AcDbEntity
  8
0
100
AcDbLine
 10
101.184549744933
 20
230.6738135843823
 30
0.0
 11
101.184549744933
 21
185.1738135843824
 31
0.0
  0
LINE
  5
975
330
1F
100
AcDbEntity
  8
0
100
AcDbLine
 10
89.78454974493217
 20
230.6738135843823
 30
0.0
 11
89.78454974493217
 21
185.1738135843824
 31
0.0
  0
LINE
  5
976
330
1F
100
AcDbEntity
  8
0
100
AcDbLine
 10
100.284549623015
 20
230.6738135843823
 30
0.0
 11
100.284549623015
 21
185.1738135843824
 31
0.0
  0
LINE
  5
977
330
1F
100
AcDbEntity
  8
0
100
AcDbLine
 10
74.78454974493217
 20
239.5738135843824
 30
0.0
 11
74.78454974493217
 21
185.1738135843824
 31
0.0
  0
LINE
  5
978
330
1F
100
AcDbEntity
  8
0
100
AcDbLine
 10
73.88454962301421
 20
185.9738137437263
 30
0.0
 11
73.88454962301421
 21
226.6138137437263
 31
0.0
  0
LINE
  5
979
330
1F
100
AcDbEntity
  8
0
100
AcDbLine
 10
65.28454962301418
 20
226.6138137437263
 30
0.0
 11
65.28454962301418
 21
185.9738137437263
 31
0.0
  0
LINE
  5
97A
330
1F
100
AcDbEntity
  8
0
100
AcDbLine
 10
64.18454974493214
 20
271.4738135843822
 30
0.0
 11
64.18454974493214
 21
185.1738135843824
 31
0.0
  0
LINE
  5
97B
330
1F
100
AcDbEntity
  8
0
100
AcDbLine
 10
65.28454962301509
 20
185.1738135843824
 30
0.0
 11
65.28454962301509
 21
271.4738135843822
 31
0.0
  0
LINE
  5
97C
330
1F
100
AcDbEntity
  8
0
100
AcDbLine
 10
56.18454962301519
 20
201.6069941686394
 30
0.0
 11
56.18454962301519
 21
354.9476278221571
 31
0.0
  0
LINE
  5
97D
330
1F
100
AcDbEntity
  8
0
100
AcDbLine
 10
57.18454962301518
 20
354.9738137437263
 30
0.0
 11
57.18454962301414
 21
202.355594203764
 31
0.0
  0
LINE
  5
97E
330
1F
100
AcDbEntity
  8
0
100
AcDbLine
 10
59.18454962301519
 20
352.9738137437263
 30
0.0
 11
59.18454962301414
 21
203.5595097612303
 31
0.0
  0
LINE
  5
97F
330
1F
100
AcDbEntity
  8
0
100
AcDbLine
 10
56.18454962301519
 20
201.6069941686403
 30
0.0
 11
56.18454962301519
 21
354.4738137437263
 31
0.0
  0
LINE
  5
980
330
1F
100
AcDbEntity
  8
0
100
AcDbLine
 10
59.28454962301419
 20
352.7738137437263
 30
0.0
 11
59.28454962301419
 21
203.6659135320253
 31
0.0
  0
LINE
  5
981
330
1F
100
AcDbEntity
  8
0
100
AcDbLine
 10
109.1845496230151
 20
363.9738137437258
 30
0.0
 11
109.1845496230151
 21
171.9738137437263
 31
0.0
  0
LINE
  5
982
330
1F
100
AcDbEntity
  8
0
100
AcDbLine
 10
107.1845496230151
 20
182.9738137437264
 30
0.0
 11
107.1845496230151
 21
352.9738137437263
 31
0.0
  0
LINE
  5
983
330
1F
100
AcDbEntity
  8
0
100
AcDbLine
 10
109.1845496230151
 20
180.9738137437264
 30
0.0
 11
109.1845496230151
 21
354.9738137437263
 31
0.0
  0
LINE
  5
984
330
1F
100
AcDbEntity
  8
0
100
AcDbLine
 10
106.8845496230139
 20
352.7738137437263
 30
0.0
 11
106.8845496230139
 21
183.173813743726
 31
0.0
  0
LINE
  5
985
330
1F
100
AcDbEntity
  8
0
100
AcDbLine
 10
37.18454962301517
 20
363.5283102845594
 30
0.0
 11
37.18454962301517
 21
172.4193172028934
 31
0.0
  0
ARC
  5
986
330
1F
100
AcDbEntity
  8
0
100
AcDbCircle
 10
80.18454962301516
 20
175.9738137437263
 30
0.0
 40
5.5
100
AcDbArc
 50
0.0
 51
65.380022671345
  0
LINE
  5
988
330
1F
100
AcDbEntity
  8
0
100
AcDbLine
 10
57.18454962301414
 20
180.9738137437264
 30
0.0
 11
109.1845496230151
 21
180.9738137437264
 31
0.0
  0
LINE
  5
989
330
1F
100
AcDbEntity
  8
0
100
AcDbLine
 10
107.1845496230151
 20
182.9738137437264
 30
0.0
 11
62.18454962301017
 21
182.9738137437264
 31
0.0
  0
LINE
  5
98A
330
1F
100
AcDbEntity
  8
0
100
AcDbLine
 10
62.28454962301009
 20
183.173813743726
 30
0.0
 11
106.8845496230139
 21
183.173813743726
 31
0.0
  0
LINE
  5
98B
330
1F
100
AcDbEntity
  8
0
100
AcDbLine
 10
37.6714611488611
 20
181.4324101049454
 30
0.0
 11
55.18454962301518
 21
180.9738137437264
 31
0.0
  0
LINE
  5
98C
330
1F
100
AcDbEntity
  8
0
100
AcDbLine
 10
55.18454962301518
 20
170.9738137437263
 30
0.0
 11
38.15837267470703
 21
171.4196598779183
 31
0.0
  0
ARC
  5
98D
330
1F
100
AcDbEntity
  8
0
100
AcDbCircle
 10
38.18454962301519
 20
172.4193172028934
 30
0.0
 40
1.0
100
AcDbArc
 50
180.0
 51
268.5000000000038
  0
ARC
  5
98E
330
1F
100
AcDbEntity
  8
0
100
AcDbCircle
 10
37.68454962301518
 20
181.9322387674333
 30
0.0
 40
0.5
100
AcDbArc
 50
180.0
 51
268.5000000000038
  0
LINE
  5
98F
330
1F
100
AcDbEntity
  8
0
100
AcDbLine
 10
78.08454962301515
 20
175.9738137437263
 30
0.0
 11
78.08454962301515
 21
170.9738137437263
 31
0.0
  0
LINE
  5
990
330
1F
100
AcDbEntity
  8
0
100
AcDbLine
 10
82.2845496230151
 20
175.9738137437263
 30
0.0
 11
82.2845496230151
 21
170.9738137437263
 31
0.0
  0
LINE
  5
991
330
1F
100
AcDbEntity
  8
0
100
AcDbLine
 10
74.68454962301517
 20
175.9738137437263
 30
0.0
 11
74.68454962301517
 21
170.9738137437263
 31
0.0
  0
LINE
  5
992
330
1F
100
AcDbEntity
  8
0
100
AcDbLine
 10
55.18454962301518
 20
170.9738137437263
 30
0.0
 11
78.08454962301515
 21
170.9738137437263
 31
0.0
  0
LINE
  5
993
330
1F
100
AcDbEntity
  8
0
100
AcDbLine
 10
55.18454962301518
 20
170.9738137437263
 30
0.0
 11
77.93454962301519
 21
170.9738137437263
 31
0.0
  0
LINE
  5
994
330
1F
100
AcDbEntity
  8
0
100
AcDbLine
 10
74.78454974493217
 20
185.1738135843824
 30
0.0
 11
64.18454974493214
 21
185.1738135843824
 31
0.0
  0
LINE
  5
995
330
1F
100
AcDbEntity
  8
0
100
AcDbLine
 10
65.28454962301418
 20
185.9738137437263
 30
0.0
 11
73.88454962301421
 21
185.9738137437263
 31
0.0
  0
LINE
  5
996
330
1F
100
AcDbEntity
  8
0
100
AcDbLine
 10
59.18454962301109
 20
197.9738137437264
 30
0.0
 11
59.18454962301018
 21
181.0785574300034
 31
0.0
  0
LINE
  5
997
330
1F
100
AcDbEntity
  8
0
100
AcDbLine
 10
60.1845496230111
 20
197.9738137437264
 30
0.0
 11
60.18454962301017
 21
180.9738137437264
 31
0.0
  0
LINE
  5
998
330
1F
100
AcDbEntity
  8
0
100
AcDbLine
 10
62.18454962301109
 20
197.9738137437264
 30
0.0
 11
62.18454962301017
 21
182.9738137437264
 31
0.0
  0
LINE
  5
999
330
1F
100
AcDbEntity
  8
0
100
AcDbLine
 10
59.18454962301109
 20
197.9738137437264
 30
0.0
 11
59.18454962301018
 21
181.4738137437263
 31
0.0
  0
LINE
  5
99A
330
1F
100
AcDbEntity
  8
0
100
AcDbLine
 10
62.2845496230111
 20
197.9738137437264
 30
0.0
 11
62.28454962301009
 21
183.173813743726
 31
0.0
  0
LINE
  5
99B
330
1F
100
AcDbEntity
  8
0
100
AcDbLine
 10
55.18454962301518
 20
180.9738137437264
 30
0.0
 11
59.18454962301018
 21
181.0785574300034
 31
0.0
  0
LINE
  5
99C
330
1F
100
AcDbEntity
  8
0
100
AcDbLine
 10
55.18454962301518
 20
180.9738137437264
 30
0.0
 11
59.18454962301109
 21
181.0785574300034
 31
0.0
  0
CIRCLE
  5
99D
330
1F
100
AcDbEntity
  8
0
100
AcDbCircle
 10
55.18454962301518
 20
185.9738137437263
 30
0.0
 40
1.6
  0
CIRCLE
  5
99E
330
1F
100
AcDbEntity
  8
0
100
AcDbCircle
 10
55.18454962301518
 20
185.9738137437263
 30
0.0
 40
2.0
  0
LINE
  5
99F
330
1F
100
AcDbEntity
  8
0
100
AcDbLine
 10
57.18454962301269
 20
181.0261855868643
 30
0.0
 11
57.18454962301414
 21
180.9738137437264
 31
0.0
  0
LINE
  5
9A0
330
1F
100
AcDbEntity
  8
0
100
AcDbLine
 10
60.18454962301017
 20
181.4738137437263
 30
0.0
 11
59.18454962301018
 21
181.4738137437258
 31
0.0
  0
ARC
  5
9A1
330
1F
100
AcDbEntity
  8
0
100
AcDbCircle
 10
55.48454962301513
 20
197.9738137437264
 30
0.0
 40
3.699999999995998
100
AcDbArc
 50
0.0
 51
79.0945300032607
  0
ARC
  5
9A2
330
1F
100
AcDbEntity
  8
0
100
AcDbCircle
 10
55.48454962301513
 20
197.9738137437264
 30
0.0
 40
4.699999999995998
100
AcDbArc
 50
0.0
 51
68.79523363710432
  0
ARC
  5
9A3
330
1F
100
AcDbEntity
  8
0
100
AcDbCircle
 10
55.48454962301513
 20
197.9738137437264
 30
0.0
 40
3.699999999995998
100
AcDbArc
 50
0.0
 51
79.0945300032607
  0
LINE
  5
9A4
330
1F
100
AcDbEntity
  8
0
100
AcDbLine
 10
53.53454962301508
 20
203.9738137437264
 30
0.0
 11
53.53454962301508
 21
205.3238137437263
 31
0.0
  0
LINE
  5
9A5
330
1F
100
AcDbEntity
  8
0
100
AcDbLine
 10
53.83454962301414
 20
203.9738137437264
 30
0.0
 11
53.83454962301414
 21
205.3238137437263
 31
0.0
  0
ARC
  5
9A6
330
1F
100
AcDbEntity
  8
0
100
AcDbCircle
 10
53.68454962301519
 20
205.3238137437263
 30
0.0
 40
0.15
100
AcDbArc
 50
0.0
 51
180.0
  0
ARC
  5
9A7
330
1F
100
AcDbEntity
  8
0
100
AcDbCircle
 10
55.0345496230151
 20
203.8238137437263
 30
0.0
 40
0.15
100
AcDbArc
 50
270.0
 51
90.0
  0
LINE
  5
9A8
330
1F
100
AcDbEntity
  8
0
100
AcDbLine
 10
53.83454962301414
 20
203.9738137437264
 30
0.0
 11
55.0345496230151
 21
203.9738137437264
 31
0.0
  0
LINE
  5
9A9
330
1F
100
AcDbEntity
  8
0
100
AcDbLine
 10
52.73454962301514
 20
203.3238137437263
 30
0.0
 11
54.6345496230142
 21
203.3238137437263
 31
0.0
  0
LINE
  5
9AA
330
1F
100
AcDbEntity
  8
0
100
AcDbLine
 10
52.73454962301514
 20
203.0238137437264
 30
0.0
 11
54.6345496230142
 21
203.0238137437264
 31
0.0
  0
LINE
  5
9AB
330
1F
100
AcDbEntity
  8
0
100
AcDbLine
 10
53.13454962301523
 20
202.673813743726
 30
0.0
 11
54.23454962301423
 21
202.673813743726
 31
0.0
  0
LINE
  5
9AC
330
1F
100
AcDbEntity
  8
0
100
AcDbLine
 10
53.13454962301523
 20
202.3738137437263
 30
0.0
 11
54.23454962301423
 21
202.3738137437263
 31
0.0
  0
ARC
  5
9AD
330
1F
100
AcDbEntity
  8
0
100
AcDbCircle
 10
53.13454962301523
 20
202.5238137437264
 30
0.0
 40
0.15
100
AcDbArc
 50
90.0
 51
270.0
  0
ARC
  5
9AE
330
1F
100
AcDbEntity
  8
0
100
AcDbCircle
 10
54.23454962301423
 20
202.5238137437264
 30
0.0
 40
0.15
100
AcDbArc
 50
270.0
 51
90.0
  0
ARC
  5
9AF
330
1F
100
AcDbEntity
  8
0
100
AcDbCircle
 10
52.73454962301514
 20
203.1738137437264
 30
0.0
 40
0.15
100
AcDbArc
 50
90.0
 51
270.0
  0
ARC
  5
9B0
330
1F
100
AcDbEntity
  8
0
100
AcDbCircle
 10
54.6345496230142
 20
203.1738137437264
 30
0.0
 40
0.15
100
AcDbArc
 50
270.0
 51
90.0
  0
ARC
  5
9B1
330
1F
100
AcDbEntity
  8
0
100
AcDbCircle
 10
52.33454962301514
 20
203.8238137437263
 30
0.0
 40
0.15
100
AcDbArc
 50
90.0
 51
270.0
  0
CIRCLE
  5
9B2
330
1F
100
AcDbEntity
  8
0
100
AcDbCircle
 10
53.68454962301519
 20
203.9738137437264
 30
0.0
 40
2.149999999999999
  0
CIRCLE
  5
9B3
330
1F
100
AcDbEntity
  8
0
100
AcDbCircle
 10
53.68454962301519
 20
203.9738137437264
 30
0.0
 40
1.85
  0
LINE
  5
9B4
330
1F
100
AcDbEntity
  8
0
100
AcDbLine
 10
52.33454962301514
 20
203.6738137437263
 30
0.0
 11
55.0345496230151
 21
203.6738137437263
 31
0.0
  0
LINE
  5
9B5
330
1F
100
AcDbEntity
  8
0
100
AcDbLine
 10
52.33454962301514
 20
203.9738137437264
 30
0.0
 11
53.53454962301508
 21
203.9738137437264
 31
0.0
  0
CIRCLE
  5
9B6
330
1F
100
AcDbEntity
  8
0
100
AcDbCircle
 10
55.18454962301518
 20
195.9738137437263
 30
0.0
 40
2.0
  0
CIRCLE
  5
9B7
330
1F
100
AcDbEntity
  8
0
100
AcDbCircle
 10
55.18454962301518
 20
195.9738137437263
 30
0.0
 40
1.6
  0
ARC
  5
9B8
330
1F
100
AcDbEntity
  8
0
100
AcDbCircle
 10
55.48454962301513
 20
197.9738137437264
 30
0.0
 40
6.699999999996
100
AcDbArc
 50
0.0
 51
56.47925960398229
  0
ARC
  5
9B9
330
1F
100
AcDbEntity
  8
0
100
AcDbCircle
 10
55.3845496230142
 20
197.9738137437264
 30
0.0
 40
6.899999999996
100
AcDbArc
 50
0.0
 51
55.58261128953759
  0
CIRCLE
  5
9BA
330
1F
100
AcDbEntity
  8
0
100
AcDbCircle
 10
69.28454962301414
 20
193.5938137437263
 30
0.0
 40
2.0
  0
ARC
  5
9BB
330
1F
100
AcDbEntity
  8
0
100
AcDbCircle
 10
80.18454962301516
 20
175.9738137437263
 30
0.0
 40
5.5
100
AcDbArc
 50
114.619977328655
 51
179.9999999999966
  0
CIRCLE
  5
9BC
330
1F
100
AcDbEntity
  8
0
100
AcDbCircle
 10
69.28454962301414
 20
188.8438137437263
 30
0.0
 40
1.0
  0
CIRCLE
  5
9BD
330
1F
100
AcDbEntity
  8
0
100
AcDbCircle
 10
69.28454962301414
 20
188.8438137437263
 30
0.0
 40
1.5
  0
ARC
  5
9BE
330
1F
100
AcDbEntity
  8
0
100
AcDbCircle
 10
80.18454962301516
 20
175.9738137437263
 30
0.0
 40
2.1
100
AcDbArc
 50
0.0
 51
180.0
  0
CIRCLE
  5
9BF
330
1F
100
AcDbEntity
  8
0
100
AcDbCircle
 10
69.28454962301414
 20
203.7538137437274
 30
0.0
 40
2.0
  0
CIRCLE
  5
9C0
330
1F
100
AcDbEntity
  8
0
100
AcDbCircle
 10
69.28454962301414
 20
203.7538137437274
 30
0.0
 40
2.0
  0
CIRCLE
  5
9C1
330
1F
100
AcDbEntity
  8
0
100
AcDbCircle
 10
69.28454962301414
 20
198.6738137437263
 30
0.0
 40
2.0
  0
CIRCLE
  5
9C2
330
1F
100
AcDbEntity
  8
0
100
AcDbCircle
 10
69.28454962301414
 20
198.6738137437263
 30
0.0
 40
2.0
  0
CIRCLE
  5
9C3
330
1F
100
AcDbEntity
  8
0
100
AcDbCircle
 10
69.28454962301414
 20
208.8338137437263
 30
0.0
 40
2.0
  0
LINE
  5
9C5
330
1F
100
AcDbEntity
  8
0
100
AcDbLine
 10
85.68454962301519
 20
175.9738137437263
 30
0.0
 11
85.68454962301519
 21
170.9738137437263
 31
0.0
  0
LINE
  5
9CB
330
1F
100
AcDbEntity
  8
0
100
AcDbLine
 10
82.2845496230151
 20
170.9738137437263
 30
0.0
 11
108.1845496230151
 21
170.9738137437263
 31
0.0
  0
ARC
  5
9CD
330
1F
100
AcDbEntity
  8
0
100
AcDbCircle
 10
108.1845496230151
 20
171.9738137437263
 30
0.0
 40
1.0
100
AcDbArc
 50
270.0
 51
0.0
  0
LINE
  5
9CE
330
1F
100
AcDbEntity
  8
0
100
AcDbLine
 10
100.2845496230138
 20
191.4738137437263
 30
0.0
 11
93.78454962301416
 21
191.4738137437263
 31
0.0
  0
LINE
  5
9CF
330
1F
100
AcDbEntity
  8
0
100
AcDbLine
 10
91.68454962301515
 20
192.9738137437263
 30
0.0
 11
99.98454962301511
 21
192.9738137437263
 31
0.0
  0
LINE
  5
9D0
330
1F
100
AcDbEntity
  8
0
100
AcDbLine
 10
90.88454962301524
 20
193.9738137437263
 30
0.0
 11
99.98454962301511
 21
193.9738137437263
 31
0.0
  0
LINE
  5
9D1
330
1F
100
AcDbEntity
  8
0
100
AcDbLine
 10
93.78454962301416
 20
185.9738137437263
 30
0.0
 11
100.2845496230138
 21
185.9738137437263
 31
0.0
  0
LINE
  5
9D2
330
1F
100
AcDbEntity
  8
0
100
AcDbLine
 10
101.184549744933
 20
185.1738135843824
 30
0.0
 11
89.78454974493217
 21
185.1738135843824
 31
0.0
  0
CIRCLE
  5
9D4
330
1F
100
AcDbEntity
  8
0
100
AcDbCircle
 10
96.85454962301413
 20
189.9738137437264
 30
0.0
 40
0.32
  0
LINE
  5
9D5
330
1F
100
AcDbEntity
  8
0
100
AcDbLine
 10
94.78454962301418
 20
189.4738137437263
 30
0.0
 11
93.78454962301416
 21
189.4738137437263
 31
0.0
  0
CIRCLE
  5
9D6
330
1F
100
AcDbEntity
  8
0
100
AcDbCircle
 10
96.85454962301413
 20
187.4738137437264
 30
0.0
 40
0.32
  0
LINE
  5
9D7
330
1F
100
AcDbEntity
  8
0
100
AcDbLine
 10
93.78454962301416
 20
187.9738137437263
 30
0.0
 11
94.78454962301418
 21
187.9738137437263
 31
0.0
  0
LINE
  5
9D8
330
1F
100
AcDbEntity
  8
0
100
AcDbLine
 10
93.78454962301416
 20
185.9738137437263
 30
0.0
 11
94.78454962301418
 21
185.9738137437263
 31
0.0
  0
LINE
  5
9D9
330
1F
100
AcDbEntity
  8
0
100
AcDbLine
 10
94.78454962301418
 20
187.9738137437263
 30
0.0
 11
94.78454962301418
 21
189.4738137437263
 31
0.0
  0
LINE
  5
9DA
330
1F
100
AcDbEntity
  8
0
100
AcDbLine
 10
93.78454962301416
 20
189.4738137437263
 30
0.0
 11
93.78454962301416
 21
187.9738137437263
 31
0.0
  0
LINE
  5
9DB
330
1F
100
AcDbEntity
  8
0
100
AcDbLine
 10
94.78454962301418
 20
185.9738137437263
 30
0.0
 11
94.78454962301418
 21
191.4738137437263
 31
0.0
  0
LINE
  5
9DC
330
1F
100
AcDbEntity
  8
0
100
AcDbLine
 10
93.78454962301416
 20
191.4738137437263
 30
0.0
 11
93.78454962301416
 21
185.9738137437263
 31
0.0
  0
ARC
  5
9DD
330
1F
100
AcDbEntity
  8
0
100
AcDbCircle
 10
91.68454962301515
 20
193.4738137437264
 30
0.0
 40
0.5
100
AcDbArc
 50
180.0
 51
270.0
  0
LINE
  5
9DE
330
1F
100
AcDbEntity
  8
0
100
AcDbLine
 10
91.1845496230152
 20
193.9738137437263
 30
0.0
 11
91.1845496230152
 21
193.4738137437264
 31
0.0
  0
ARC
  5
9DF
330
1F
100
AcDbEntity
  8
0
100
AcDbCircle
 10
96.63454962301523
 20
204.0900968863184
 30
0.0
 40
2.0
100
AcDbArc
 50
285.0000000000008
 51
0.0
  0
LINE
  5
9E0
330
1F
100
AcDbEntity
  8
0
100
AcDbLine
 10
98.63454962301524
 20
197.9738137437264
 30
0.0
 11
98.63454962301524
 21
200.3738137437263
 31
0.0
  0
ARC
  5
9E1
330
1F
100
AcDbEntity
  8
0
100
AcDbCircle
 10
94.33454962301516
 20
203.4738137437264
 30
0.0
 40
2.0
100
AcDbArc
 50
180.0
 51
285.0000000000008
  0
LINE
  5
9E2
330
1F
100
AcDbEntity
  8
0
100
AcDbLine
 10
92.33454962301513
 20
200.3738137437263
 30
0.0
 11
92.33454962301513
 21
197.9738137437264
 31
0.0
  0
LINE
  5
9E3
330
1F
100
AcDbEntity
  8
0
100
AcDbLine
 10
94.85218771322012
 20
201.5419620911481
 30
0.0
 11
97.15218771322021
 21
202.1582452337393
 31
0.0
  0
LINE
  5
9E4
330
1F
100
AcDbEntity
  8
0
100
AcDbLine
 10
93.88454962301523
 20
202.9738137437262
 30
0.0
 11
97.08454962301516
 21
202.9738137437262
 31
0.0
  0
LINE
  5
9E5
330
1F
100
AcDbEntity
  8
0
100
AcDbLine
 10
92.33454962301513
 20
200.3738137437263
 30
0.0
 11
98.63454962301524
 21
200.3738137437263
 31
0.0
  0
LINE
  5
9E6
330
1F
100
AcDbEntity
  8
0
100
AcDbLine
 10
92.33454962301513
 20
198.4738137437263
 30
0.0
 11
98.63454962301524
 21
198.4738137437263
 31
0.0
  0
LINE
  5
9E7
330
1F
100
AcDbEntity
  8
0
100
AcDbLine
 10
92.33454962301513
 20
197.9738137437264
 30
0.0
 11
98.63454962301524
 21
197.9738137437264
 31
0.0
  0
CIRCLE
  5
9E8
330
1F
100
AcDbEntity
  8
0
100
AcDbCircle
 10
95.4845496230151
 20
195.9438137437263
 30
0.0
 40
1.399999999999999
  0
LINE
  5
9EA
330
1F
100
AcDbEntity
  8
0
100
AcDbLine
 10
100.2845496230138
 20
185.9738137437263
 30
0.0
 11
100.2845496230138
 21
191.4738137437263
 31
0.0
  0
LINE
  5
9EB
330
1F
100
AcDbEntity
  8
0
100
AcDbLine
 10
99.98454962301511
 20
210.3038137437274
 30
0.0
 11
100.284549623015
 21
210.3038137437274
 31
0.0
  0
LINE
  5
9EC
330
1F
100
AcDbEntity
  8
0
100
AcDbLine
 10
99.98454962301511
 20
209.0338137437274
 30
0.0
 11
100.284549623015
 21
209.0338137437274
 31
0.0
  0
LINE
  5
9ED
330
1F
100
AcDbEntity
  8
0
100
AcDbLine
 10
99.98454962301511
 20
207.7638137437271
 30
0.0
 11
100.284549623015
 21
207.7638137437271
 31
0.0
  0
LINE
  5
9EE
330
1F
100
AcDbEntity
  8
0
100
AcDbLine
 10
99.98454962301511
 20
207.7638137437271
 30
0.0
 11
100.284549623015
 21
207.7638137437271
 31
0.0
  0
LINE
  5
9EF
330
1F
100
AcDbEntity
  8
0
100
AcDbLine
 10
99.98454962301511
 20
206.4938137437274
 30
0.0
 11
100.284549623015
 21
206.4938137437274
 31
0.0
  0
LINE
  5
9F0
330
1F
100
AcDbEntity
  8
0
100
AcDbLine
 10
99.98454962301511
 20
205.2238137437273
 30
0.0
 11
100.284549623015
 21
205.2238137437273
 31
0.0
  0
LINE
  5
9F1
330
1F
100
AcDbEntity
  8
0
100
AcDbLine
 10
99.98454962301511
 20
203.9538137437271
 30
0.0
 11
100.284549623015
 21
203.9538137437271
 31
0.0
  0
LINE
  5
9F2
330
1F
100
AcDbEntity
  8
0
100
AcDbLine
 10
99.98454962301511
 20
200.3738137437263
 30
0.0
 11
100.284549623015
 21
200.3738137437263
 31
0.0
  0
ARC
  5
9F3
330
1F
100
AcDbEntity
  8
0
100
AcDbCircle
 10
99.98454962301511
 20
193.2738137437264
 30
0.0
 40
0.3
100
AcDbArc
 50
270.0
 51
0.0
  0
LINE
  5
9F4
330
1F
100
AcDbEntity
  8
0
100
AcDbLine
 10
100.284549623015
 20
200.3738137437263
 30
0.0
 11
100.284549623015
 21
193.2738137437264
 31
0.0
  0
ARC
  5
9F5
330
1F
100
AcDbEntity
  8
0
100
AcDbCircle
 10
80.18454962301516
 20
359.9738137437263
 30
0.0
 40
5.5
100
AcDbArc
 50
294.619977328655
 51
0.0
  0
LINE
  5
9F6
330
1F
100
AcDbEntity
  8
0
100
AcDbLine
 10
55.18454962301518
 20
364.9738137437263
 30
0.0
 11
108.1845496230151
 21
364.9738137437263
 31
0.0
  0
LINE
  5
9F7
330
1F
100
AcDbEntity
  8
0
100
AcDbLine
 10
57.18454962301518
 20
354.9738137437263
 30
0.0
 11
109.1845496230151
 21
354.9738137437263
 31
0.0
  0
LINE
  5
9F8
330
1F
100
AcDbEntity
  8
0
100
AcDbLine
 10
107.1845496230151
 20
352.9738137437263
 30
0.0
 11
59.18454962301519
 21
352.9738137437263
 31
0.0
  0
LINE
  5
9F9
330
1F
100
AcDbEntity
  8
0
100
AcDbLine
 10
106.8845496230139
 20
352.7738137437263
 30
0.0
 11
59.28454962301419
 21
352.7738137437263
 31
0.0
  0
LINE
  5
9FA
330
1F
100
AcDbEntity
  8
0
100
AcDbLine
 10
55.18454962301518
 20
364.9738137437263
 30
0.0
 11
108.1845496230151
 21
364.9738137437263
 31
0.0
  0
CIRCLE
  5
9FB
330
1F
100
AcDbEntity
  8
0
100
AcDbCircle
 10
80.18454962301516
 20
359.9738137437263
 30
0.0
 40
2.1
  0
LINE
  5
9FC
330
1F
100
AcDbEntity
  8
0
100
AcDbLine
 10
74.68454962301517
 20
359.9738137437263
 30
0.0
 11
74.68454962301517
 21
364.9738137437263
 31
0.0
  0
LINE
  5
9FD
330
1F
100
AcDbEntity
  8
0
100
AcDbLine
 10
76.1295496230142
 20
301.1338137437261
 30
0.0
 11
76.1295496230142
 21
276.9738137437264
 31
0.0
  0
LINE
  5
9FE
330
1F
100
AcDbEntity
  8
0
100
AcDbLine
 10
76.58454974493213
 20
302.173813584382
 30
0.0
 11
76.58454974493213
 21
275.973813584382
 31
0.0
  0
LINE
  5
9FF
330
1F
100
AcDbEntity
  8
0
100
AcDbLine
 10
67.78454962301418
 20
301.1338137437261
 30
0.0
 11
67.78454962301418
 21
276.9738137437264
 31
0.0
  0
LINE
  5
A00
330
1F
100
AcDbEntity
  8
0
100
AcDbLine
 10
74.76954962301419
 20
301.1338137437261
 30
0.0
 11
74.76954962301419
 21
276.9738137437264
 31
0.0
  0
LINE
  5
A01
330
1F
100
AcDbEntity
  8
0
100
AcDbLine
 10
66.78454962301419
 20
301.1338137437261
 30
0.0
 11
66.78454962301419
 21
276.9738137437264
 31
0.0
  0
LINE
  5
A02
330
1F
100
AcDbEntity
  8
0
100
AcDbLine
 10
64.18454974493214
 20
302.173813584382
 30
0.0
 11
64.18454974493214
 21
275.973813584382
 31
0.0
  0
LINE
  5
A03
330
1F
100
AcDbEntity
  8
0
100
AcDbLine
 10
65.28454962301509
 20
275.973813584382
 30
0.0
 11
65.28454962301509
 21
302.173813584382
 31
0.0
  0
LINE
  5
A04
330
1F
100
AcDbEntity
  8
0
100
AcDbLine
 10
72.28454962301419
 20
252.5438137437264
 30
0.0
 11
72.28454962301419
 21
247.5438137437262
 31
0.0
  0
LINE
  5
A05
330
1F
100
AcDbEntity
  8
0
100
AcDbLine
 10
67.28454962301419
 20
251.7538137437264
 30
0.0
 11
67.28454962301419
 21
248.3338137437263
 31
0.0
  0
LINE
  5
A06
330
1F
100
AcDbEntity
  8
0
100
AcDbLine
 10
74.78454974493217
 20
256.5738135843823
 30
0.0
 11
74.78454974493217
 21
243.1738135843823
 31
0.0
  0
LINE
  5
A07
330
1F
100
AcDbEntity
  8
0
100
AcDbLine
 10
73.78454962301418
 20
234.6138137437264
 30
0.0
 11
73.78454962301418
 21
265.1138137437262
 31
0.0
  0
LINE
  5
A08
330
1F
100
AcDbEntity
  8
0
100
AcDbLine
 10
65.28454962301418
 20
270.473813743726
 30
0.0
 11
65.28454962301418
 21
229.6138137437262
 31
0.0
  0
ARC
  5
A09
330
1F
100
AcDbEntity
  8
0
100
AcDbCircle
 10
69.28454962301414
 20
238.6138137437263
 30
0.0
 40
2.9
100
AcDbArc
 50
133.6028189726988
 51
226.3971810273009
  0
LINE
  5
A0A
330
1F
100
AcDbEntity
  8
0
100
AcDbLine
 10
65.28454962301418
 20
229.6138137437262
 30
0.0
 11
72.28454962301419
 21
229.6138137437262
 31
0.0
  0
LINE
  5
A0B
330
1F
100
AcDbEntity
  8
0
100
AcDbLine
 10
65.28454962301418
 20
229.6138137437262
 30
0.0
 11
72.28454962301419
 21
229.6138137437262
 31
0.0
  0
LINE
  5
A0C
330
1F
100
AcDbEntity
  8
0
100
AcDbLine
 10
73.88454962301421
 20
226.6138137437263
 30
0.0
 11
65.28454962301418
 21
226.6138137437263
 31
0.0
  0
ARC
  5
A0D
330
1F
100
AcDbEntity
  8
0
100
AcDbCircle
 10
69.28454962301414
 20
246.2338137437264
 30
0.0
 40
2.9
100
AcDbArc
 50
133.6028189726988
 51
226.3971810273009
  0
LINE
  5
A0E
330
1F
100
AcDbEntity
  8
0
100
AcDbLine
 10
65.28454962301418
 20
234.8538137437262
 30
0.0
 11
65.28454962301418
 21
229.6138137437262
 31
0.0
  0
LINE
  5
A0F
330
1F
100
AcDbEntity
  8
0
100
AcDbLine
 10
72.28454962301419
 20
229.6138137437262
 30
0.0
 11
72.28454962301419
 21
234.6138137437264
 31
0.0
  0
LINE
  5
A10
330
1F
100
AcDbEntity
  8
0
100
AcDbLine
 10
72.28454962301419
 20
229.6138137437262
 30
0.0
 11
72.28454962301419
 21
234.8538137437262
 31
0.0
  0
CIRCLE
  5
A11
330
1F
100
AcDbEntity
  8
0
100
AcDbCircle
 10
69.28454962301414
 20
223.7438137437273
 30
0.0
 40
1.0
  0
CIRCLE
  5
A12
330
1F
100
AcDbEntity
  8
0
100
AcDbCircle
 10
69.28454962301414
 20
223.7438137437273
 30
0.0
 40
1.5
  0
CIRCLE
  5
A13
330
1F
100
AcDbEntity
  8
0
100
AcDbCircle
 10
69.28454962301414
 20
213.9138137437263
 30
0.0
 40
2.0
  0
CIRCLE
  5
A14
330
1F
100
AcDbEntity
  8
0
100
AcDbCircle
 10
69.28454962301414
 20
213.9138137437263
 30
0.0
 40
2.0
  0
CIRCLE
  5
A15
330
1F
100
AcDbEntity
  8
0
100
AcDbCircle
 10
69.28454962301414
 20
218.9938137437273
 30
0.0
 40
2.0
  0
LINE
  5
A16
330
1F
100
AcDbEntity
  8
0
100
AcDbLine
 10
74.78454974493217
 20
243.1738135843823
 30
0.0
 11
76.3845497449321
 21
243.1738135843823
 31
0.0
  0
LINE
  5
A17
330
1F
100
AcDbEntity
  8
0
100
AcDbLine
 10
73.78454962301418
 20
242.1638137437263
 30
0.0
 11
75.48454962301423
 21
242.1638137437263
 31
0.0
  0
LINE
  5
A18
330
1F
100
AcDbEntity
  8
0
100
AcDbLine
 10
75.48454962301423
 20
240.5638137437263
 30
0.0
 11
73.78454962301418
 21
240.5638137437263
 31
0.0
  0
LINE
  5
A19
330
1F
100
AcDbEntity
  8
0
100
AcDbLine
 10
74.78454974493217
 20
239.5738135843824
 30
0.0
 11
76.3845497449321
 21
239.5738135843824
 31
0.0
  0
LINE
  5
A1A
330
1F
100
AcDbEntity
  8
0
100
AcDbLine
 10
71.48454962301423
 20
247.5438137437262
 30
0.0
 11
72.28454962301419
 21
247.5438137437262
 31
0.0
  0
LINE
  5
A1B
330
1F
100
AcDbEntity
  8
0
100
AcDbLine
 10
71.48454962301423
 20
244.9238137437264
 30
0.0
 11
72.28454962301419
 21
244.9238137437264
 31
0.0
  0
LINE
  5
A1C
330
1F
100
AcDbEntity
  8
0
100
AcDbLine
 10
71.48454962301423
 20
247.5438137437262
 30
0.0
 11
71.48454962301423
 21
244.9238137437264
 31
0.0
  0
CIRCLE
  5
A1D
330
1F
100
AcDbEntity
  8
0
100
AcDbCircle
 10
69.28454962301414
 20
246.2338137437264
 30
0.0
 40
0.75
  0
LINE
  5
A1E
330
1F
100
AcDbEntity
  8
0
100
AcDbLine
 10
71.48454962301423
 20
239.923813743726
 30
0.0
 11
72.28454962301419
 21
239.923813743726
 31
0.0
  0
LINE
  5
A1F
330
1F
100
AcDbEntity
  8
0
100
AcDbLine
 10
72.28454962301419
 20
234.6138137437264
 30
0.0
 11
73.78454962301418
 21
234.6138137437264
 31
0.0
  0
LINE
  5
A20
330
1F
100
AcDbEntity
  8
0
100
AcDbLine
 10
71.48454962301423
 20
237.3038137437263
 30
0.0
 11
72.28454962301419
 21
237.3038137437263
 31
0.0
  0
LINE
  5
A21
330
1F
100
AcDbEntity
  8
0
100
AcDbLine
 10
72.28454962301419
 20
237.3038137437263
 30
0.0
 11
72.28454962301419
 21
235.6138137437262
 31
0.0
  0
LINE
  5
A22
330
1F
100
AcDbEntity
  8
0
100
AcDbLine
 10
71.48454962301423
 20
239.923813743726
 30
0.0
 11
71.48454962301423
 21
237.3038137437263
 31
0.0
  0
LINE
  5
A23
330
1F
100
AcDbEntity
  8
0
100
AcDbLine
 10
67.28454962301419
 20
244.1338137437264
 30
0.0
 11
67.28454962301419
 21
240.7138137437263
 31
0.0
  0
LINE
  5
A24
330
1F
100
AcDbEntity
  8
0
100
AcDbLine
 10
67.28454962301419
 20
236.5138137437264
 30
0.0
 11
67.28454962301419
 21
235.6138137437262
 31
0.0
  0
CIRCLE
  5
A25
330
1F
100
AcDbEntity
  8
0
100
AcDbCircle
 10
69.28454962301414
 20
238.6138137437263
 30
0.0
 40
0.75
  0
CIRCLE
  5
A26
330
1F
100
AcDbEntity
  8
0
100
AcDbCircle
 10
69.24816356261111
 20
232.5138137437264
 30
0.0
 40
0.9
  0
LINE
  5
A27
330
1F
100
AcDbEntity
  8
0
100
AcDbLine
 10
67.28454962301419
 20
235.6138137437262
 30
0.0
 11
72.28454962301419
 21
235.6138137437262
 31
0.0
  0
CIRCLE
  5
A28
330
1F
100
AcDbEntity
  8
0
100
AcDbCircle
 10
69.28454962301414
 20
238.6138137437263
 30
0.0
 40
1.5
  0
CIRCLE
  5
A29
330
1F
100
AcDbEntity
  8
0
100
AcDbCircle
 10
69.24816356261111
 20
232.5138137437264
 30
0.0
 40
2.0
  0
LINE
  5
A2A
330
1F
100
AcDbEntity
  8
0
100
AcDbLine
 10
72.28454962301419
 20
244.9238137437264
 30
0.0
 11
72.28454962301419
 21
239.923813743726
 31
0.0
  0
CIRCLE
  5
A2B
330
1F
100
AcDbEntity
  8
0
100
AcDbCircle
 10
69.28454962301414
 20
246.2338137437264
 30
0.0
 40
1.5
  0
LINE
  5
A2C
330
1F
100
AcDbEntity
  8
0
100
AcDbLine
 10
75.48454962301423
 20
242.1638137437263
 30
0.0
 11
75.48454962301423
 21
240.5638137437263
 31
0.0
  0
LINE
  5
A2D
330
1F
100
AcDbEntity
  8
0
100
AcDbLine
 10
76.3845497449321
 20
243.1738135843823
 30
0.0
 11
76.3845497449321
 21
239.5738135843824
 31
0.0
  0
LINE
  5
A2E
330
1F
100
AcDbEntity
  8
0
100
AcDbLine
 10
66.78454962301419
 20
276.9738137437264
 30
0.0
 11
76.1295496230142
 21
276.9738137437264
 31
0.0
  0
LINE
  5
A2F
330
1F
100
AcDbEntity
  8
0
100
AcDbLine
 10
64.18454974493214
 20
271.4738135843822
 30
0.0
 11
74.78454974493217
 21
271.4738135843822
 31
0.0
  0
LINE
  5
A30
330
1F
100
AcDbEntity
  8
0
100
AcDbLine
 10
65.28454962301418
 20
270.473813743726
 30
0.0
 11
72.28454962301419
 21
270.473813743726
 31
0.0
  0
LINE
  5
A31
330
1F
100
AcDbEntity
  8
0
100
AcDbLine
 10
65.28454962301418
 20
270.473813743726
 30
0.0
 11
72.28454962301419
 21
270.473813743726
 31
0.0
  0
ARC
  5
A32
330
1F
100
AcDbEntity
  8
0
100
AcDbCircle
 10
69.28454962301414
 20
253.8538137437263
 30
0.0
 40
2.9
100
AcDbArc
 50
133.6028189726988
 51
226.3971810273009
  0
ARC
  5
A33
330
1F
100
AcDbEntity
  8
0
100
AcDbCircle
 10
69.28454962301414
 20
261.4738137437265
 30
0.0
 40
2.9
100
AcDbArc
 50
133.6028189726988
 51
226.3971810273009
  0
LINE
  5
A34
330
1F
100
AcDbEntity
  8
0
100
AcDbLine
 10
64.18454974493214
 20
275.973813584382
 30
0.0
 11
76.58454974493213
 21
275.973813584382
 31
0.0
  0
LINE
  5
A35
330
1F
100
AcDbEntity
  8
0
100
AcDbLine
 10
65.28454962301418
 20
265.2338137437264
 30
0.0
 11
65.28454962301418
 21
270.473813743726
 31
0.0
  0
LINE
  5
A36
330
1F
100
AcDbEntity
  8
0
100
AcDbLine
 10
66.78454962301419
 20
284.4738137437261
 30
0.0
 11
65.28454962301509
 21
284.4738137437261
 31
0.0
  0
LINE
  5
A37
330
1F
100
AcDbEntity
  8
0
100
AcDbLine
 10
65.28454962301509
 20
283.4738137437261
 30
0.0
 11
66.78454962301419
 21
283.4738137437261
 31
0.0
  0
LINE
  5
A38
330
1F
100
AcDbEntity
  8
0
100
AcDbLine
 10
66.78454962301419
 20
283.4738137437261
 30
0.0
 11
66.78454962301419
 21
284.4738137437261
 31
0.0
  0
LINE
  5
A39
330
1F
100
AcDbEntity
  8
0
100
AcDbLine
 10
66.78454962301419
 20
279.9738137437263
 30
0.0
 11
65.28454962301418
 21
279.9738137437263
 31
0.0
  0
LINE
  5
A3A
330
1F
100
AcDbEntity
  8
0
100
AcDbLine
 10
65.28454962301418
 20
276.9738137437264
 30
0.0
 11
66.78454962301419
 21
276.9738137437264
 31
0.0
  0
LINE
  5
A3B
330
1F
100
AcDbEntity
  8
0
100
AcDbLine
 10
66.78454962301419
 20
276.9738137437264
 30
0.0
 11
66.78454962301419
 21
277.9738137437263
 31
0.0
  0
LINE
  5
A3C
330
1F
100
AcDbEntity
  8
0
100
AcDbLine
 10
66.78454962301419
 20
276.9738137437264
 30
0.0
 11
66.78454962301419
 21
279.9738137437263
 31
0.0
  0
LINE
  5
A3D
330
1F
100
AcDbEntity
  8
0
100
AcDbLine
 10
65.28454962301418
 20
279.9738137437263
 30
0.0
 11
65.28454962301418
 21
276.9738137437264
 31
0.0
  0
LINE
  5
A3E
330
1F
100
AcDbEntity
  8
0
100
AcDbLine
 10
72.28454962301419
 20
265.4738137437263
 30
0.0
 11
72.28454962301419
 21
270.473813743726
 31
0.0
  0
LINE
  5
A3F
330
1F
100
AcDbEntity
  8
0
100
AcDbLine
 10
72.28454962301419
 20
270.473813743726
 30
0.0
 11
72.28454962301419
 21
265.2338137437264
 31
0.0
  0
CIRCLE
  5
A40
330
1F
100
AcDbEntity
  8
0
100
AcDbCircle
 10
69.28454962301414
 20
267.5738137437263
 30
0.0
 40
0.9
  0
CIRCLE
  5
A41
330
1F
100
AcDbEntity
  8
0
100
AcDbCircle
 10
69.28454962301414
 20
267.5738137437263
 30
0.0
 40
2.0
  0
LINE
  5
A42
330
1F
100
AcDbEntity
  8
0
100
AcDbLine
 10
74.78454974493217
 20
271.4738135843822
 30
0.0
 11
74.78454974493217
 21
260.1738135843823
 31
0.0
  0
LINE
  5
A43
330
1F
100
AcDbEntity
  8
0
100
AcDbLine
 10
74.78454974493217
 20
260.1738135843823
 30
0.0
 11
76.3845497449321
 21
260.1738135843823
 31
0.0
  0
LINE
  5
A44
330
1F
100
AcDbEntity
  8
0
100
AcDbLine
 10
75.48454962301423
 20
259.1638137437263
 30
0.0
 11
73.78454962301418
 21
259.1638137437263
 31
0.0
  0
LINE
  5
A45
330
1F
100
AcDbEntity
  8
0
100
AcDbLine
 10
74.78454974493217
 20
256.5738135843823
 30
0.0
 11
76.3845497449321
 21
256.5738135843823
 31
0.0
  0
LINE
  5
A46
330
1F
100
AcDbEntity
  8
0
100
AcDbLine
 10
75.48454962301423
 20
257.5638137437262
 30
0.0
 11
73.78454962301418
 21
257.5638137437262
 31
0.0
  0
LINE
  5
A47
330
1F
100
AcDbEntity
  8
0
100
AcDbLine
 10
72.28454962301419
 20
265.4738137437263
 30
0.0
 11
73.78454962301418
 21
265.4738137437263
 31
0.0
  0
LINE
  5
A48
330
1F
100
AcDbEntity
  8
0
100
AcDbLine
 10
73.78454962301418
 20
265.4738137437263
 30
0.0
 11
73.78454962301418
 21
265.1138137437262
 31
0.0
  0
LINE
  5
A49
330
1F
100
AcDbEntity
  8
0
100
AcDbLine
 10
67.28454962301419
 20
264.1138137437263
 30
0.0
 11
67.28454962301419
 21
263.5738137437263
 31
0.0
  0
LINE
  5
A4A
330
1F
100
AcDbEntity
  8
0
100
AcDbLine
 10
72.28454962301419
 20
264.1138137437263
 30
0.0
 11
67.28454962301419
 21
264.1138137437263
 31
0.0
  0
LINE
  5
A4B
330
1F
100
AcDbEntity
  8
0
100
AcDbLine
 10
71.48454962301423
 20
262.7838137437263
 30
0.0
 11
72.28454962301419
 21
262.7838137437263
 31
0.0
  0
LINE
  5
A4C
330
1F
100
AcDbEntity
  8
0
100
AcDbLine
 10
71.48454962301423
 20
260.1638137437264
 30
0.0
 11
72.28454962301419
 21
260.1638137437264
 31
0.0
  0
LINE
  5
A4D
330
1F
100
AcDbEntity
  8
0
100
AcDbLine
 10
71.48454962301423
 20
262.7838137437263
 30
0.0
 11
71.48454962301423
 21
260.1638137437264
 31
0.0
  0
LINE
  5
A4E
330
1F
100
AcDbEntity
  8
0
100
AcDbLine
 10
71.48454962301423
 20
255.1638137437262
 30
0.0
 11
72.28454962301419
 21
255.1638137437262
 31
0.0
  0
LINE
  5
A4F
330
1F
100
AcDbEntity
  8
0
100
AcDbLine
 10
71.48454962301423
 20
252.5438137437264
 30
0.0
 11
72.28454962301419
 21
252.5438137437264
 31
0.0
  0
LINE
  5
A50
330
1F
100
AcDbEntity
  8
0
100
AcDbLine
 10
71.48454962301423
 20
255.1638137437262
 30
0.0
 11
71.48454962301423
 21
252.5438137437264
 31
0.0
  0
LINE
  5
A51
330
1F
100
AcDbEntity
  8
0
100
AcDbLine
 10
72.28454962301419
 20
260.1638137437264
 30
0.0
 11
72.28454962301419
 21
255.1638137437262
 31
0.0
  0
CIRCLE
  5
A52
330
1F
100
AcDbEntity
  8
0
100
AcDbCircle
 10
69.28454962301414
 20
261.4738137437265
 30
0.0
 40
0.75
  0
CIRCLE
  5
A53
330
1F
100
AcDbEntity
  8
0
100
AcDbCircle
 10
69.28454962301414
 20
253.8538137437263
 30
0.0
 40
0.75
  0
LINE
  5
A54
330
1F
100
AcDbEntity
  8
0
100
AcDbLine
 10
67.28454962301419
 20
259.3738137437263
 30
0.0
 11
67.28454962301419
 21
255.9538137437263
 31
0.0
  0
CIRCLE
  5
A55
330
1F
100
AcDbEntity
  8
0
100
AcDbCircle
 10
69.28454962301414
 20
261.4738137437265
 30
0.0
 40
1.5
  0
CIRCLE
  5
A56
330
1F
100
AcDbEntity
  8
0
100
AcDbCircle
 10
69.28454962301414
 20
253.8538137437263
 30
0.0
 40
1.5
  0
LINE
  5
A57
330
1F
100
AcDbEntity
  8
0
100
AcDbLine
 10
72.28454962301419
 20
264.1138137437263
 30
0.0
 11
72.28454962301419
 21
262.7838137437263
 31
0.0
  0
LINE
  5
A58
330
1F
100
AcDbEntity
  8
0
100
AcDbLine
 10
76.3845497449321
 20
260.1738135843823
 30
0.0
 11
76.3845497449321
 21
256.5738135843823
 31
0.0
  0
LINE
  5
A59
330
1F
100
AcDbEntity
  8
0
100
AcDbLine
 10
75.48454962301423
 20
259.1638137437263
 30
0.0
 11
75.48454962301423
 21
257.5638137437262
 31
0.0
  0
LINE
  5
A5A
330
1F
100
AcDbEntity
  8
0
100
AcDbLine
 10
71.78454962301415
 20
284.9738137437261
 30
0.0
 11
70.78454962301416
 21
284.9738137437261
 31
0.0
  0
LINE
  5
A5B
330
1F
100
AcDbEntity
  8
0
100
AcDbLine
 10
70.78454962301416
 20
282.973813743726
 30
0.0
 11
71.78454962301415
 21
282.973813743726
 31
0.0
  0
LINE
  5
A5C
330
1F
100
AcDbEntity
  8
0
100
AcDbLine
 10
71.78454962301415
 20
282.973813743726
 30
0.0
 11
71.78454962301415
 21
284.9738137437261
 31
0.0
  0
LINE
  5
A5D
330
1F
100
AcDbEntity
  8
0
100
AcDbLine
 10
70.78454962301416
 20
284.9738137437261
 30
0.0
 11
70.78454962301416
 21
282.973813743726
 31
0.0
  0
LINE
  5
A5E
330
1F
100
AcDbEntity
  8
0
100
AcDbLine
 10
67.78454962301418
 20
277.9738137437263
 30
0.0
 11
74.76954962301419
 21
277.9738137437263
 31
0.0
  0
LINE
  5
A5F
330
1F
100
AcDbEntity
  8
0
100
AcDbLine
 10
37.6714611488611
 20
354.5152173825083
 30
0.0
 11
55.18454962301518
 21
354.9738137437263
 31
0.0
  0
ARC
  5
A60
330
1F
100
AcDbEntity
  8
0
100
AcDbCircle
 10
37.68454962301518
 20
354.0153887200204
 30
0.0
 40
0.5
100
AcDbArc
 50
91.4999999999962
 51
180.0
  0
LINE
  5
A61
330
1F
100
AcDbEntity
  8
0
100
AcDbLine
 10
77.08454974493213
 20
331.0738135843823
 30
0.0
 11
77.08454974493213
 21
322.8738135843824
 31
0.0
  0
LINE
  5
A62
330
1F
100
AcDbEntity
  8
0
100
AcDbLine
 10
75.48454962301514
 20
323.4138137437263
 30
0.0
 11
75.48454962301514
 21
330.0538137437263
 31
0.0
  0
LINE
  5
A63
330
1F
100
AcDbEntity
  8
0
100
AcDbLine
 10
65.28454962301509
 20
323.4138137437263
 30
0.0
 11
65.28454962301509
 21
330.0538137437263
 31
0.0
  0
LINE
  5
A64
330
1F
100
AcDbEntity
  8
0
100
AcDbLine
 10
64.18454974493214
 20
339.0738135843823
 30
0.0
 11
64.18454974493214
 21
306.0738135843823
 31
0.0
  0
LINE
  5
A65
330
1F
100
AcDbEntity
  8
0
100
AcDbLine
 10
65.28454962301521
 20
306.0738135843823
 30
0.0
 11
65.28454962301509
 21
339.0738135843823
 31
0.0
  0
LINE
  5
A66
330
1F
100
AcDbEntity
  8
0
100
AcDbLine
 10
72.5345496230151
 20
322.4138137437264
 30
0.0
 11
65.28454962301418
 21
322.4138137437264
 31
0.0
  0
LINE
  5
A67
330
1F
100
AcDbEntity
  8
0
100
AcDbLine
 10
75.48454962301514
 20
323.4138137437263
 30
0.0
 11
65.28454962301509
 21
323.4138137437263
 31
0.0
  0
LINE
  5
A68
330
1F
100
AcDbEntity
  8
0
100
AcDbLine
 10
66.78454962301419
 20
301.1338137437261
 30
0.0
 11
67.78454962301418
 21
301.1338137437261
 31
0.0
  0
LINE
  5
A69
330
1F
100
AcDbEntity
  8
0
100
AcDbLine
 10
65.28454962301418
 20
307.0138137437262
 30
0.0
 11
72.5345496230151
 21
307.0138137437262
 31
0.0
  0
LINE
  5
A6A
330
1F
100
AcDbEntity
  8
0
100
AcDbLine
 10
64.18454974493214
 20
306.0738135843823
 30
0.0
 11
73.48454974493222
 21
306.0738135843823
 31
0.0
  0
LINE
  5
A6B
330
1F
100
AcDbEntity
  8
0
100
AcDbLine
 10
76.1295496230142
 20
301.1338137437261
 30
0.0
 11
66.78454962301419
 21
301.1338137437261
 31
0.0
  0
LINE
  5
A6C
330
1F
100
AcDbEntity
  8
0
100
AcDbLine
 10
64.18454974493214
 20
302.173813584382
 30
0.0
 11
76.58454974493213
 21
302.173813584382
 31
0.0
  0
LINE
  5
A6D
330
1F
100
AcDbEntity
  8
0
100
AcDbLine
 10
66.78454962301419
 20
301.1338137437261
 30
0.0
 11
65.28454962301418
 21
301.1338137437261
 31
0.0
  0
LINE
  5
A6E
330
1F
100
AcDbEntity
  8
0
100
AcDbLine
 10
65.28454962301418
 20
298.1338137437262
 30
0.0
 11
66.78454962301419
 21
298.1338137437262
 31
0.0
  0
LINE
  5
A6F
330
1F
100
AcDbEntity
  8
0
100
AcDbLine
 10
66.78454962301419
 20
293.633813743726
 30
0.0
 11
66.78454962301419
 21
294.633813743726
 31
0.0
  0
LINE
  5
A70
330
1F
100
AcDbEntity
  8
0
100
AcDbLine
 10
65.28454962301509
 20
293.633813743726
 30
0.0
 11
66.78454962301419
 21
293.633813743726
 31
0.0
  0
LINE
  5
A71
330
1F
100
AcDbEntity
  8
0
100
AcDbLine
 10
66.78454962301419
 20
294.633813743726
 30
0.0
 11
65.28454962301509
 21
294.633813743726
 31
0.0
  0
LINE
  5
A72
330
1F
100
AcDbEntity
  8
0
100
AcDbLine
 10
66.78454962301419
 20
288.5538137437263
 30
0.0
 11
66.78454962301419
 21
289.5538137437263
 31
0.0
  0
LINE
  5
A73
330
1F
100
AcDbEntity
  8
0
100
AcDbLine
 10
65.28454962301509
 20
288.5538137437263
 30
0.0
 11
66.78454962301419
 21
288.5538137437263
 31
0.0
  0
LINE
  5
A74
330
1F
100
AcDbEntity
  8
0
100
AcDbLine
 10
66.78454962301419
 20
289.5538137437263
 30
0.0
 11
65.28454962301509
 21
289.5538137437263
 31
0.0
  0
LINE
  5
A75
330
1F
100
AcDbEntity
  8
0
100
AcDbLine
 10
66.78454962301419
 20
301.1338137437261
 30
0.0
 11
66.78454962301419
 21
300.1338137437262
 31
0.0
  0
LINE
  5
A76
330
1F
100
AcDbEntity
  8
0
100
AcDbLine
 10
66.78454962301419
 20
298.1338137437262
 30
0.0
 11
66.78454962301419
 21
301.1338137437261
 31
0.0
  0
LINE
  5
A77
330
1F
100
AcDbEntity
  8
0
100
AcDbLine
 10
65.28454962301418
 20
301.1338137437261
 30
0.0
 11
65.28454962301418
 21
298.1338137437262
 31
0.0
  0
LINE
  5
A78
330
1F
100
AcDbEntity
  8
0
100
AcDbLine
 10
65.28454962301418
 20
322.4138137437264
 30
0.0
 11
65.28454962301418
 21
307.0138137437262
 31
0.0
  0
LINE
  5
A79
330
1F
100
AcDbEntity
  8
0
100
AcDbLine
 10
75.2695496230142
 20
301.1338137437261
 30
0.0
 11
74.76954962301419
 21
301.1338137437261
 31
0.0
  0
LINE
  5
A7A
330
1F
100
AcDbEntity
  8
0
100
AcDbLine
 10
70.78454962301416
 20
293.1338137437261
 30
0.0
 11
71.78454962301415
 21
293.1338137437261
 31
0.0
  0
LINE
  5
A7B
330
1F
100
AcDbEntity
  8
0
100
AcDbLine
 10
71.78454962301415
 20
293.1338137437261
 30
0.0
 11
71.78454962301415
 21
295.1338137437261
 31
0.0
  0
LINE
  5
A7C
330
1F
100
AcDbEntity
  8
0
100
AcDbLine
 10
71.78454962301415
 20
295.1338137437261
 30
0.0
 11
70.78454962301416
 21
295.1338137437261
 31
0.0
  0
LINE
  5
A7D
330
1F
100
AcDbEntity
  8
0
100
AcDbLine
 10
70.78454962301416
 20
295.1338137437261
 30
0.0
 11
70.78454962301416
 21
293.1338137437261
 31
0.0
  0
LINE
  5
A7E
330
1F
100
AcDbEntity
  8
0
100
AcDbLine
 10
71.78454962301415
 20
290.0538137437263
 30
0.0
 11
70.78454962301416
 21
290.0538137437263
 31
0.0
  0
LINE
  5
A7F
330
1F
100
AcDbEntity
  8
0
100
AcDbLine
 10
70.78454962301416
 20
288.0538137437263
 30
0.0
 11
71.78454962301415
 21
288.0538137437263
 31
0.0
  0
LINE
  5
A80
330
1F
100
AcDbEntity
  8
0
100
AcDbLine
 10
71.78454962301415
 20
288.0538137437263
 30
0.0
 11
71.78454962301415
 21
290.0538137437263
 31
0.0
  0
LINE
  5
A81
330
1F
100
AcDbEntity
  8
0
100
AcDbLine
 10
70.78454962301416
 20
290.0538137437263
 30
0.0
 11
70.78454962301416
 21
288.0538137437263
 31
0.0
  0
LINE
  5
A82
330
1F
100
AcDbEntity
  8
0
100
AcDbLine
 10
67.78454962301418
 20
300.1338137437262
 30
0.0
 11
74.76954962301419
 21
300.1338137437262
 31
0.0
  0
LINE
  5
A83
330
1F
100
AcDbEntity
  8
0
100
AcDbLine
 10
73.48454974493222
 20
322.8738135843824
 30
0.0
 11
77.08454974493213
 21
322.8738135843824
 31
0.0
  0
CIRCLE
  5
A84
330
1F
100
AcDbEntity
  8
0
100
AcDbCircle
 10
68.78454962301418
 20
312.9638137437264
 30
0.0
 40
1.0
  0
CIRCLE
  5
A85
330
1F
100
AcDbEntity
  8
0
100
AcDbCircle
 10
68.78454962301418
 20
316.4638137437264
 30
0.0
 40
1.0
  0
CIRCLE
  5
A86
330
1F
100
AcDbEntity
  8
0
100
AcDbCircle
 10
68.78454962301418
 20
309.4638137437264
 30
0.0
 40
1.0
  0
CIRCLE
  5
A87
330
1F
100
AcDbEntity
  8
0
100
AcDbCircle
 10
68.78454962301418
 20
319.9638137437263
 30
0.0
 40
1.0
  0
LINE
  5
A88
330
1F
100
AcDbEntity
  8
0
100
AcDbLine
 10
72.5345496230151
 20
307.0138137437262
 30
0.0
 11
72.5345496230151
 21
322.4138137437264
 31
0.0
  0
LINE
  5
A89
330
1F
100
AcDbEntity
  8
0
100
AcDbLine
 10
73.48454974493222
 20
322.8738135843824
 30
0.0
 11
73.48454974493222
 21
306.0738135843823
 31
0.0
  0
CIRCLE
  5
A8A
330
1F
100
AcDbEntity
  8
0
100
AcDbCircle
 10
67.78454974493218
 20
347.7738135843825
 30
0.0
 40
1.399999999999999
  0
CIRCLE
  5
A8B
330
1F
100
AcDbEntity
  8
0
100
AcDbCircle
 10
67.78454974493218
 20
342.9738135843823
 30
0.0
 40
1.399999999999999
  0
LINE
  5
A8C
330
1F
100
AcDbEntity
  8
0
100
AcDbLine
 10
74.08454974493213
 20
339.0738135843823
 30
0.0
 11
64.18454974493214
 21
339.0738135843823
 31
0.0
  0
LINE
  5
A8D
330
1F
100
AcDbEntity
  8
0
100
AcDbLine
 10
73.18454962301415
 20
338.5538137437263
 30
0.0
 11
65.28454962301418
 21
338.5538137437263
 31
0.0
  0
LINE
  5
A8E
330
1F
100
AcDbEntity
  8
0
100
AcDbLine
 10
73.18454962301415
 20
331.0538137437271
 30
0.0
 11
65.28454962301418
 21
331.0538137437271
 31
0.0
  0
LINE
  5
A8F
330
1F
100
AcDbEntity
  8
0
100
AcDbLine
 10
75.48454962301514
 20
330.0538137437263
 30
0.0
 11
65.28454962301509
 21
330.0538137437263
 31
0.0
  0
LINE
  5
A90
330
1F
100
AcDbEntity
  8
0
100
AcDbLine
 10
65.28454962301509
 20
337.6438137437273
 30
0.0
 11
65.68454962301415
 21
337.6438137437273
 31
0.0
  0
LINE
  5
A91
330
1F
100
AcDbEntity
  8
0
100
AcDbLine
 10
65.28454962301509
 20
337.043813743727
 30
0.0
 11
65.68454962301415
 21
337.043813743727
 31
0.0
  0
LINE
  5
A92
330
1F
100
AcDbEntity
  8
0
100
AcDbLine
 10
65.28454962301509
 20
335.1038137437273
 30
0.0
 11
65.68454962301415
 21
335.1038137437273
 31
0.0
  0
LINE
  5
A93
330
1F
100
AcDbEntity
  8
0
100
AcDbLine
 10
65.28454962301509
 20
334.503813743727
 30
0.0
 11
65.68454962301415
 21
334.503813743727
 31
0.0
  0
LINE
  5
A94
330
1F
100
AcDbEntity
  8
0
100
AcDbLine
 10
65.28454962301509
 20
331.9638137437273
 30
0.0
 11
65.68454962301415
 21
331.9638137437273
 31
0.0
  0
LINE
  5
A95
330
1F
100
AcDbEntity
  8
0
100
AcDbLine
 10
65.28454962301509
 20
332.5638137437274
 30
0.0
 11
65.68454962301415
 21
332.5638137437274
 31
0.0
  0
LINE
  5
A96
330
1F
100
AcDbEntity
  8
0
100
AcDbLine
 10
65.28454962301418
 20
331.0538137437271
 30
0.0
 11
65.28454962301418
 21
331.9638137437273
 31
0.0
  0
LINE
  5
A97
330
1F
100
AcDbEntity
  8
0
100
AcDbLine
 10
65.28454962301418
 20
337.6438137437263
 30
0.0
 11
65.28454962301418
 21
338.5538137437263
 31
0.0
  0
LINE
  5
A98
330
1F
100
AcDbEntity
  8
0
100
AcDbLine
 10
65.68454962301415
 20
331.0538137437271
 30
0.0
 11
65.68454962301415
 21
338.5538137437263
 31
0.0
  0
LINE
  5
A99
330
1F
100
AcDbEntity
  8
0
100
AcDbLine
 10
55.18454962301518
 20
354.9738137437263
 30
0.0
 11
56.18454962301519
 21
354.9476278221571
 31
0.0
  0
LINE
  5
A9A
330
1F
100
AcDbEntity
  8
0
100
AcDbLine
 10
56.18454962301519
 20
350.9738137437263
 30
0.0
 11
56.19763809716812
 21
350.9741564774839
 31
0.0
  0
LINE
  5
A9B
330
1F
100
AcDbEntity
  8
0
100
AcDbLine
 10
57.18454962301518
 20
354.4738137437263
 30
0.0
 11
56.18454962301519
 21
354.4738137437263
 31
0.0
  0
CIRCLE
  5
A9C
330
1F
100
AcDbEntity
  8
0
100
AcDbCircle
 10
72.8845497449321
 20
342.9738135843823
 30
0.0
 40
1.399999999999999
  0
LINE
  5
A9D
330
1F
100
AcDbEntity
  8
0
100
AcDbLine
 10
75.48454962301514
 20
324.8638137437258
 30
0.0
 11
70.70905469402316
 21
324.8638137437258
 31
0.0
  0
LINE
  5
A9E
330
1F
100
AcDbEntity
  8
0
100
AcDbLine
 10
75.48454962301514
 20
328.6038137437258
 30
0.0
 11
70.70905469402316
 21
328.6038137437258
 31
0.0
  0
LINE
  5
A9F
330
1F
100
AcDbEntity
  8
0
100
AcDbLine
 10
75.48454962301514
 20
327.4038137437264
 30
0.0
 11
72.48454962301514
 21
327.4038137437264
 31
0.0
  0
LINE
  5
AA0
330
1F
100
AcDbEntity
  8
0
100
AcDbLine
 10
75.48454962301514
 20
326.063813743726
 30
0.0
 11
72.48454962301514
 21
326.063813743726
 31
0.0
  0
LINE
  5
AA1
330
1F
100
AcDbEntity
  8
0
100
AcDbLine
 10
75.48454962301514
 20
324.8638137437258
 30
0.0
 11
72.48454962301514
 21
324.8638137437258
 31
0.0
  0
LINE
  5
AA2
330
1F
100
AcDbEntity
  8
0
100
AcDbLine
 10
74.08454974493213
 20
331.0738135843823
 30
0.0
 11
77.08454974493213
 21
331.0738135843823
 31
0.0
  0
LINE
  5
AA3
330
1F
100
AcDbEntity
  8
0
100
AcDbLine
 10
72.48454962301514
 20
327.4038137437264
 30
0.0
 11
72.48454962301514
 21
328.6038137437258
 31
0.0
  0
LINE
  5
AA4
330
1F
100
AcDbEntity
  8
0
100
AcDbLine
 10
72.48454962301514
 20
324.8638137437258
 30
0.0
 11
72.48454962301514
 21
326.063813743726
 31
0.0
  0
LINE
  5
AA5
330
1F
100
AcDbEntity
  8
0
100
AcDbLine
 10
73.98454962301514
 20
326.063813743726
 30
0.0
 11
73.98454962301514
 21
327.4038137437264
 31
0.0
  0
LINE
  5
AA6
330
1F
100
AcDbEntity
  8
0
100
AcDbLine
 10
74.48454962301514
 20
327.4038137437264
 30
0.0
 11
74.48454962301514
 21
328.6038137437258
 31
0.0
  0
LINE
  5
AA7
330
1F
100
AcDbEntity
  8
0
100
AcDbLine
 10
74.48454962301514
 20
324.8638137437258
 30
0.0
 11
74.48454962301514
 21
326.063813743726
 31
0.0
  0
LINE
  5
AA8
330
1F
100
AcDbEntity
  8
0
100
AcDbLine
 10
70.70905469402316
 20
328.6038137437258
 30
0.0
 11
70.70905469402316
 21
324.8638137437258
 31
0.0
  0
CIRCLE
  5
AA9
330
1F
100
AcDbEntity
  8
0
100
AcDbCircle
 10
69.43454962301415
 20
334.8038137437264
 30
0.0
 40
1.290290050200999
  0
LINE
  5
AAA
330
1F
100
AcDbEntity
  8
0
100
AcDbLine
 10
74.08454974493213
 20
339.0738135843823
 30
0.0
 11
74.08454974493213
 21
331.0738135843823
 31
0.0
  0
LINE
  5
AAB
330
1F
100
AcDbEntity
  8
0
100
AcDbLine
 10
73.18454962301415
 20
331.0538137437271
 30
0.0
 11
73.18454962301415
 21
338.5538137437263
 31
0.0
  0
ARC
  5
AAC
330
1F
100
AcDbEntity
  8
0
100
AcDbCircle
 10
80.18454962301516
 20
359.9738137437263
 30
0.0
 40
5.5
100
AcDbArc
 50
180.0
 51
245.380022671345
  0
CIRCLE
  5
AAD
330
1F
100
AcDbEntity
  8
0
100
AcDbCircle
 10
72.8845497449321
 20
347.7738135843825
 30
0.0
 40
1.399999999999999
  0
LINE
  5
AAE
330
1F
100
AcDbEntity
  8
0
100
AcDbLine
 10
55.18454962301518
 20
364.9738137437263
 30
0.0
 11
38.15837267470703
 21
364.5279676095351
 31
0.0
  0
ARC
  5
AAF
330
1F
100
AcDbEntity
  8
0
100
AcDbCircle
 10
38.18454962301519
 20
363.5283102845594
 30
0.0
 40
1.0
100
AcDbArc
 50
91.4999999999962
 51
180.0
  0
LINE
  5
AB0
330
1F
100
AcDbEntity
  8
0
100
AcDbLine
 10
85.68454962301519
 20
359.9738137437263
 30
0.0
 11
85.68454962301519
 21
364.9738137437263
 31
0.0
  0
LINE
  5
AB1
330
1F
100
AcDbEntity
  8
0
100
AcDbLine
 10
98.93454962301417
 20
276.1738137437262
 30
0.0
 11
98.93454962301417
 21
307.623813743726
 31
0.0
  0
LINE
  5
AB2
330
1F
100
AcDbEntity
  8
0
100
AcDbLine
 10
92.63454962301421
 20
307.623813743726
 30
0.0
 11
92.63454962301421
 21
276.1738137437262
 31
0.0
  0
LINE
  5
AB3
330
1F
100
AcDbEntity
  8
0
100
AcDbLine
 10
101.184549744933
 20
315.6738135843821
 30
0.0
 11
101.184549744933
 21
269.5738135843821
 31
0.0
  0
LINE
  5
AB4
330
1F
100
AcDbEntity
  8
0
100
AcDbLine
 10
89.78454974493217
 20
269.5738135843821
 30
0.0
 11
89.78454974493217
 21
315.6738135843821
 31
0.0
  0
LINE
  5
AB5
330
1F
100
AcDbEntity
  8
0
100
AcDbLine
 10
100.284549623015
 20
315.6738135843821
 30
0.0
 11
100.284549623015
 21
269.5738135843821
 31
0.0
  0
LINE
  5
AB6
330
1F
100
AcDbEntity
  8
0
100
AcDbLine
 10
100.0345496230139
 20
270.073813743726
 30
0.0
 11
100.0345496230139
 21
313.7238137437264
 31
0.0
  0
LINE
  5
AB7
330
1F
100
AcDbEntity
  8
0
100
AcDbLine
 10
91.53454962301415
 20
313.7238137437264
 30
0.0
 11
91.53454962301415
 21
270.073813743726
 31
0.0
  0
LINE
  5
AB8
330
1F
100
AcDbEntity
  8
0
100
AcDbLine
 10
100.284549623015
 20
247.5738137437263
 30
0.0
 11
100.284549623015
 21
253.4738137437264
 31
0.0
  0
LINE
  5
AB9
330
1F
100
AcDbEntity
  8
0
100
AcDbLine
 10
101.184549744933
 20
267.5738135843821
 30
0.0
 11
101.184549744933
 21
232.6738135843823
 31
0.0
  0
LINE
  5
ABA
330
1F
100
AcDbEntity
  8
0
100
AcDbLine
 10
100.284549623015
 20
267.5738135843821
 30
0.0
 11
100.284549623015
 21
232.6738135843823
 31
0.0
  0
LINE
  5
ABB
330
1F
100
AcDbEntity
  8
0
100
AcDbLine
 10
86.3845497449321
 20
263.0738135843823
 30
0.0
 11
86.3845497449321
 21
247.0738135843824
 31
0.0
  0
LINE
  5
ABC
330
1F
100
AcDbEntity
  8
0
100
AcDbLine
 10
87.48454962301424
 20
247.5738137437263
 30
0.0
 11
87.48454962301424
 21
261.5738137437263
 31
0.0
  0
LINE
  5
ABD
330
1F
100
AcDbEntity
  8
0
100
AcDbLine
 10
100.2845496230138
 20
247.0738137437263
 30
0.0
 11
92.38454962301421
 21
247.0738137437263
 31
0.0
  0
LINE
  5
ABE
330
1F
100
AcDbEntity
  8
0
100
AcDbLine
 10
100.2845496230138
 20
241.5738137437263
 30
0.0
 11
93.03454962301421
 21
241.5738137437263
 31
0.0
  0
LINE
  5
ABF
330
1F
100
AcDbEntity
  8
0
100
AcDbLine
 10
92.38454962301421
 20
242.0738137437262
 30
0.0
 11
100.2845496230138
 21
242.0738137437262
 31
0.0
  0
LINE
  5
AC0
330
1F
100
AcDbEntity
  8
0
100
AcDbLine
 10
93.03454962301421
 20
233.1738137437262
 30
0.0
 11
100.2845496230138
 21
233.1738137437262
 31
0.0
  0
LINE
  5
AC1
330
1F
100
AcDbEntity
  8
0
100
AcDbLine
 10
101.184549744933
 20
232.6738135843823
 30
0.0
 11
89.78454974493217
 21
232.6738135843823
 31
0.0
  0
LINE
  5
AC2
330
1F
100
AcDbEntity
  8
0
100
AcDbLine
 10
101.184549744933
 20
230.6738135843823
 30
0.0
 11
89.78454974493217
 21
230.6738135843823
 31
0.0
  0
LINE
  5
AC3
330
1F
100
AcDbEntity
  8
0
100
AcDbLine
 10
91.68454962301515
 20
230.1738137437264
 30
0.0
 11
99.98454962301511
 21
230.1738137437274
 31
0.0
  0
LINE
  5
AC4
330
1F
100
AcDbEntity
  8
0
100
AcDbLine
 10
90.88454962301524
 20
229.1738137437262
 30
0.0
 11
99.98454962301511
 21
229.1738137437262
 31
0.0
  0
LINE
  5
AC5
330
1F
100
AcDbEntity
  8
0
100
AcDbLine
 10
100.284549623015
 20
247.5738137437263
 30
0.0
 11
87.48454962301424
 21
247.5738137437263
 31
0.0
  0
ARC
  5
AC6
330
1F
100
AcDbEntity
  8
0
100
AcDbCircle
 10
91.68454962301515
 20
229.673813743726
 30
0.0
 40
0.5
100
AcDbArc
 50
90.0
 51
180.0
  0
LINE
  5
AC7
330
1F
100
AcDbEntity
  8
0
100
AcDbLine
 10
91.1845496230152
 20
229.673813743726
 30
0.0
 11
91.1845496230152
 21
229.1738137437262
 31
0.0
  0
LINE
  5
AC8
330
1F
100
AcDbEntity
  8
0
100
AcDbLine
 10
98.63454962301524
 20
222.7738137437264
 30
0.0
 11
98.63454962301524
 21
225.1738137437274
 31
0.0
  0
ARC
  5
AC9
330
1F
100
AcDbEntity
  8
0
100
AcDbCircle
 10
96.63454962301523
 20
219.0575306011353
 30
0.0
 40
2.0
100
AcDbArc
 50
0.0
 51
74.99999999999845
  0
LINE
  5
ACA
330
1F
100
AcDbEntity
  8
0
100
AcDbLine
 10
92.33454962301513
 20
225.1738137437274
 30
0.0
 11
92.33454962301513
 21
222.7738137437264
 31
0.0
  0
ARC
  5
ACB
330
1F
100
AcDbEntity
  8
0
100
AcDbCircle
 10
94.33454962301516
 20
219.6738137437264
 30
0.0
 40
2.0
100
AcDbArc
 50
74.99999999999845
 51
180.0
  0
LINE
  5
ACC
330
1F
100
AcDbEntity
  8
0
100
AcDbLine
 10
94.85218771322012
 20
221.6056653963044
 30
0.0
 11
97.15218771322021
 21
220.9893822537133
 31
0.0
  0
LINE
  5
ACD
330
1F
100
AcDbEntity
  8
0
100
AcDbLine
 10
92.33454962301513
 20
222.7738137437264
 30
0.0
 11
98.63454962301524
 21
222.7738137437264
 31
0.0
  0
LINE
  5
ACE
330
1F
100
AcDbEntity
  8
0
100
AcDbLine
 10
92.33454962301513
 20
224.6738137437263
 30
0.0
 11
98.63454962301524
 21
224.6738137437263
 31
0.0
  0
LINE
  5
ACF
330
1F
100
AcDbEntity
  8
0
100
AcDbLine
 10
92.33454962301513
 20
225.1738137437262
 30
0.0
 11
98.63454962301524
 21
225.1738137437262
 31
0.0
  0
LINE
  5
AD0
330
1F
100
AcDbEntity
  8
0
100
AcDbLine
 10
97.08454962301516
 20
220.1738137437263
 30
0.0
 11
93.88454962301523
 21
220.1738137437274
 31
0.0
  0
CIRCLE
  5
AD1
330
1F
100
AcDbEntity
  8
0
100
AcDbCircle
 10
95.4845496230151
 20
227.2038137437263
 30
0.0
 40
1.399999999999999
  0
LINE
  5
AD2
330
1F
100
AcDbEntity
  8
0
100
AcDbLine
 10
89.78454974493217
 20
247.0738135843824
 30
0.0
 11
89.78454974493217
 21
232.6738135843823
 31
0.0
  0
LINE
  5
AD3
330
1F
100
AcDbEntity
  8
0
100
AcDbLine
 10
89.78454974493217
 20
247.0738135843824
 30
0.0
 11
86.3845497449321
 21
247.0738135843824
 31
0.0
  0
LINE
  5
AD4
330
1F
100
AcDbEntity
  8
0
100
AcDbLine
 10
95.33454962301414
 20
246.0738137437262
 30
0.0
 11
94.33454962301414
 21
246.0738137437262
 31
0.0
  0
LINE
  5
AD5
330
1F
100
AcDbEntity
  8
0
100
AcDbLine
 10
99.33454962301414
 20
246.0738137437262
 30
0.0
 11
93.33454962301416
 21
246.0738137437262
 31
0.0
  0
CIRCLE
  5
AD6
330
1F
100
AcDbEntity
  8
0
100
AcDbCircle
 10
96.78454962301421
 20
235.6238137437263
 30
0.0
 40
1.0
  0
CIRCLE
  5
AD7
330
1F
100
AcDbEntity
  8
0
100
AcDbCircle
 10
96.78454962301421
 20
239.1238137437263
 30
0.0
 40
1.0
  0
LINE
  5
AD8
330
1F
100
AcDbEntity
  8
0
100
AcDbLine
 10
94.33454962301414
 20
243.0738137437263
 30
0.0
 11
95.33454962301414
 21
243.0738137437263
 31
0.0
  0
LINE
  5
AD9
330
1F
100
AcDbEntity
  8
0
100
AcDbLine
 10
93.03454962301421
 20
241.5738137437263
 30
0.0
 11
93.03454962301421
 21
233.1738137437262
 31
0.0
  0
LINE
  5
ADA
330
1F
100
AcDbEntity
  8
0
100
AcDbLine
 10
93.33454962301416
 20
243.0738137437263
 30
0.0
 11
99.33454962301414
 21
243.0738137437263
 31
0.0
  0
LINE
  5
ADB
330
1F
100
AcDbEntity
  8
0
100
AcDbLine
 10
96.13454962301421
 20
243.0738137437263
 30
0.0
 11
96.13454962301421
 21
246.0738137437262
 31
0.0
  0
LINE
  5
ADC
330
1F
100
AcDbEntity
  8
0
100
AcDbLine
 10
99.33454962301414
 20
243.0738137437263
 30
0.0
 11
99.33454962301414
 21
246.0738137437262
 31
0.0
  0
LINE
  5
ADD
330
1F
100
AcDbEntity
  8
0
100
AcDbLine
 10
93.33454962301416
 20
246.0738137437262
 30
0.0
 11
93.33454962301416
 21
243.0738137437263
 31
0.0
  0
LINE
  5
ADE
330
1F
100
AcDbEntity
  8
0
100
AcDbLine
 10
95.33454962301414
 20
243.0738137437263
 30
0.0
 11
95.33454962301414
 21
246.0738137437262
 31
0.0
  0
LINE
  5
ADF
330
1F
100
AcDbEntity
  8
0
100
AcDbLine
 10
94.33454962301414
 20
246.0738137437262
 30
0.0
 11
94.33454962301414
 21
243.0738137437263
 31
0.0
  0
LINE
  5
AE0
330
1F
100
AcDbEntity
  8
0
100
AcDbLine
 10
92.38454962301421
 20
247.0738137437263
 30
0.0
 11
92.38454962301421
 21
242.0738137437262
 31
0.0
  0
LINE
  5
AE1
330
1F
100
AcDbEntity
  8
0
100
AcDbLine
 10
100.284549623015
 20
229.8738137437273
 30
0.0
 11
100.284549623015
 21
222.7738137437264
 31
0.0
  0
LINE
  5
AE2
330
1F
100
AcDbEntity
  8
0
100
AcDbLine
 10
99.98454962301511
 20
222.7738137437264
 30
0.0
 11
100.284549623015
 21
222.7738137437264
 31
0.0
  0
LINE
  5
AE3
330
1F
100
AcDbEntity
  8
0
100
AcDbLine
 10
99.98454962301511
 20
215.3838137437273
 30
0.0
 11
100.284549623015
 21
215.3838137437273
 31
0.0
  0
LINE
  5
AE4
330
1F
100
AcDbEntity
  8
0
100
AcDbLine
 10
99.98454962301511
 20
214.1138137437271
 30
0.0
 11
100.284549623015
 21
214.1138137437271
 31
0.0
  0
LINE
  5
AE5
330
1F
100
AcDbEntity
  8
0
100
AcDbLine
 10
99.98454962301511
 20
217.9238137437272
 30
0.0
 11
100.284549623015
 21
217.9238137437272
 31
0.0
  0
LINE
  5
AE6
330
1F
100
AcDbEntity
  8
0
100
AcDbLine
 10
99.98454962301511
 20
216.6538137437273
 30
0.0
 11
100.284549623015
 21
216.6538137437274
 31
0.0
  0
LINE
  5
AE7
330
1F
100
AcDbEntity
  8
0
100
AcDbLine
 10
99.98454962301511
 20
215.3838137437273
 30
0.0
 11
100.284549623015
 21
215.3838137437273
 31
0.0
  0
LINE
  5
AE8
330
1F
100
AcDbEntity
  8
0
100
AcDbLine
 10
99.98454962301511
 20
219.1938137437263
 30
0.0
 11
100.284549623015
 21
219.1938137437263
 31
0.0
  0
LINE
  5
AE9
330
1F
100
AcDbEntity
  8
0
100
AcDbLine
 10
99.98454962301511
 20
217.9238137437272
 30
0.0
 11
100.284549623015
 21
217.9238137437272
 31
0.0
  0
LINE
  5
AEA
330
1F
100
AcDbEntity
  8
0
100
AcDbLine
 10
99.98454962301511
 20
212.8438137437273
 30
0.0
 11
100.284549623015
 21
212.8438137437273
 31
0.0
  0
LINE
  5
AEB
330
1F
100
AcDbEntity
  8
0
100
AcDbLine
 10
99.98454962301511
 20
211.5738137437273
 30
0.0
 11
100.284549623015
 21
211.5738137437273
 31
0.0
  0
ARC
  5
AEC
330
1F
100
AcDbEntity
  8
0
100
AcDbCircle
 10
99.98454962301511
 20
229.8738137437273
 30
0.0
 40
0.3
100
AcDbArc
 50
0.0
 51
90.0
  0
LINE
  5
AED
330
1F
100
AcDbEntity
  8
0
100
AcDbLine
 10
100.2845496230138
 20
233.1738137437262
 30
0.0
 11
100.2845496230138
 21
241.5738137437263
 31
0.0
  0
LINE
  5
AEE
330
1F
100
AcDbEntity
  8
0
100
AcDbLine
 10
100.2845496230138
 20
242.0738137437262
 30
0.0
 11
100.2845496230138
 21
247.0738137437263
 31
0.0
  0
LINE
  5
AEF
330
1F
100
AcDbEntity
  8
0
100
AcDbLine
 10
101.184549744933
 20
267.5738135843821
 30
0.0
 11
89.78454974493217
 21
267.5738135843821
 31
0.0
  0
LINE
  5
AF0
330
1F
100
AcDbEntity
  8
0
100
AcDbLine
 10
101.184549744933
 20
269.5738135843821
 30
0.0
 11
89.78454974493217
 21
269.5738135843821
 31
0.0
  0
LINE
  5
AF1
330
1F
100
AcDbEntity
  8
0
100
AcDbLine
 10
91.53454962301415
 20
270.073813743726
 30
0.0
 11
100.0345496230139
 21
270.073813743726
 31
0.0
  0
LINE
  5
AF2
330
1F
100
AcDbEntity
  8
0
100
AcDbLine
 10
100.2845496230138
 20
267.073813743726
 30
0.0
 11
92.38454962301421
 21
267.073813743726
 31
0.0
  0
LINE
  5
AF3
330
1F
100
AcDbEntity
  8
0
100
AcDbLine
 10
92.38454962301421
 20
262.0738137437263
 30
0.0
 11
100.2845496230138
 21
262.0738137437263
 31
0.0
  0
LINE
  5
AF4
330
1F
100
AcDbEntity
  8
0
100
AcDbLine
 10
100.284549623015
 20
261.5738137437263
 30
0.0
 11
87.48454962301424
 21
261.5738137437263
 31
0.0
  0
LINE
  5
AF5
330
1F
100
AcDbEntity
  8
0
100
AcDbLine
 10
89.78454974493217
 20
263.0738135843823
 30
0.0
 11
89.78454974493217
 21
267.5738135843821
 31
0.0
  0
CIRCLE
  5
AF6
330
1F
100
AcDbEntity
  8
0
100
AcDbCircle
 10
93.78454962301509
 20
254.5738137437262
 30
0.0
 40
5.5
  0
LINE
  5
AF7
330
1F
100
AcDbEntity
  8
0
100
AcDbLine
 10
89.78454974493217
 20
263.0738135843823
 30
0.0
 11
86.3845497449321
 21
263.0738135843823
 31
0.0
  0
LINE
  5
AF8
330
1F
100
AcDbEntity
  8
0
100
AcDbLine
 10
95.33454962301414
 20
266.0738137437263
 30
0.0
 11
94.33454962301414
 21
266.0738137437263
 31
0.0
  0
LINE
  5
AF9
330
1F
100
AcDbEntity
  8
0
100
AcDbLine
 10
99.33454962301414
 20
266.0738137437263
 30
0.0
 11
93.33454962301416
 21
266.0738137437263
 31
0.0
  0
LINE
  5
AFA
330
1F
100
AcDbEntity
  8
0
100
AcDbLine
 10
94.33454962301414
 20
263.0738137437262
 30
0.0
 11
95.33454962301414
 21
263.0738137437262
 31
0.0
  0
LINE
  5
AFB
330
1F
100
AcDbEntity
  8
0
100
AcDbLine
 10
93.33454962301416
 20
263.0738137437262
 30
0.0
 11
99.33454962301414
 21
263.0738137437262
 31
0.0
  0
LINE
  5
AFC
330
1F
100
AcDbEntity
  8
0
100
AcDbLine
 10
99.33454962301414
 20
263.0738137437262
 30
0.0
 11
99.33454962301414
 21
266.0738137437263
 31
0.0
  0
LINE
  5
AFD
330
1F
100
AcDbEntity
  8
0
100
AcDbLine
 10
96.13454962301421
 20
263.0738137437262
 30
0.0
 11
96.13454962301421
 21
266.0738137437263
 31
0.0
  0
LINE
  5
AFE
330
1F
100
AcDbEntity
  8
0
100
AcDbLine
 10
95.33454962301414
 20
263.0738137437262
 30
0.0
 11
95.33454962301414
 21
266.0738137437263
 31
0.0
  0
LINE
  5
AFF
330
1F
100
AcDbEntity
  8
0
100
AcDbLine
 10
94.33454962301414
 20
266.0738137437263
 30
0.0
 11
94.33454962301414
 21
263.0738137437262
 31
0.0
  0
LINE
  5
B00
330
1F
100
AcDbEntity
  8
0
100
AcDbLine
 10
93.33454962301416
 20
266.0738137437263
 30
0.0
 11
93.33454962301416
 21
263.0738137437262
 31
0.0
  0
LINE
  5
B01
330
1F
100
AcDbEntity
  8
0
100
AcDbLine
 10
92.38454962301421
 20
267.073813743726
 30
0.0
 11
92.38454962301421
 21
262.0738137437263
 31
0.0
  0
LINE
  5
B02
330
1F
100
AcDbEntity
  8
0
100
AcDbLine
 10
97.78454962301417
 20
276.1738137437262
 30
0.0
 11
98.93454962301417
 21
276.1738137437262
 31
0.0
  0
LINE
  5
B03
330
1F
100
AcDbEntity
  8
0
100
AcDbLine
 10
97.78454962301417
 20
273.2738130100358
 30
0.0
 11
97.78454962301417
 21
275.2738130100358
 31
0.0
  0
LINE
  5
B04
330
1F
100
AcDbEntity
  8
0
100
AcDbLine
 10
97.78454962301417
 20
273.2738130100358
 30
0.0
 11
97.78454962301417
 21
278.2138013589094
 31
0.0
  0
LINE
  5
B05
330
1F
100
AcDbEntity
  8
0
100
AcDbLine
 10
97.78454962301417
 20
270.073813743726
 30
0.0
 11
97.78454962301417
 21
273.2738130100358
 31
0.0
  0
LINE
  5
B06
330
1F
100
AcDbEntity
  8
0
100
AcDbLine
 10
92.63454962301421
 20
276.1738137437262
 30
0.0
 11
93.78454962301416
 21
276.1738137437262
 31
0.0
  0
LINE
  5
B07
330
1F
100
AcDbEntity
  8
0
100
AcDbLine
 10
93.78454962301416
 20
278.2138013589094
 30
0.0
 11
93.78454962301416
 21
273.2738130100358
 31
0.0
  0
LINE
  5
B08
330
1F
100
AcDbEntity
  8
0
100
AcDbLine
 10
93.78454962301416
 20
273.2738130100358
 30
0.0
 11
93.78454962301416
 21
270.073813743726
 31
0.0
  0
LINE
  5
B09
330
1F
100
AcDbEntity
  8
0
100
AcDbLine
 10
97.78454962301417
 20
276.2738130100358
 30
0.0
 11
93.78454962301416
 21
276.2738130100358
 31
0.0
  0
LINE
  5
B0A
330
1F
100
AcDbEntity
  8
0
100
AcDbLine
 10
97.78454962301417
 20
275.7738130100357
 30
0.0
 11
93.78454962301416
 21
275.7738130100357
 31
0.0
  0
LINE
  5
B0B
330
1F
100
AcDbEntity
  8
0
100
AcDbLine
 10
97.78454962301417
 20
276.7738130100358
 30
0.0
 11
93.78454962301416
 21
276.7738130100358
 31
0.0
  0
LINE
  5
B0C
330
1F
100
AcDbEntity
  8
0
100
AcDbLine
 10
97.78454962301417
 20
274.2738130100358
 30
0.0
 11
93.78454962301416
 21
274.2738130100358
 31
0.0
  0
LINE
  5
B0D
330
1F
100
AcDbEntity
  8
0
100
AcDbLine
 10
97.78454962301417
 20
275.7738130100357
 30
0.0
 11
93.78454962301416
 21
275.7738130100357
 31
0.0
  0
LINE
  5
B0E
330
1F
100
AcDbEntity
  8
0
100
AcDbLine
 10
97.78454962301417
 20
274.7738130100358
 30
0.0
 11
93.78454962301416
 21
274.7738130100358
 31
0.0
  0
LINE
  5
B0F
330
1F
100
AcDbEntity
  8
0
100
AcDbLine
 10
97.78454962301417
 20
275.2738130100358
 30
0.0
 11
93.78454962301416
 21
275.2738130100358
 31
0.0
  0
LINE
  5
B10
330
1F
100
AcDbEntity
  8
0
100
AcDbLine
 10
97.78454962301417
 20
273.2738130100358
 30
0.0
 11
93.78454962301416
 21
273.2738130100358
 31
0.0
  0
LINE
  5
B11
330
1F
100
AcDbEntity
  8
0
100
AcDbLine
 10
93.78454962301416
 20
273.2738130100358
 30
0.0
 11
97.78454962301417
 21
273.2738130100358
 31
0.0
  0
LINE
  5
B12
330
1F
100
AcDbEntity
  8
0
100
AcDbLine
 10
97.78454962301417
 20
278.2138013589094
 30
0.0
 11
93.78454962301416
 21
278.2138013589094
 31
0.0
  0
LINE
  5
B13
330
1F
100
AcDbEntity
  8
0
100
AcDbLine
 10
93.78454962301416
 20
270.073813743726
 30
0.0
 11
97.78454962301417
 21
270.073813743726
 31
0.0
  0
LINE
  5
B14
330
1F
100
AcDbEntity
  8
0
100
AcDbLine
 10
100.284549623015
 20
255.6738137437263
 30
0.0
 11
100.284549623015
 21
261.5738137437263
 31
0.0
  0
LINE
  5
B15
330
1F
100
AcDbEntity
  8
0
100
AcDbLine
 10
100.2845496230138
 20
262.0738137437263
 30
0.0
 11
100.2845496230138
 21
267.073813743726
 31
0.0
  0
LINE
  5
B16
330
1F
100
AcDbEntity
  8
0
100
AcDbLine
 10
100.284549623015
 20
284.6638137437271
 30
0.0
 11
100.0345496230139
 21
284.6638137437271
 31
0.0
  0
LINE
  5
B17
330
1F
100
AcDbEntity
  8
0
100
AcDbLine
 10
100.284549623015
 20
285.9338137437271
 30
0.0
 11
100.0345496230139
 21
285.9338137437271
 31
0.0
  0
LINE
  5
B18
330
1F
100
AcDbEntity
  8
0
100
AcDbLine
 10
100.284549623015
 20
285.1638137437272
 30
0.0
 11
100.0345496230139
 21
285.1638137437272
 31
0.0
  0
LINE
  5
B19
330
1F
100
AcDbEntity
  8
0
100
AcDbLine
 10
100.284549623015
 20
283.8938137437271
 30
0.0
 11
100.0345496230139
 21
283.8938137437271
 31
0.0
  0
LINE
  5
B1A
330
1F
100
AcDbEntity
  8
0
100
AcDbLine
 10
100.284549623015
 20
283.3938137437271
 30
0.0
 11
100.0345496230139
 21
283.3938137437271
 31
0.0
  0
LINE
  5
B1B
330
1F
100
AcDbEntity
  8
0
100
AcDbLine
 10
100.284549623015
 20
282.6238137437263
 30
0.0
 11
100.0345496230139
 21
282.6238137437261
 31
0.0
  0
LINE
  5
B1C
330
1F
100
AcDbEntity
  8
0
100
AcDbLine
 10
100.284549623015
 20
282.123813743727
 30
0.0
 11
100.0345496230139
 21
282.123813743727
 31
0.0
  0
LINE
  5
B1D
330
1F
100
AcDbEntity
  8
0
100
AcDbLine
 10
100.284549623015
 20
280.8538137437273
 30
0.0
 11
100.0345496230139
 21
280.8538137437273
 31
0.0
  0
LINE
  5
B1E
330
1F
100
AcDbEntity
  8
0
100
AcDbLine
 10
100.284549623015
 20
281.3538137437273
 30
0.0
 11
100.0345496230139
 21
281.3538137437272
 31
0.0
  0
LINE
  5
B1F
330
1F
100
AcDbEntity
  8
0
100
AcDbLine
 10
100.284549623015
 20
281.3538137437273
 30
0.0
 11
100.0345496230139
 21
281.3538137437272
 31
0.0
  0
LINE
  5
B20
330
1F
100
AcDbEntity
  8
0
100
AcDbLine
 10
100.284549623015
 20
280.8538137437281
 30
0.0
 11
100.0345496230139
 21
280.8538137437281
 31
0.0
  0
LINE
  5
B21
330
1F
100
AcDbEntity
  8
0
100
AcDbLine
 10
100.284549623015
 20
279.5838137437281
 30
0.0
 11
100.0345496230139
 21
279.5838137437281
 31
0.0
  0
LINE
  5
B22
330
1F
100
AcDbEntity
  8
0
100
AcDbLine
 10
100.284549623015
 20
280.0838137437283
 30
0.0
 11
100.0345496230139
 21
280.0838137437283
 31
0.0
  0
LINE
  5
B23
330
1F
100
AcDbEntity
  8
0
100
AcDbLine
 10
100.0345496230139
 20
276.1738137437262
 30
0.0
 11
100.2845496230138
 21
276.1738137437262
 31
0.0
  0
LINE
  5
B24
330
1F
100
AcDbEntity
  8
0
100
AcDbLine
 10
100.0345496230139
 20
270.073813743726
 30
0.0
 11
100.2845496230138
 21
270.073813743726
 31
0.0
  0
LINE
  5
B25
330
1F
100
AcDbEntity
  8
0
100
AcDbLine
 10
100.2845496230138
 20
270.073813743726
 30
0.0
 11
100.2845496230138
 21
276.1738137437262
 31
0.0
  0
LINE
  5
B26
330
1F
100
AcDbEntity
  8
0
100
AcDbLine
 10
100.284549623015
 20
327.8738137437261
 30
0.0
 11
100.284549623015
 21
320.7538137437263
 31
0.0
  0
CIRCLE
  5
B27
330
1F
100
AcDbEntity
  8
0
100
AcDbCircle
 10
95.4845496230151
 20
323.4038137437273
 30
0.0
 40
1.399999999999999
  0
LINE
  5
B28
330
1F
100
AcDbEntity
  8
0
100
AcDbLine
 10
90.88454962301524
 20
348.9938137437263
 30
0.0
 11
90.88454962301524
 21
321.4738137437263
 31
0.0
  0
LINE
  5
B29
330
1F
100
AcDbEntity
  8
0
100
AcDbLine
 10
99.98454962301511
 20
320.4738137437264
 30
0.0
 11
99.98454962301511
 21
349.9738137437272
 31
0.0
  0
LINE
  5
B2A
330
1F
100
AcDbEntity
  8
0
100
AcDbLine
 10
101.184549744933
 20
319.4738135843822
 30
0.0
 11
101.184549744933
 21
350.7738135843824
 31
0.0
  0
LINE
  5
B2B
330
1F
100
AcDbEntity
  8
0
100
AcDbLine
 10
89.78454974493217
 20
319.4738135843822
 30
0.0
 11
89.78454974493217
 21
350.7738135843824
 31
0.0
  0
LINE
  5
B2C
330
1F
100
AcDbEntity
  8
0
100
AcDbLine
 10
100.284549623015
 20
350.7738135843824
 30
0.0
 11
100.284549623015
 21
319.4738135843822
 31
0.0
  0
LINE
  5
B2D
330
1F
100
AcDbEntity
  8
0
100
AcDbLine
 10
91.68454962301515
 20
320.4738137437264
 30
0.0
 11
99.98454962301511
 21
320.4738137437264
 31
0.0
  0
LINE
  5
B2E
330
1F
100
AcDbEntity
  8
0
100
AcDbLine
 10
90.88454962301524
 20
321.4738137437263
 30
0.0
 11
99.98454962301511
 21
321.4738137437263
 31
0.0
  0
LINE
  5
B2F
330
1F
100
AcDbEntity
  8
0
100
AcDbLine
 10
101.184549744933
 20
319.4738135843822
 30
0.0
 11
89.78454974493217
 21
319.4738135843822
 31
0.0
  0
LINE
  5
B30
330
1F
100
AcDbEntity
  8
0
100
AcDbLine
 10
101.184549744933
 20
315.6738135843821
 30
0.0
 11
89.78454974493217
 21
315.6738135843821
 31
0.0
  0
LINE
  5
B31
330
1F
100
AcDbEntity
  8
0
100
AcDbLine
 10
100.2845496230138
 20
313.7238137437264
 30
0.0
 11
91.53454962301415
 21
313.7238137437264
 31
0.0
  0
ARC
  5
B32
330
1F
100
AcDbEntity
  8
0
100
AcDbCircle
 10
91.68454962301515
 20
320.9738137437263
 30
0.0
 40
0.5
100
AcDbArc
 50
180.0
 51
270.0
  0
LINE
  5
B33
330
1F
100
AcDbEntity
  8
0
100
AcDbLine
 10
91.1845496230152
 20
321.4738137437263
 30
0.0
 11
91.1845496230152
 21
320.9538137437263
 31
0.0
  0
LINE
  5
B34
330
1F
100
AcDbEntity
  8
0
100
AcDbLine
 10
97.9095496230142
 20
310.5238144774168
 30
0.0
 11
97.9095496230142
 21
313.7238137437264
 31
0.0
  0
LINE
  5
B35
330
1F
100
AcDbEntity
  8
0
100
AcDbLine
 10
98.93454962301417
 20
307.623813743726
 30
0.0
 11
97.9095496230142
 21
307.623813743726
 31
0.0
  0
LINE
  5
B36
330
1F
100
AcDbEntity
  8
0
100
AcDbLine
 10
97.9095496230142
 20
305.5838261285432
 30
0.0
 11
97.9095496230142
 21
310.5238144774168
 31
0.0
  0
LINE
  5
B37
330
1F
100
AcDbEntity
  8
0
100
AcDbLine
 10
93.90954962301416
 20
313.7238137437264
 30
0.0
 11
93.90954962301416
 21
310.5238144774168
 31
0.0
  0
LINE
  5
B38
330
1F
100
AcDbEntity
  8
0
100
AcDbLine
 10
93.90954962301416
 20
310.5238144774168
 30
0.0
 11
93.90954962301416
 21
308.5238144774168
 31
0.0
  0
LINE
  5
B39
330
1F
100
AcDbEntity
  8
0
100
AcDbLine
 10
93.90954962301416
 20
307.623813743726
 30
0.0
 11
92.63454962301421
 21
307.623813743726
 31
0.0
  0
LINE
  5
B3A
330
1F
100
AcDbEntity
  8
0
100
AcDbLine
 10
93.90954962301416
 20
310.5238144774168
 30
0.0
 11
93.90954962301416
 21
305.5838261285432
 31
0.0
  0
LINE
  5
B3B
330
1F
100
AcDbEntity
  8
0
100
AcDbLine
 10
93.90954962301416
 20
308.5238144774168
 30
0.0
 11
97.9095496230142
 21
308.5238144774168
 31
0.0
  0
LINE
  5
B3C
330
1F
100
AcDbEntity
  8
0
100
AcDbLine
 10
93.90954962301416
 20
309.0238144774168
 30
0.0
 11
97.9095496230142
 21
309.0238144774168
 31
0.0
  0
LINE
  5
B3D
330
1F
100
AcDbEntity
  8
0
100
AcDbLine
 10
93.90954962301416
 20
308.0238144774168
 30
0.0
 11
97.9095496230142
 21
308.0238144774168
 31
0.0
  0
LINE
  5
B3E
330
1F
100
AcDbEntity
  8
0
100
AcDbLine
 10
93.90954962301416
 20
309.5238144774167
 30
0.0
 11
97.9095496230142
 21
309.5238144774167
 31
0.0
  0
LINE
  5
B3F
330
1F
100
AcDbEntity
  8
0
100
AcDbLine
 10
93.90954962301416
 20
308.0238144774168
 30
0.0
 11
97.9095496230142
 21
308.0238144774168
 31
0.0
  0
LINE
  5
B40
330
1F
100
AcDbEntity
  8
0
100
AcDbLine
 10
97.9095496230142
 20
313.7238137437264
 30
0.0
 11
93.90954962301416
 21
313.7238137437264
 31
0.0
  0
LINE
  5
B41
330
1F
100
AcDbEntity
  8
0
100
AcDbLine
 10
93.90954962301416
 20
310.5238144774168
 30
0.0
 11
97.9095496230142
 21
310.5238144774168
 31
0.0
  0
LINE
  5
B42
330
1F
100
AcDbEntity
  8
0
100
AcDbLine
 10
97.9095496230142
 20
310.5238144774168
 30
0.0
 11
93.90954962301416
 21
310.5238144774168
 31
0.0
  0
LINE
  5
B43
330
1F
100
AcDbEntity
  8
0
100
AcDbLine
 10
93.90954962301416
 20
307.0238144774168
 30
0.0
 11
97.9095496230142
 21
307.0238144774168
 31
0.0
  0
LINE
  5
B44
330
1F
100
AcDbEntity
  8
0
100
AcDbLine
 10
93.90954962301416
 20
307.5238144774168
 30
0.0
 11
97.9095496230142
 21
307.5238144774168
 31
0.0
  0
LINE
  5
B45
330
1F
100
AcDbEntity
  8
0
100
AcDbLine
 10
93.90954962301416
 20
305.5838261285432
 30
0.0
 11
97.9095496230142
 21
305.5838261285432
 31
0.0
  0
LINE
  5
B46
330
1F
100
AcDbEntity
  8
0
100
AcDbLine
 10
100.284549623015
 20
304.2138137437262
 30
0.0
 11
100.0345496230139
 21
304.2138137437262
 31
0.0
  0
LINE
  5
B47
330
1F
100
AcDbEntity
  8
0
100
AcDbLine
 10
100.284549623015
 20
303.7138137437263
 30
0.0
 11
100.0345496230139
 21
303.7138137437263
 31
0.0
  0
LINE
  5
B48
330
1F
100
AcDbEntity
  8
0
100
AcDbLine
 10
100.284549623015
 20
302.9438137437261
 30
0.0
 11
100.0345496230139
 21
302.9438137437263
 31
0.0
  0
LINE
  5
B49
330
1F
100
AcDbEntity
  8
0
100
AcDbLine
 10
100.284549623015
 20
302.4438137437263
 30
0.0
 11
100.0345496230139
 21
302.4438137437263
 31
0.0
  0
LINE
  5
B4A
330
1F
100
AcDbEntity
  8
0
100
AcDbLine
 10
100.284549623015
 20
301.6738137437271
 30
0.0
 11
100.0345496230139
 21
301.6738137437271
 31
0.0
  0
LINE
  5
B4B
330
1F
100
AcDbEntity
  8
0
100
AcDbLine
 10
100.284549623015
 20
301.1738137437272
 30
0.0
 11
100.0345496230139
 21
301.1738137437272
 31
0.0
  0
LINE
  5
B4C
330
1F
100
AcDbEntity
  8
0
100
AcDbLine
 10
100.284549623015
 20
297.8638137437258
 30
0.0
 11
100.0345496230139
 21
297.8638137437258
 31
0.0
  0
LINE
  5
B4D
330
1F
100
AcDbEntity
  8
0
100
AcDbLine
 10
100.284549623015
 20
297.363813743727
 30
0.0
 11
100.0345496230139
 21
297.3638137437271
 31
0.0
  0
LINE
  5
B4E
330
1F
100
AcDbEntity
  8
0
100
AcDbLine
 10
100.284549623015
 20
299.9038137437261
 30
0.0
 11
100.0345496230139
 21
299.9038137437261
 31
0.0
  0
LINE
  5
B4F
330
1F
100
AcDbEntity
  8
0
100
AcDbLine
 10
100.284549623015
 20
299.1338137437261
 30
0.0
 11
100.0345496230139
 21
299.1338137437261
 31
0.0
  0
LINE
  5
B50
330
1F
100
AcDbEntity
  8
0
100
AcDbLine
 10
100.284549623015
 20
298.6338137437261
 30
0.0
 11
100.0345496230139
 21
298.6338137437261
 31
0.0
  0
LINE
  5
B51
330
1F
100
AcDbEntity
  8
0
100
AcDbLine
 10
100.284549623015
 20
300.4038137437268
 30
0.0
 11
100.0345496230139
 21
300.4038137437272
 31
0.0
  0
LINE
  5
B52
330
1F
100
AcDbEntity
  8
0
100
AcDbLine
 10
100.284549623015
 20
296.0938137437271
 30
0.0
 11
100.0345496230139
 21
296.0938137437273
 31
0.0
  0
LINE
  5
B53
330
1F
100
AcDbEntity
  8
0
100
AcDbLine
 10
100.284549623015
 20
296.593813743727
 30
0.0
 11
100.0345496230139
 21
296.5938137437273
 31
0.0
  0
LINE
  5
B54
330
1F
100
AcDbEntity
  8
0
100
AcDbLine
 10
100.284549623015
 20
295.3238137437272
 30
0.0
 11
100.0345496230139
 21
295.3238137437272
 31
0.0
  0
LINE
  5
B55
330
1F
100
AcDbEntity
  8
0
100
AcDbLine
 10
100.284549623015
 20
294.8238137437261
 30
0.0
 11
100.0345496230139
 21
294.8238137437261
 31
0.0
  0
LINE
  5
B56
330
1F
100
AcDbEntity
  8
0
100
AcDbLine
 10
100.284549623015
 20
294.0538137437263
 30
0.0
 11
100.0345496230139
 21
294.0538137437263
 31
0.0
  0
LINE
  5
B57
330
1F
100
AcDbEntity
  8
0
100
AcDbLine
 10
100.284549623015
 20
293.5538137437271
 30
0.0
 11
100.0345496230139
 21
293.5538137437271
 31
0.0
  0
LINE
  5
B58
330
1F
100
AcDbEntity
  8
0
100
AcDbLine
 10
100.284549623015
 20
292.2838137437271
 30
0.0
 11
100.0345496230139
 21
292.2838137437271
 31
0.0
  0
LINE
  5
B59
330
1F
100
AcDbEntity
  8
0
100
AcDbLine
 10
100.284549623015
 20
292.7838137437272
 30
0.0
 11
100.0345496230139
 21
292.7838137437272
 31
0.0
  0
LINE
  5
B5A
330
1F
100
AcDbEntity
  8
0
100
AcDbLine
 10
100.284549623015
 20
292.7838137437272
 30
0.0
 11
100.0345496230139
 21
292.7838137437272
 31
0.0
  0
LINE
  5
B5B
330
1F
100
AcDbEntity
  8
0
100
AcDbLine
 10
100.284549623015
 20
292.2838137437261
 30
0.0
 11
100.0345496230139
 21
292.2838137437261
 31
0.0
  0
LINE
  5
B5C
330
1F
100
AcDbEntity
  8
0
100
AcDbLine
 10
100.284549623015
 20
291.5138137437261
 30
0.0
 11
100.0345496230139
 21
291.5138137437261
 31
0.0
  0
LINE
  5
B5D
330
1F
100
AcDbEntity
  8
0
100
AcDbLine
 10
100.284549623015
 20
291.0138137437271
 30
0.0
 11
100.0345496230139
 21
291.0138137437271
 31
0.0
  0
LINE
  5
B5E
330
1F
100
AcDbEntity
  8
0
100
AcDbLine
 10
100.284549623015
 20
290.2438137437271
 30
0.0
 11
100.0345496230139
 21
290.2438137437271
 31
0.0
  0
LINE
  5
B5F
330
1F
100
AcDbEntity
  8
0
100
AcDbLine
 10
100.284549623015
 20
286.4338137437271
 30
0.0
 11
100.0345496230139
 21
286.4338137437271
 31
0.0
  0
LINE
  5
B60
330
1F
100
AcDbEntity
  8
0
100
AcDbLine
 10
100.284549623015
 20
288.4738137437273
 30
0.0
 11
100.0345496230139
 21
288.4738137437273
 31
0.0
  0
LINE
  5
B61
330
1F
100
AcDbEntity
  8
0
100
AcDbLine
 10
100.284549623015
 20
287.7038137437271
 30
0.0
 11
100.0345496230139
 21
287.7038137437271
 31
0.0
  0
LINE
  5
B62
330
1F
100
AcDbEntity
  8
0
100
AcDbLine
 10
100.284549623015
 20
287.2038137437263
 30
0.0
 11
100.0345496230139
 21
287.2038137437261
 31
0.0
  0
LINE
  5
B63
330
1F
100
AcDbEntity
  8
0
100
AcDbLine
 10
100.284549623015
 20
289.7438137437271
 30
0.0
 11
100.0345496230139
 21
289.7438137437271
 31
0.0
  0
LINE
  5
B64
330
1F
100
AcDbEntity
  8
0
100
AcDbLine
 10
100.284549623015
 20
288.9738137437272
 30
0.0
 11
100.0345496230139
 21
288.9738137437272
 31
0.0
  0
ARC
  5
B65
330
1F
100
AcDbEntity
  8
0
100
AcDbCircle
 10
99.98454962301511
 20
320.7738137437261
 30
0.0
 40
0.3
100
AcDbArc
 50
270.0
 51
0.0
  0
LINE
  5
B66
330
1F
100
AcDbEntity
  8
0
100
AcDbLine
 10
100.2845496230138
 20
307.623813743726
 30
0.0
 11
100.0345496230139
 21
307.623813743726
 31
0.0
  0
LINE
  5
B67
330
1F
100
AcDbEntity
  8
0
100
AcDbLine
 10
100.2845496230138
 20
307.623813743726
 30
0.0
 11
100.2845496230138
 21
313.7238137437264
 31
0.0
  0
LINE
  5
B68
330
1F
100
AcDbEntity
  8
0
100
AcDbLine
 10
101.184549744933
 20
350.7738135843824
 30
0.0
 11
89.78454974493217
 21
350.7738135843824
 31
0.0
  0
LINE
  5
B69
330
1F
100
AcDbEntity
  8
0
100
AcDbLine
 10
91.68454962301515
 20
349.9738137437272
 30
0.0
 11
99.98454962301511
 21
349.9738137437272
 31
0.0
  0
LINE
  5
B6A
330
1F
100
AcDbEntity
  8
0
100
AcDbLine
 10
90.88454962301524
 20
348.9738137437263
 30
0.0
 11
99.98454962301511
 21
348.9738137437263
 31
0.0
  0
LINE
  5
B6B
330
1F
100
AcDbEntity
  8
0
100
AcDbLine
 10
98.63454962301524
 20
342.5738137437273
 30
0.0
 11
98.63454962301524
 21
344.9738137437273
 31
0.0
  0
LINE
  5
B6C
330
1F
100
AcDbEntity
  8
0
100
AcDbLine
 10
92.33454962301513
 20
344.9738137437273
 30
0.0
 11
92.33454962301513
 21
342.5738137437273
 31
0.0
  0
ARC
  5
B6D
330
1F
100
AcDbEntity
  8
0
100
AcDbCircle
 10
96.63454962301523
 20
338.907566505485
 30
0.0
 40
2.0
100
AcDbArc
 50
0.0
 51
74.99999999999845
  0
ARC
  5
B6E
330
1F
100
AcDbEntity
  8
0
100
AcDbCircle
 10
94.33454962301516
 20
339.5238496480771
 30
0.0
 40
2.0
100
AcDbArc
 50
74.99999999999845
 51
180.0
  0
LINE
  5
B6F
330
1F
100
AcDbEntity
  8
0
100
AcDbLine
 10
94.85218771322012
 20
341.4557013006551
 30
0.0
 11
97.15218771322021
 21
340.8394181580634
 31
0.0
  0
LINE
  5
B70
330
1F
100
AcDbEntity
  8
0
100
AcDbLine
 10
97.08454962301516
 20
339.9938137437263
 30
0.0
 11
93.88454962301523
 21
339.9938137437263
 31
0.0
  0
LINE
  5
B71
330
1F
100
AcDbEntity
  8
0
100
AcDbLine
 10
92.33454962301513
 20
342.5738137437273
 30
0.0
 11
98.63454962301524
 21
342.5738137437273
 31
0.0
  0
LINE
  5
B72
330
1F
100
AcDbEntity
  8
0
100
AcDbLine
 10
98.63454962301524
 20
325.4738137437263
 30
0.0
 11
98.63454962301524
 21
327.8738137437261
 31
0.0
  0
ARC
  5
B73
330
1F
100
AcDbEntity
  8
0
100
AcDbCircle
 10
96.63454962301523
 20
331.5390481403131
 30
0.0
 40
2.0
100
AcDbArc
 50
285.0000000000008
 51
0.0
  0
LINE
  5
B74
330
1F
100
AcDbEntity
  8
0
100
AcDbLine
 10
92.33454962301513
 20
327.8738137437261
 30
0.0
 11
92.33454962301513
 21
325.4738137437263
 31
0.0
  0
ARC
  5
B75
330
1F
100
AcDbEntity
  8
0
100
AcDbCircle
 10
94.33454962301516
 20
330.9227649977223
 30
0.0
 40
2.0
100
AcDbArc
 50
180.0
 51
285.0000000000008
  0
LINE
  5
B76
330
1F
100
AcDbEntity
  8
0
100
AcDbLine
 10
93.88454962301523
 20
330.4538137437261
 30
0.0
 11
97.08454962301516
 21
330.4538137437261
 31
0.0
  0
LINE
  5
B77
330
1F
100
AcDbEntity
  8
0
100
AcDbLine
 10
94.85218771322012
 20
328.9909133451434
 30
0.0
 11
97.15218771322021
 21
329.6071964877353
 31
0.0
  0
LINE
  5
B78
330
1F
100
AcDbEntity
  8
0
100
AcDbLine
 10
92.33454962301513
 20
327.8738137437261
 30
0.0
 11
98.63454962301524
 21
327.8738137437261
 31
0.0
  0
LINE
  5
B79
330
1F
100
AcDbEntity
  8
0
100
AcDbLine
 10
92.33454962301513
 20
325.9738137437263
 30
0.0
 11
98.63454962301524
 21
325.9738137437263
 31
0.0
  0
LINE
  5
B7A
330
1F
100
AcDbEntity
  8
0
100
AcDbLine
 10
92.33454962301513
 20
325.4738137437263
 30
0.0
 11
98.63454962301524
 21
325.4738137437263
 31
0.0
  0
LINE
  5
B7B
330
1F
100
AcDbEntity
  8
0
100
AcDbLine
 10
98.63454962301524
 20
331.5390481403131
 30
0.0
 11
98.63454962301524
 21
338.907566505485
 31
0.0
  0
LINE
  5
B7C
330
1F
100
AcDbEntity
  8
0
100
AcDbLine
 10
92.33454962301513
 20
339.5238496480771
 30
0.0
 11
92.33454962301513
 21
330.9227649977223
 31
0.0
  0
LINE
  5
B7D
330
1F
100
AcDbEntity
  8
0
100
AcDbLine
 10
93.88454962301523
 20
339.9938137437263
 30
0.0
 11
93.88454962301523
 21
330.4538137437261
 31
0.0
  0
LINE
  5
B7E
330
1F
100
AcDbEntity
  8
0
100
AcDbLine
 10
97.08454962301516
 20
330.4538137437261
 30
0.0
 11
97.08454962301516
 21
339.9938137437263
 31
0.0
  0
ARC
  5
B7F
330
1F
100
AcDbEntity
  8
0
100
AcDbCircle
 10
91.68454962301515
 20
349.473813743727
 30
0.0
 40
0.5
100
AcDbArc
 50
90.0
 51
180.0
  0
LINE
  5
B80
330
1F
100
AcDbEntity
  8
0
100
AcDbLine
 10
91.1845496230152
 20
349.4938137437263
 30
0.0
 11
91.1845496230152
 21
348.9938137437263
 31
0.0
  0
CIRCLE
  5
B81
330
1F
100
AcDbEntity
  8
0
100
AcDbCircle
 10
95.4845496230151
 20
347.0438137437263
 30
0.0
 40
1.399999999999999
  0
LINE
  5
B82
330
1F
100
AcDbEntity
  8
0
100
AcDbLine
 10
92.33454962301513
 20
344.4738137437263
 30
0.0
 11
98.63454962301524
 21
344.4738137437263
 31
0.0
  0
LINE
  5
B83
330
1F
100
AcDbEntity
  8
0
100
AcDbLine
 10
92.33454962301513
 20
344.9538137437273
 30
0.0
 11
98.63454962301524
 21
344.9538137437273
 31
0.0
  0
LINE
  5
B84
330
1F
100
AcDbEntity
  8
0
100
AcDbLine
 10
100.284549623015
 20
349.6938137437263
 30
0.0
 11
100.284549623015
 21
342.5738137437263
 31
0.0
  0
LINE
  5
B85
330
1F
100
AcDbEntity
  8
0
100
AcDbLine
 10
99.98454962301511
 20
342.5738137437263
 30
0.0
 11
100.284549623015
 21
342.5738137437263
 31
0.0
  0
LINE
  5
B86
330
1F
100
AcDbEntity
  8
0
100
AcDbLine
 10
99.98454962301511
 20
339.0338137437264
 30
0.0
 11
100.284549623015
 21
339.0338137437264
 31
0.0
  0
LINE
  5
B87
330
1F
100
AcDbEntity
  8
0
100
AcDbLine
 10
99.98454962301511
 20
337.7638137437263
 30
0.0
 11
100.284549623015
 21
337.7638137437263
 31
0.0
  0
LINE
  5
B88
330
1F
100
AcDbEntity
  8
0
100
AcDbLine
 10
99.98454962301511
 20
337.7638137437263
 30
0.0
 11
100.284549623015
 21
337.7638137437263
 31
0.0
  0
LINE
  5
B89
330
1F
100
AcDbEntity
  8
0
100
AcDbLine
 10
99.98454962301511
 20
336.4938137437263
 30
0.0
 11
100.284549623015
 21
336.4938137437263
 31
0.0
  0
LINE
  5
B8A
330
1F
100
AcDbEntity
  8
0
100
AcDbLine
 10
99.98454962301511
 20
336.4938137437263
 30
0.0
 11
100.284549623015
 21
336.4938137437263
 31
0.0
  0
LINE
  5
B8B
330
1F
100
AcDbEntity
  8
0
100
AcDbLine
 10
99.98454962301511
 20
335.2238137437264
 30
0.0
 11
100.284549623015
 21
335.2238137437264
 31
0.0
  0
LINE
  5
B8C
330
1F
100
AcDbEntity
  8
0
100
AcDbLine
 10
99.98454962301511
 20
335.2238137437264
 30
0.0
 11
100.284549623015
 21
335.2238137437264
 31
0.0
  0
LINE
  5
B8D
330
1F
100
AcDbEntity
  8
0
100
AcDbLine
 10
99.98454962301511
 20
333.953813743726
 30
0.0
 11
100.284549623015
 21
333.953813743726
 31
0.0
  0
LINE
  5
B8E
330
1F
100
AcDbEntity
  8
0
100
AcDbLine
 10
99.98454962301511
 20
333.953813743726
 30
0.0
 11
100.284549623015
 21
333.953813743726
 31
0.0
  0
LINE
  5
B8F
330
1F
100
AcDbEntity
  8
0
100
AcDbLine
 10
99.98454962301511
 20
332.6838137437273
 30
0.0
 11
100.284549623015
 21
332.6838137437273
 31
0.0
  0
LINE
  5
B90
330
1F
100
AcDbEntity
  8
0
100
AcDbLine
 10
99.98454962301511
 20
331.4138137437272
 30
0.0
 11
100.284549623015
 21
331.4138137437272
 31
0.0
  0
LINE
  5
B91
330
1F
100
AcDbEntity
  8
0
100
AcDbLine
 10
99.98454962301511
 20
327.8738137437261
 30
0.0
 11
100.284549623015
 21
327.8738137437261
 31
0.0
  0
ARC
  5
B92
330
1F
100
AcDbEntity
  8
0
100
AcDbCircle
 10
99.98454962301511
 20
349.6738137437273
 30
0.0
 40
0.3
100
AcDbArc
 50
0.0
 51
90.0
  0
ARC
  5
B93
330
1F
100
AcDbEntity
  8
0
100
AcDbCircle
 10
108.1845496230151
 20
363.9738137437258
 30
0.0
 40
1.0
100
AcDbArc
 50
0.0
 51
90.0
  0
ARC
  5
B94
330
1F
100
AcDbEntity
  8
0
100
AcDbCircle
 10
108.1845496230151
 20
363.9738137437258
 30
0.0
 40
1.0
100
AcDbArc
 50
0.0
 51
90.0
  0
MTEXT
  5
BEC
330
1F
100
AcDbEntity
  8
0
100
AcDbMText
 10
38.496574925397
 20
403.6044813401936
 30
0.0
 40
10.0
 41
0.0
 71
     1
 72
     5
  1
SCON-CA-400I~750I-EP-*-1/2\PSCON-CA-100SI~750SI-EP-*-1/2
1001
ACAD
1000
MTEXTBEGIN
1070
    73
1070
     1
1070
    44
1040
1.0
1070
    74
1070
     0
1000
MTEXTEND
1000
MTEXTBEGIN
1070
    73
1070
     1
1070
    44
1040
1.0
1070
    74
1070
     0
1000
MTEXTEND
1000
MTEXTBEGIN
1070
    73
1070
     1
1070
    44
1040
1.0
1070
    74
1070
     0
1000
MTEXTEND
1000
MTEXTBEGIN
1070
    73
1070
     1
1070
    44
1040
1.0
1070
    74
1070
     0
1000
MTEXTEND
  0
ENDSEC
  0
SECTION
  2
OBJECTS
  0
DICTIONARY
  5
C
330
0
100
AcDbDictionary
  3
ACAD_GROUP
350
D
  3
ACAD_LAYOUT
350
1A
  3
ACAD_MLINESTYLE
350
17
  3
ACAD_PLOTSETTINGS
350
19
  3
ACAD_PLOTSTYLENAME
350
E
  3
ACDBHEADERROUNDTRIPXREC
350
C69
  3
ACDBVARIABLEDICTIONARY
350
61F
  0
DICTIONARY
  5
527
330
2
100
AcDbDictionary
280
     1
  3
ACAD_LAYERSTATES
360
528
  0
DICTIONARY
  5
645
330
1F
100
AcDbDictionary
280
     1
  3
ACAD_LAYOUTSELFREF
360
C8A
  0
DICTIONARY
  5
643
330
1B
100
AcDbDictionary
280
     1
  3
ACAD_LAYOUTSELFREF
360
C89
  0
DICTIONARY
  5
D
102
{ACAD_REACTORS
330
C
102
}
330
C
100
AcDbDictionary
  0
DICTIONARY
  5
1A
102
{ACAD_REACTORS
330
C
102
}
330
C
100
AcDbDictionary
  0
DICTIONARY
  5
17
102
{ACAD_REACTORS
330
C
102
}
330
C
100
AcDbDictionary
  3
STANDARD
350
18
  0
DICTIONARY
  5
19
102
{ACAD_REACTORS
330
C
102
}
330
C
100
AcDbDictionary
  0
ACDBDICTIONARYWDFLT
  5
E
102
{ACAD_REACTORS
330
C
102
}
330
C
100
AcDbDictionary
281
     1
  3
Normal
350
F
100
AcDbDictionaryWithDefault
340
F
  0
DICTIONARY
  5
C69
102
{ACAD_REACTORS
330
C
102
}
330
C
100
AcDbDictionary
  3
CEPSNTYPE
350
C73
  3
FINGERPRINTGUID
350
C74
  3
HYPERLINKBASE
350
C6C
  3
INSUNITS
350
C72
  3
LAYOUTDICT
350
C6E
  3
LWETCUNION
350
C71
  3
PLOTSETDICT
350
C6F
  3
PLOTSTYLNAMDICT
350
C70
  3
PSVPSCALE
350
C76
  3
PUCSBASE
350
C79
  3
PUCSORGBACK
350
C7F
  3
PUCSORGBOTTOM
350
C7B
  3
PUCSORGFRONT
350
C7E
  3
PUCSORGLEFT
350
C7C
  3
PUCSORGRIGHT
350
C7D
  3
PUCSORGTOP
350
C7A
  3
PUCSORTHOREF
350
C77
  3
PUCSORTHOVIEW
350
C78
  3
STYLESHEET
350
C6D
  3
TSTACKALIGN
350
C6A
  3
TSTACKSIZE
350
C6B
  3
UCSBASE
350
C82
  3
UCSORGBACK
350
C88
  3
UCSORGBOTTOM
350
C84
  3
UCSORGFRONT
350
C87
  3
UCSORGLEFT
350
C85
  3
UCSORGRIGHT
350
C86
  3
UCSORGTOP
350
C83
  3
UCSORTHOREF
350
C80
  3
UCSORTHOVIEW
350
C81
  3
VERSIONGUID
350
C75
  0
DICTIONARY
  5
61F
102
{ACAD_REACTORS
330
C
102
}
330
C
100
AcDbDictionary
  3
DIMASSOC
350
621
  3
HIDETEXT
350
620
  0
DICTIONARY
  5
528
102
{ACAD_REACTORS
330
527
102
}
330
527
100
AcDbDictionary
  0
XRECORD
  5
C8A
102
{ACAD_REACTORS
330
645
102
}
330
645
100
AcDbXrecord
340
1F
  0
XRECORD
  5
C89
102
{ACAD_REACTORS
330
643
102
}
330
643
100
AcDbXrecord
340
1B
  0
MLINESTYLE
  5
18
102
{ACAD_REACTORS
330
17
102
}
330
17
100
AcDbMlineStyle
  2
STANDARD
 70
     0
  3

 62
   256
 51
90.0
 52
90.0
 71
     2
 49
0.5
 62
   256
  6
BYLAYER
 49
-0.5
 62
   256
  6
BYLAYER
  0
ACDBPLACEHOLDER
  5
F
102
{ACAD_REACTORS
330
E
102
}
330
E
100
AcDbPlaceHolder
280
     0
  0
XRECORD
  5
C73
102
{ACAD_REACTORS
330
C69
102
}
330
C69
100
AcDbXrecord
 90
        0
  0
XRECORD
  5
C74
102
{ACAD_REACTORS
330
C69
102
}
330
C69
100
AcDbXrecord
  1
{AF26B096-30B6-4602-97C0-3B1933EC3A2B}
  0
XRECORD
  5
C6C
102
{ACAD_REACTORS
330
C69
102
}
330
C69
100
AcDbXrecord
  1

  0
XRECORD
  5
C72
102
{ACAD_REACTORS
330
C69
102
}
330
C69
100
AcDbXrecord
 90
        4
  0
XRECORD
  5
C6E
102
{ACAD_REACTORS
330
C69
102
}
330
C69
100
AcDbXrecord
340
1A
  0
XRECORD
  5
C71
102
{ACAD_REACTORS
330
C69
102
}
330
C69
100
AcDbXrecord
 90
    10781
  0
XRECORD
  5
C6F
102
{ACAD_REACTORS
330
C69
102
}
330
C69
100
AcDbXrecord
340
19
  0
XRECORD
  5
C70
102
{ACAD_REACTORS
330
C69
102
}
330
C69
100
AcDbXrecord
340
E
  0
XRECORD
  5
C76
102
{ACAD_REACTORS
330
C69
102
}
330
C69
100
AcDbXrecord
 40
0.0
  0
XRECORD
  5
C79
102
{ACAD_REACTORS
330
C69
102
}
330
C69
100
AcDbXrecord
340
0
  0
XRECORD
  5
C7F
102
{ACAD_REACTORS
330
C69
102
}
330
C69
100
AcDbXrecord
 10
0.0
 20
0.0
 30
0.0
  0
XRECORD
  5
C7B
102
{ACAD_REACTORS
330
C69
102
}
330
C69
100
AcDbXrecord
 10
0.0
 20
0.0
 30
0.0
  0
XRECORD
  5
C7E
102
{ACAD_REACTORS
330
C69
102
}
330
C69
100
AcDbXrecord
 10
0.0
 20
0.0
 30
0.0
  0
XRECORD
  5
C7C
102
{ACAD_REACTORS
330
C69
102
}
330
C69
100
AcDbXrecord
 10
0.0
 20
0.0
 30
0.0
  0
XRECORD
  5
C7D
102
{ACAD_REACTORS
330
C69
102
}
330
C69
100
AcDbXrecord
 10
0.0
 20
0.0
 30
0.0
  0
XRECORD
  5
C7A
102
{ACAD_REACTORS
330
C69
102
}
330
C69
100
AcDbXrecord
 10
0.0
 20
0.0
 30
0.0
  0
XRECORD
  5
C77
102
{ACAD_REACTORS
330
C69
102
}
330
C69
100
AcDbXrecord
340
0
  0
XRECORD
  5
C78
102
{ACAD_REACTORS
330
C69
102
}
330
C69
100
AcDbXrecord
 70
     0
  0
XRECORD
  5
C6D
102
{ACAD_REACTORS
330
C69
102
}
330
C69
100
AcDbXrecord
  1

  0
XRECORD
  5
C6A
102
{ACAD_REACTORS
330
C69
102
}
330
C69
100
AcDbXrecord
 90
        1
  0
XRECORD
  5
C6B
102
{ACAD_REACTORS
330
C69
102
}
330
C69
100
AcDbXrecord
 90
       70
  0
XRECORD
  5
C82
102
{ACAD_REACTORS
330
C69
102
}
330
C69
100
AcDbXrecord
340
0
  0
XRECORD
  5
C88
102
{ACAD_REACTORS
330
C69
102
}
330
C69
100
AcDbXrecord
 10
0.0
 20
0.0
 30
0.0
  0
XRECORD
  5
C84
102
{ACAD_REACTORS
330
C69
102
}
330
C69
100
AcDbXrecord
 10
0.0
 20
0.0
 30
0.0
  0
XRECORD
  5
C87
102
{ACAD_REACTORS
330
C69
102
}
330
C69
100
AcDbXrecord
 10
0.0
 20
0.0
 30
0.0
  0
XRECORD
  5
C85
102
{ACAD_REACTORS
330
C69
102
}
330
C69
100
AcDbXrecord
 10
0.0
 20
0.0
 30
0.0
  0
XRECORD
  5
C86
102
{ACAD_REACTORS
330
C69
102
}
330
C69
100
AcDbXrecord
 10
0.0
 20
0.0
 30
0.0
  0
XRECORD
  5
C83
102
{ACAD_REACTORS
330
C69
102
}
330
C69
100
AcDbXrecord
 10
0.0
 20
0.0
 30
0.0
  0
XRECORD
  5
C80
102
{ACAD_REACTORS
330
C69
102
}
330
C69
100
AcDbXrecord
340
0
  0
XRECORD
  5
C81
102
{ACAD_REACTORS
330
C69
102
}
330
C69
100
AcDbXrecord
 70
     0
  0
XRECORD
  5
C75
102
{ACAD_REACTORS
330
C69
102
}
330
C69
100
AcDbXrecord
  1
{24C52564-749E-48E5-92A8-4FFA6B04F291}
  0
DICTIONARYVAR
  5
621
102
{ACAD_REACTORS
330
61F
102
}
330
61F
100
DictionaryVariables
280
     0
  1
2
  0
DICTIONARYVAR
  5
620
102
{ACAD_REACTORS
330
61F
102
}
330
61F
100
DictionaryVariables
280
     0
  1
1
  0
ENDSEC
  0
EOF
