  0
SECTION
  2
HEADER
  9
$ACADVER
  1
AC1014
  9
$ACADMAINTVER
 70
     9
  9
$DWGCODEPAGE
  3
ANSI_932
  9
$INSBASE
 10
0.0
 20
0.0
 30
0.0
  9
$EXTMIN
 10
36.98133615374411
 20
0.0000028620359558
 30
0.0
  9
$EXTMAX
 10
330.7347622280773
 20
405.2030835018819
 30
0.0
  9
$LIMMIN
 10
0.0
 20
0.0
  9
$LIMMAX
 10
420.0
 20
297.0
  9
$ORTHOMODE
 70
     0
  9
$REGENMODE
 70
     1
  9
$FILLMODE
 70
     1
  9
$QTEXTMODE
 70
     0
  9
$MIRRTEXT
 70
     1
  9
$DRAGMODE
 70
     2
  9
$LTSCALE
 40
1.0
  9
$OSMODE
 70
    55
  9
$ATTMODE
 70
     1
  9
$TEXTSIZE
 40
2.5
  9
$TRACEWID
 40
1.0
  9
$TEXTSTYLE
  7
STANDARD
  9
$CLAYER
  8
0
  9
$CELTYPE
  6
BYLAYER
  9
$CECOLOR
 62
   256
  9
$CELTSCALE
 40
1.0
  9
$DELOBJ
 70
     1
  9
$DISPSILH
 70
     0
  9
$DIMSCALE
 40
1.0
  9
$DIMASZ
 40
2.5
  9
$DIMEXO
 40
0.625
  9
$DIMDLI
 40
3.75
  9
$DIMRND
 40
0.0
  9
$DIMDLE
 40
0.0
  9
$DIMEXE
 40
1.25
  9
$DIMTP
 40
0.0
  9
$DIMTM
 40
0.0
  9
$DIMTXT
 40
2.5
  9
$DIMCEN
 40
2.5
  9
$DIMTSZ
 40
0.0
  9
$DIMTOL
 70
     0
  9
$DIMLIM
 70
     0
  9
$DIMTIH
 70
     0
  9
$DIMTOH
 70
     0
  9
$DIMSE1
 70
     0
  9
$DIMSE2
 70
     0
  9
$DIMTAD
 70
     1
  9
$DIMZIN
 70
     8
  9
$DIMBLK
  1

  9
$DIMASO
 70
     1
  9
$DIMSHO
 70
     1
  9
$DIMPOST
  1

  9
$DIMAPOST
  1

  9
$DIMALT
 70
     0
  9
$DIMALTD
 70
     3
  9
$DIMALTF
 40
0.03937007874016
  9
$DIMLFAC
 40
1.0
  9
$DIMTOFL
 70
     1
  9
$DIMTVP
 40
0.0
  9
$DIMTIX
 70
     0
  9
$DIMSOXD
 70
     0
  9
$DIMSAH
 70
     0
  9
$DIMBLK1
  1

  9
$DIMBLK2
  1

  9
$DIMSTYLE
  2
ISO-25
  9
$DIMCLRD
 70
     0
  9
$DIMCLRE
 70
     0
  9
$DIMCLRT
 70
     0
  9
$DIMTFAC
 40
1.0
  9
$DIMGAP
 40
0.625
  9
$DIMJUST
 70
     0
  9
$DIMSD1
 70
     0
  9
$DIMSD2
 70
     0
  9
$DIMTOLJ
 70
     0
  9
$DIMTZIN
 70
     8
  9
$DIMALTZ
 70
     0
  9
$DIMALTTZ
 70
     0
  9
$DIMFIT
 70
     3
  9
$DIMUPT
 70
     0
  9
$DIMUNIT
 70
     2
  9
$DIMDEC
 70
     2
  9
$DIMTDEC
 70
     2
  9
$DIMALTU
 70
     2
  9
$DIMALTTD
 70
     3
  9
$DIMTXSTY
  7
STANDARD
  9
$DIMAUNIT
 70
     0
  9
$LUNITS
 70
     2
  9
$LUPREC
 70
     4
  9
$SKETCHINC
 40
1.0
  9
$FILLETRAD
 40
10.0
  9
$AUNITS
 70
     0
  9
$AUPREC
 70
     0
  9
$MENU
  1
.
  9
$ELEVATION
 40
0.0
  9
$PELEVATION
 40
0.0
  9
$THICKNESS
 40
0.0
  9
$LIMCHECK
 70
     0
  9
$BLIPMODE
 70
     0
  9
$CHAMFERA
 40
10.0
  9
$CHAMFERB
 40
10.0
  9
$CHAMFERC
 40
20.0
  9
$CHAMFERD
 40
0.0
  9
$SKPOLY
 70
     0
  9
$TDCREATE
 40
2455874.707952396
  9
$TDUPDATE
 40
2456013.788383217
  9
$TDINDWG
 40
0.0152882986
  9
$TDUSRTIMER
 40
0.0152873843
  9
$USRTIMER
 70
     1
  9
$ANGBASE
 50
0.0
  9
$ANGDIR
 70
     0
  9
$PDMODE
 70
     0
  9
$PDSIZE
 40
0.0
  9
$PLINEWID
 40
0.0
  9
$COORDS
 70
     1
  9
$SPLFRAME
 70
     0
  9
$SPLINETYPE
 70
     6
  9
$SPLINESEGS
 70
     8
  9
$ATTDIA
 70
     0
  9
$ATTREQ
 70
     1
  9
$HANDLING
 70
 22529
  9
$HANDSEED
  5
B92
  9
$SURFTAB1
 70
     6
  9
$SURFTAB2
 70
     6
  9
$SURFTYPE
 70
     6
  9
$SURFU
 70
     6
  9
$SURFV
 70
     6
  9
$UCSNAME
  2

  9
$UCSORG
 10
0.0
 20
0.0
 30
0.0
  9
$UCSXDIR
 10
1.0
 20
0.0
 30
0.0
  9
$UCSYDIR
 10
0.0
 20
1.0
 30
0.0
  9
$PUCSNAME
  2

  9
$PUCSORG
 10
0.0
 20
0.0
 30
0.0
  9
$PUCSXDIR
 10
1.0
 20
0.0
 30
0.0
  9
$PUCSYDIR
 10
0.0
 20
1.0
 30
0.0
  9
$USERI1
 70
     0
  9
$USERI2
 70
     0
  9
$USERI3
 70
     0
  9
$USERI4
 70
     0
  9
$USERI5
 70
     0
  9
$USERR1
 40
0.0
  9
$USERR2
 40
0.0
  9
$USERR3
 40
0.0
  9
$USERR4
 40
0.0
  9
$USERR5
 40
0.0
  9
$WORLDVIEW
 70
     1
  9
$SHADEDGE
 70
     3
  9
$SHADEDIF
 70
    70
  9
$TILEMODE
 70
     1
  9
$MAXACTVP
 70
    64
  9
$PINSBASE
 10
0.0
 20
0.0
 30
0.0
  9
$PLIMCHECK
 70
     0
  9
$PEXTMIN
 10
1.000000000000000E+20
 20
1.000000000000000E+20
 30
1.000000000000000E+20
  9
$PEXTMAX
 10
-1.000000000000000E+20
 20
-1.000000000000000E+20
 30
-1.000000000000000E+20
  9
$PLIMMIN
 10
0.0
 20
0.0
  9
$PLIMMAX
 10
420.0
 20
297.0
  9
$UNITMODE
 70
     0
  9
$VISRETAIN
 70
     1
  9
$PLINEGEN
 70
     0
  9
$PSLTSCALE
 70
     1
  9
$TREEDEPTH
 70
  3020
  9
$PICKSTYLE
 70
     1
  9
$CMLSTYLE
  2
STANDARD
  9
$CMLJUST
 70
     0
  9
$CMLSCALE
 40
20.0
  9
$PROXYGRAPHICS
 70
     1
  9
$MEASUREMENT
 70
     1
  0
ENDSEC
  0
SECTION
  2
CLASSES
  0
CLASS
  1
ACDBDICTIONARYWDFLT
  2
AcDbDictionaryWithDefault
  3
AutoCAD 2000
 90
        0
280
     0
281
     0
  0
CLASS
  1
ACDBPLACEHOLDER
  2
AcDbPlaceHolder
  3
AutoCAD 2000
 90
        0
280
     0
281
     0
  0
CLASS
  1
LAYOUT
  2
AcDbLayout
  3
AutoCAD 2000
 90
        0
280
     0
281
     0
  0
CLASS
  1
DICTIONARYVAR
  2
AcDbDictionaryVar
  3
AutoCAD 2000
 90
        0
280
     0
281
     0
  0
CLASS
  1
LONG_TRANSACTION
  2
AcDbLongTransaction
  3
AutoCAD 2000
 90
        0
280
     0
281
     0
  0
CLASS
  1
LWPOLYLINE
  2
AcDbPolyline
  3
AutoCAD 2000
 90
        0
280
     0
281
     1
  0
CLASS
  1
HATCH
  2
AcDbHatch
  3
AutoCAD 2000
 90
        0
280
     0
281
     1
  0
CLASS
  1
XRECORD
  2
AcDbXrecord
  3
AutoCAD 2000
 90
        0
280
     0
281
     0
  0
CLASS
  1
LONG_TRANSACTION
  2
AcDbLongTransaction
  3
AutoCAD 2000
 90
        0
280
     0
281
     0
  0
CLASS
  1
LWPOLYLINE
  2
AcDbPolyline
  3
AutoCAD 2000
 90
        0
280
     0
281
     1
  0
CLASS
  1
HATCH
  2
AcDbHatch
  3
AutoCAD 2000
 90
        0
280
     0
281
     1
  0
CLASS
  1
XRECORD
  2
AcDbXrecord
  3
AutoCAD 2000
 90
        0
280
     0
281
     0
  0
CLASS
  1
LONG_TRANSACTION
  2
AcDbLongTransaction
  3
AutoCAD 2000
 90
        0
280
     0
281
     0
  0
CLASS
  1
LWPOLYLINE
  2
AcDbPolyline
  3
AutoCAD 2000
 90
        0
280
     0
281
     1
  0
CLASS
  1
HATCH
  2
AcDbHatch
  3
AutoCAD 2000
 90
        0
280
     0
281
     1
  0
CLASS
  1
XRECORD
  2
AcDbXrecord
  3
AutoCAD 2000
 90
        0
280
     0
281
     0
  0
CLASS
  1
LONG_TRANSACTION
  2
AcDbLongTransaction
  3
AutoCAD 2000
 90
        0
280
     0
281
     0
  0
CLASS
  1
LWPOLYLINE
  2
AcDbPolyline
  3
AutoCAD 2000
 90
        0
280
     0
281
     1
  0
CLASS
  1
HATCH
  2
AcDbHatch
  3
AutoCAD 2000
 90
        0
280
     0
281
     1
  0
CLASS
  1
XRECORD
  2
AcDbXrecord
  3
AutoCAD 2000
 90
        0
280
     0
281
     0
  0
CLASS
  1
LONG_TRANSACTION
  2
AcDbLongTransaction
  3
AutoCAD 2000
 90
        0
280
     0
281
     0
  0
CLASS
  1
LWPOLYLINE
  2
AcDbPolyline
  3
AutoCAD 2000
 90
        0
280
     0
281
     1
  0
CLASS
  1
HATCH
  2
AcDbHatch
  3
AutoCAD 2000
 90
        0
280
     0
281
     1
  0
CLASS
  1
XRECORD
  2
AcDbXrecord
  3
AutoCAD 2000
 90
        0
280
     0
281
     0
  0
CLASS
  1
LONG_TRANSACTION
  2
AcDbLongTransaction
  3
AutoCAD 2000
 90
        0
280
     0
281
     0
  0
CLASS
  1
LWPOLYLINE
  2
AcDbPolyline
  3
AutoCAD 2000
 90
        0
280
     0
281
     1
  0
CLASS
  1
HATCH
  2
AcDbHatch
  3
AutoCAD 2000
 90
        0
280
     0
281
     1
  0
CLASS
  1
XRECORD
  2
AcDbXrecord
  3
AutoCAD 2000
 90
        0
280
     0
281
     0
  0
CLASS
  1
LONG_TRANSACTION
  2
AcDbLongTransaction
  3
AutoCAD 2000
 90
        0
280
     0
281
     0
  0
CLASS
  1
LWPOLYLINE
  2
AcDbPolyline
  3
AutoCAD 2000
 90
        0
280
     0
281
     1
  0
CLASS
  1
HATCH
  2
AcDbHatch
  3
AutoCAD 2000
 90
        0
280
     0
281
     1
  0
CLASS
  1
XRECORD
  2
AcDbXrecord
  3
AutoCAD 2000
 90
        0
280
     0
281
     0
  0
ENDSEC
  0
SECTION
  2
TABLES
  0
TABLE
  2
VPORT
  5
8
330
0
100
AcDbSymbolTable
 70
     2
  0
VPORT
  5
B6F
330
8
100
AcDbSymbolTableRecord
100
AcDbViewportTableRecord
  2
*ACTIVE
 70
     0
 10
0.0
 20
0.0
 11
1.0
 21
1.0
 12
180.6642160316285
 22
207.3915269944046
 13
0.0
 23
0.0
 14
10.0
 24
10.0
 15
10.0
 25
10.0
 16
0.0
 26
0.0
 36
1.0
 17
0.0
 27
0.0
 37
0.0
 40
417.847076848828
 41
1.46415552855407
 42
50.0
 43
0.0
 44
0.0
 50
0.0
 51
0.0
 71
     0
 72
   100
 73
     1
 74
     3
 75
     0
 76
     0
 77
     0
 78
     0
  0
ENDTAB
  0
TABLE
  2
LTYPE
  5
5
330
0
100
AcDbSymbolTable
 70
     3
  0
LTYPE
  5
14
330
5
100
AcDbSymbolTableRecord
100
AcDbLinetypeTableRecord
  2
BYBLOCK
 70
     0
  3

 72
    65
 73
     0
 40
0.0
  0
LTYPE
  5
15
330
5
100
AcDbSymbolTableRecord
100
AcDbLinetypeTableRecord
  2
BYLAYER
 70
     0
  3

 72
    65
 73
     0
 40
0.0
  0
LTYPE
  5
16
330
5
100
AcDbSymbolTableRecord
100
AcDbLinetypeTableRecord
  2
CONTINUOUS
 70
     0
  3
Solid line
 72
    65
 73
     0
 40
0.0
  0
LTYPE
  5
A1
330
5
100
AcDbSymbolTableRecord
100
AcDbLinetypeTableRecord
  2
CENTER
 70
     0
  3
__ . __ . __ . __ . __ . __ . __ . __ . __ . __
 72
    65
 73
     4
 40
1.0
 49
0.5
 74
     0
 49
-0.25
 74
     0
 49
0.0
 74
     0
 49
-0.25
 74
     0
  0
LTYPE
  5
9FD
330
5
100
AcDbSymbolTableRecord
100
AcDbLinetypeTableRecord
  2
DASHDOT
 70
     0
  3
__ . __ . __ . __ . __ . __ . __ . __ . __ . __
 72
    65
 73
     4
 40
7.5
 49
6.0
 74
     0
 49
-0.5
 74
     0
 49
0.5
 74
     0
 49
-0.5
 74
     0
  0
ENDTAB
  0
TABLE
  2
LAYER
  5
2
102
{ACAD_XDICTIONARY
360
A7
102
}
330
0
100
AcDbSymbolTable
 70
     4
  0
LAYER
  5
10
330
2
100
AcDbSymbolTableRecord
100
AcDbLayerTableRecord
  2
0
 70
     0
 62
     7
  6
CONTINUOUS
  0
LAYER
  5
A3
330
2
100
AcDbSymbolTableRecord
100
AcDbLayerTableRecord
  2
DEFPOINTS
 70
     0
 62
    -7
  6
CONTINUOUS
  0
LAYER
  5
A4
330
2
100
AcDbSymbolTableRecord
100
AcDbLayerTableRecord
  2
1
 70
     0
 62
     3
  6
CONTINUOUS
  0
LAYER
  5
9FE
330
2
100
AcDbSymbolTableRecord
100
AcDbLayerTableRecord
  2
2_カバ_
 70
     0
 62
     7
  6
CONTINUOUS
  0
ENDTAB
  0
TABLE
  2
STYLE
  5
3
330
0
100
AcDbSymbolTable
 70
     1
  0
STYLE
  5
11
330
3
100
AcDbSymbolTableRecord
100
AcDbTextStyleTableRecord
  2
STANDARD
 70
     0
 40
0.0
 41
1.0
 50
0.0
 71
     0
 42
2.5
  3
txt
  4

  0
ENDTAB
  0
TABLE
  2
VIEW
  5
6
330
0
100
AcDbSymbolTable
 70
     0
  0
ENDTAB
  0
TABLE
  2
UCS
  5
7
330
0
100
AcDbSymbolTable
 70
     0
  0
ENDTAB
  0
TABLE
  2
APPID
  5
9
330
0
100
AcDbSymbolTable
 70
     1
  0
APPID
  5
12
330
9
100
AcDbSymbolTableRecord
100
AcDbRegAppTableRecord
  2
ACAD
 70
     0
  0
ENDTAB
  0
TABLE
  2
DIMSTYLE
  5
A
330
0
100
AcDbSymbolTable
 70
     2
  0
DIMSTYLE
105
27
330
A
100
AcDbSymbolTableRecord
100
AcDbDimStyleTableRecord
  2
ISO-25
 70
     0
  3

  4

  5

  6

  7

 40
1.0
 41
2.5
 42
0.625
 43
3.75
 44
1.25
 45
0.0
 46
0.0
 47
0.0
 48
0.0
140
2.5
141
2.5
142
0.0
143
0.03937007874016
144
1.0
145
0.0
146
1.0
147
0.625
 71
     0
 72
     0
 73
     0
 74
     0
 75
     0
 76
     0
 77
     1
 78
     8
170
     0
171
     3
172
     1
173
     0
174
     0
175
     0
176
     0
177
     0
178
     0
270
     2
271
     2
272
     2
273
     2
274
     3
340
11
275
     0
280
     0
281
     0
282
     0
283
     0
284
     8
285
     0
286
     0
287
     3
288
     0
  0
DIMSTYLE
105
A6
330
A
100
AcDbSymbolTableRecord
100
AcDbDimStyleTableRecord
  2
STANDARD
 70
     0
  3

  4

  5

  6

  7

 40
1.0
 41
2.5
 42
0.625
 43
3.75
 44
1.25
 45
0.0
 46
0.0
 47
0.0
 48
0.0
140
2.5
141
2.5
142
0.0
143
0.0394
144
1.0
145
0.0
146
1.0
147
0.625
 71
     0
 72
     0
 73
     0
 74
     0
 75
     0
 76
     0
 77
     1
 78
     8
170
     0
171
     4
172
     1
173
     0
174
     0
175
     0
176
     0
177
     0
178
     0
270
     2
271
     4
272
     4
273
     8
274
     4
340
11
275
     0
280
     0
281
     0
282
     0
283
     1
284
     0
285
     0
286
     0
287
     3
288
     0
  0
ENDTAB
  0
TABLE
  2
BLOCK_RECORD
  5
1
330
0
100
AcDbSymbolTable
 70
     1
  0
BLOCK_RECORD
  5
1F
102
{ACAD_XDICTIONARY
360
9F3
102
}
330
1
100
AcDbSymbolTableRecord
100
AcDbBlockTableRecord
  2
*MODEL_SPACE
  0
BLOCK_RECORD
  5
1B
102
{ACAD_XDICTIONARY
360
9F1
102
}
330
1
100
AcDbSymbolTableRecord
100
AcDbBlockTableRecord
  2
*PAPER_SPACE
  0
BLOCK_RECORD
  5
9A
330
1
100
AcDbSymbolTableRecord
100
AcDbBlockTableRecord
  2
A$C5CFD6E8C
  0
ENDTAB
  0
ENDSEC
  0
SECTION
  2
BLOCKS
  0
BLOCK
  5
20
330
1F
100
AcDbEntity
  8
0
100
AcDbBlockBegin
  2
*MODEL_SPACE
 70
     0
 10
0.0
 20
0.0
 30
0.0
  3
*MODEL_SPACE
  1

  0
ENDBLK
  5
21
330
1F
100
AcDbEntity
  8
0
100
AcDbBlockEnd
  0
BLOCK
  5
1C
330
1B
100
AcDbEntity
 67
     1
  8
0
100
AcDbBlockBegin
  2
*PAPER_SPACE
 70
     0
 10
0.0
 20
0.0
 30
0.0
  3
*PAPER_SPACE
  1

  0
ENDBLK
  5
1D
330
1B
100
AcDbEntity
 67
     1
  8
0
100
AcDbBlockEnd
  0
BLOCK
  5
9F
330
9A
100
AcDbEntity
  8
0
 48
5.0
100
AcDbBlockBegin
  2
A$C5CFD6E8C
 70
     0
 10
0.0
 20
0.0
 30
0.0
  3
A$C5CFD6E8C
  1

  0
LINE
  5
9B
330
9A
100
AcDbEntity
  8
0
 62
     0
100
AcDbLine
 10
1.599997211020308
 20
2.70000247964549
 30
0.0
 11
1.599997211020308
 21
0.0000024796447633
 31
0.0
  0
LINE
  5
9C
330
9A
100
AcDbEntity
  8
0
 62
     0
100
AcDbLine
 10
-0.0000027889800549
 20
0.0000024796447633
 30
0.0
 11
-0.0000027889800549
 21
2.70000247964549
 31
0.0
  0
LINE
  5
9D
330
9A
100
AcDbEntity
  8
0
  6
CENTER
 62
     0
100
AcDbLine
 10
1.599997211020308
 20
2.70000247964549
 30
0.0
 11
-0.0000027889800549
 21
2.70000247964549
 31
0.0
  0
LINE
  5
9E
330
9A
100
AcDbEntity
  8
0
  6
CENTER
 62
     0
100
AcDbLine
 10
1.599997211020308
 20
0.0000024796447633
 30
0.0
 11
-0.0000027889800549
 21
0.0000024796447633
 31
0.0
  0
ENDBLK
  5
A0
330
9A
100
AcDbEntity
  8
0
 48
5.0
100
AcDbBlockEnd
  0
ENDSEC
  0
SECTION
  2
ENTITIES
  0
LINE
  5
4DA
330
1F
100
AcDbEntity
  8
1
100
AcDbLine
 10
72.68454962301496
 20
175.9738169404669
 30
0.0
 11
87.68454962301484
 21
175.9738169404669
 31
0.0
  0
LINE
  5
4DB
330
1F
100
AcDbEntity
  8
1
100
AcDbLine
 10
80.18454962301484
 20
168.4738169404669
 30
0.0
 11
80.18454962301484
 21
183.4738169404669
 31
0.0
  0
LINE
  5
4DC
330
1F
100
AcDbEntity
  8
1
100
AcDbLine
 10
80.18454962301474
 20
352.4738169404668
 30
0.0
 11
80.18454962301474
 21
367.4738169404668
 31
0.0
  0
LINE
  5
4DD
330
1F
100
AcDbEntity
  8
1
100
AcDbLine
 10
72.68454962301496
 20
359.9738169404668
 30
0.0
 11
87.68454962301484
 21
359.9738169404668
 31
0.0
  0
LINE
  5
4EA
330
1F
100
AcDbEntity
  8
0
100
AcDbLine
 10
101.1845497449328
 20
267.573816781123
 30
0.0
 11
89.78454974493194
 21
267.573816781123
 31
0.0
  0
LINE
  5
4EB
330
1F
100
AcDbEntity
  8
0
100
AcDbLine
 10
98.63454962301501
 20
204.090100083059
 30
0.0
 11
98.63454962301501
 21
219.057533797876
 31
0.0
  0
LINE
  5
4EC
330
1F
100
AcDbEntity
  8
0
100
AcDbLine
 10
92.33454962301479
 20
219.6738169404671
 30
0.0
 11
92.33454962301479
 21
203.4738169404671
 31
0.0
  0
LINE
  5
4ED
330
1F
100
AcDbEntity
  8
0
100
AcDbLine
 10
93.884549623015
 20
220.173816940467
 30
0.0
 11
93.884549623015
 21
202.9738169404671
 31
0.0
  0
LINE
  5
4EE
330
1F
100
AcDbEntity
  8
0
100
AcDbLine
 10
97.08454962301495
 20
202.9738169404671
 30
0.0
 11
97.08454962301495
 21
220.173816940467
 31
0.0
  0
LINE
  5
4EF
330
1F
100
AcDbEntity
  8
0
100
AcDbLine
 10
90.88454962301501
 20
229.1738169404671
 30
0.0
 11
90.88454962301501
 21
193.9738169404671
 31
0.0
  0
LINE
  5
4F0
330
1F
100
AcDbEntity
  8
0
100
AcDbLine
 10
99.9845496230148
 20
192.9738169404671
 30
0.0
 11
99.9845496230148
 21
230.1738169404671
 31
0.0
  0
LINE
  5
4F1
330
1F
100
AcDbEntity
  8
0
100
AcDbLine
 10
101.1845497449328
 20
230.6738167811232
 30
0.0
 11
101.1845497449328
 21
185.173816781123
 31
0.0
  0
LINE
  5
4F2
330
1F
100
AcDbEntity
  8
0
100
AcDbLine
 10
89.78454974493194
 20
230.6738167811232
 30
0.0
 11
89.78454974493194
 21
185.173816781123
 31
0.0
  0
LINE
  5
4F3
330
1F
100
AcDbEntity
  8
0
100
AcDbLine
 10
100.2845496230148
 20
230.6738167811229
 30
0.0
 11
100.2845496230148
 21
185.173816781123
 31
0.0
  0
LINE
  5
4F4
330
1F
100
AcDbEntity
  8
0
100
AcDbLine
 10
74.78454974493195
 20
239.5738167811232
 30
0.0
 11
74.78454974493195
 21
185.173816781123
 31
0.0
  0
LINE
  5
4F5
330
1F
100
AcDbEntity
  8
0
100
AcDbLine
 10
73.88454962301398
 20
185.9738169404671
 30
0.0
 11
73.88454962301398
 21
226.613816940467
 31
0.0
  0
LINE
  5
4F6
330
1F
100
AcDbEntity
  8
0
100
AcDbLine
 10
65.28454962301385
 20
226.613816940467
 30
0.0
 11
65.28454962301385
 21
185.9738169404671
 31
0.0
  0
LINE
  5
4F7
330
1F
100
AcDbEntity
  8
0
100
AcDbLine
 10
64.18454974493193
 20
271.4738167811232
 30
0.0
 11
64.18454974493193
 21
185.173816781123
 31
0.0
  0
LINE
  5
4F8
330
1F
100
AcDbEntity
  8
0
100
AcDbLine
 10
65.28454962301474
 20
185.173816781123
 30
0.0
 11
65.28454962301474
 21
271.4738167811232
 31
0.0
  0
LINE
  5
4F9
330
1F
100
AcDbEntity
  8
0
100
AcDbLine
 10
56.18454962301496
 20
201.6069973653801
 30
0.0
 11
56.18454962301496
 21
354.9476310188981
 31
0.0
  0
LINE
  5
4FA
330
1F
100
AcDbEntity
  8
0
100
AcDbLine
 10
57.18454962301496
 20
354.9738169404672
 30
0.0
 11
57.18454962301382
 21
202.3555974005051
 31
0.0
  0
LINE
  5
4FB
330
1F
100
AcDbEntity
  8
0
100
AcDbLine
 10
59.18454962301485
 20
352.9738169404672
 30
0.0
 11
59.18454962301392
 21
203.559512957971
 31
0.0
  0
LINE
  5
4FC
330
1F
100
AcDbEntity
  8
0
100
AcDbLine
 10
56.18454962301496
 20
201.6069973653809
 30
0.0
 11
56.18454962301496
 21
354.4738169404672
 31
0.0
  0
LINE
  5
4FD
330
1F
100
AcDbEntity
  8
0
100
AcDbLine
 10
59.28454962301398
 20
352.7738169404672
 30
0.0
 11
59.28454962301398
 21
203.6659167287659
 31
0.0
  0
LINE
  5
4FE
330
1F
100
AcDbEntity
  8
0
100
AcDbLine
 10
109.1845496230147
 20
363.9738169404671
 30
0.0
 11
109.1845496230147
 21
171.9738169404671
 31
0.0
  0
LINE
  5
4FF
330
1F
100
AcDbEntity
  8
0
100
AcDbLine
 10
107.1845496230149
 20
182.9738169404671
 30
0.0
 11
107.1845496230149
 21
352.9738169404672
 31
0.0
  0
LINE
  5
500
330
1F
100
AcDbEntity
  8
0
100
AcDbLine
 10
109.1845496230147
 20
180.9738169404671
 30
0.0
 11
109.1845496230147
 21
354.9738169404672
 31
0.0
  0
LINE
  5
501
330
1F
100
AcDbEntity
  8
0
100
AcDbLine
 10
106.8845496230139
 20
352.7738169404672
 30
0.0
 11
106.8845496230139
 21
183.1738169404671
 31
0.0
  0
LINE
  5
502
330
1F
100
AcDbEntity
  8
0
100
AcDbLine
 10
37.18454962301496
 20
363.5283134813001
 30
0.0
 11
37.18454962301496
 21
172.4193203996341
 31
0.0
  0
ARC
  5
503
330
1F
100
AcDbEntity
  8
0
100
AcDbCircle
 10
80.18454962301484
 20
175.9738169404671
 30
0.0
 40
5.5
100
AcDbArc
 50
0.0
 51
65.38002267134462
  0
LINE
  5
505
330
1F
100
AcDbEntity
  8
0
100
AcDbLine
 10
57.18454962301382
 20
180.9738169404671
 30
0.0
 11
109.1845496230147
 21
180.9738169404671
 31
0.0
  0
LINE
  5
506
330
1F
100
AcDbEntity
  8
0
100
AcDbLine
 10
107.1845496230149
 20
182.9738169404671
 30
0.0
 11
62.18454962300995
 21
182.9738169404671
 31
0.0
  0
LINE
  5
507
330
1F
100
AcDbEntity
  8
0
100
AcDbLine
 10
62.28454962300975
 20
183.1738169404671
 30
0.0
 11
106.8845496230139
 21
183.1738169404671
 31
0.0
  0
LINE
  5
508
330
1F
100
AcDbEntity
  8
0
100
AcDbLine
 10
37.67146114886088
 20
181.4324133016858
 30
0.0
 11
55.18454962301484
 21
180.9738169404671
 31
0.0
  0
LINE
  5
509
330
1F
100
AcDbEntity
  8
0
100
AcDbLine
 10
55.18454962301484
 20
170.973816940467
 30
0.0
 11
38.15837267470669
 21
171.419663074659
 31
0.0
  0
ARC
  5
50A
330
1F
100
AcDbEntity
  8
0
100
AcDbCircle
 10
38.18454962301484
 20
172.4193203996341
 30
0.0
 40
1.0
100
AcDbArc
 50
180.0
 51
268.5000000000036
  0
ARC
  5
50B
330
1F
100
AcDbEntity
  8
0
100
AcDbCircle
 10
37.68454962301484
 20
181.9322419641738
 30
0.0
 40
0.5
100
AcDbArc
 50
180.0
 51
268.5000000000036
  0
LINE
  5
50C
330
1F
100
AcDbEntity
  8
0
100
AcDbLine
 10
78.08454962301481
 20
175.9738169404671
 30
0.0
 11
78.08454962301481
 21
170.973816940467
 31
0.0
  0
LINE
  5
50D
330
1F
100
AcDbEntity
  8
0
100
AcDbLine
 10
82.28454962301475
 20
175.9738169404671
 30
0.0
 11
82.28454962301475
 21
170.973816940467
 31
0.0
  0
LINE
  5
50E
330
1F
100
AcDbEntity
  8
0
100
AcDbLine
 10
74.68454962301496
 20
175.9738169404671
 30
0.0
 11
74.68454962301496
 21
170.973816940467
 31
0.0
  0
LINE
  5
50F
330
1F
100
AcDbEntity
  8
0
100
AcDbLine
 10
55.18454962301484
 20
170.973816940467
 30
0.0
 11
78.08454962301481
 21
170.973816940467
 31
0.0
  0
LINE
  5
510
330
1F
100
AcDbEntity
  8
0
100
AcDbLine
 10
55.18454962301484
 20
170.973816940467
 30
0.0
 11
77.93454962301485
 21
170.973816940467
 31
0.0
  0
LINE
  5
511
330
1F
100
AcDbEntity
  8
0
100
AcDbLine
 10
74.78454974493195
 20
185.173816781123
 30
0.0
 11
64.18454974493193
 21
185.173816781123
 31
0.0
  0
LINE
  5
512
330
1F
100
AcDbEntity
  8
0
100
AcDbLine
 10
65.28454962301385
 20
185.9738169404671
 30
0.0
 11
73.88454962301398
 21
185.9738169404671
 31
0.0
  0
LINE
  5
513
330
1F
100
AcDbEntity
  8
0
100
AcDbLine
 10
59.18454962301075
 20
197.9738169404671
 30
0.0
 11
59.18454962300994
 21
181.078560626744
 31
0.0
  0
LINE
  5
514
330
1F
100
AcDbEntity
  8
0
100
AcDbLine
 10
60.18454962301075
 20
197.9738169404671
 30
0.0
 11
60.18454962300984
 21
180.9738169404671
 31
0.0
  0
LINE
  5
515
330
1F
100
AcDbEntity
  8
0
100
AcDbLine
 10
62.18454962301087
 20
197.9738169404671
 30
0.0
 11
62.18454962300995
 21
182.9738169404671
 31
0.0
  0
LINE
  5
516
330
1F
100
AcDbEntity
  8
0
100
AcDbLine
 10
59.18454962301075
 20
197.9738169404671
 30
0.0
 11
59.18454962300994
 21
181.4738169404671
 31
0.0
  0
LINE
  5
517
330
1F
100
AcDbEntity
  8
0
100
AcDbLine
 10
62.28454962301089
 20
197.9738169404671
 30
0.0
 11
62.28454962300975
 21
183.1738169404671
 31
0.0
  0
LINE
  5
518
330
1F
100
AcDbEntity
  8
0
100
AcDbLine
 10
55.18454962301484
 20
180.9738169404671
 30
0.0
 11
59.18454962300994
 21
181.078560626744
 31
0.0
  0
LINE
  5
519
330
1F
100
AcDbEntity
  8
0
100
AcDbLine
 10
55.18454962301484
 20
180.9738169404671
 30
0.0
 11
59.18454962301075
 21
181.078560626744
 31
0.0
  0
CIRCLE
  5
51A
330
1F
100
AcDbEntity
  8
0
100
AcDbCircle
 10
55.18454962301484
 20
185.9738169404671
 30
0.0
 40
1.6
  0
CIRCLE
  5
51B
330
1F
100
AcDbEntity
  8
0
100
AcDbCircle
 10
55.18454962301484
 20
185.9738169404671
 30
0.0
 40
2.0
  0
LINE
  5
51C
330
1F
100
AcDbEntity
  8
0
100
AcDbLine
 10
57.18454962301246
 20
181.0261887836054
 30
0.0
 11
57.18454962301382
 21
180.9738169404671
 31
0.0
  0
LINE
  5
51D
330
1F
100
AcDbEntity
  8
0
100
AcDbLine
 10
60.18454962300984
 20
181.4738169404671
 30
0.0
 11
59.18454962300994
 21
181.4738169404669
 31
0.0
  0
ARC
  5
51E
330
1F
100
AcDbEntity
  8
0
100
AcDbCircle
 10
55.48454962301479
 20
197.9738169404671
 30
0.0
 40
3.699999999995998
100
AcDbArc
 50
0.0
 51
79.09453000325759
  0
ARC
  5
51F
330
1F
100
AcDbEntity
  8
0
100
AcDbCircle
 10
55.48454962301479
 20
197.9738169404671
 30
0.0
 40
4.699999999995998
100
AcDbArc
 50
0.0
 51
68.79523363710126
  0
ARC
  5
520
330
1F
100
AcDbEntity
  8
0
100
AcDbCircle
 10
55.48454962301479
 20
197.9738169404671
 30
0.0
 40
3.699999999995998
100
AcDbArc
 50
0.0
 51
79.09453000325759
  0
LINE
  5
521
330
1F
100
AcDbEntity
  8
0
100
AcDbLine
 10
53.53454962301487
 20
203.9738169404671
 30
0.0
 11
53.53454962301487
 21
205.3238169404671
 31
0.0
  0
LINE
  5
522
330
1F
100
AcDbEntity
  8
0
100
AcDbLine
 10
53.8345496230138
 20
203.9738169404671
 30
0.0
 11
53.8345496230138
 21
205.3238169404671
 31
0.0
  0
ARC
  5
523
330
1F
100
AcDbEntity
  8
0
100
AcDbCircle
 10
53.68454962301496
 20
205.3238169404671
 30
0.0
 40
0.15
100
AcDbArc
 50
0.0
 51
180.0
  0
ARC
  5
524
330
1F
100
AcDbEntity
  8
0
100
AcDbCircle
 10
55.03454962301475
 20
203.8238169404669
 30
0.0
 40
0.15
100
AcDbArc
 50
270.0
 51
90.0
  0
LINE
  5
525
330
1F
100
AcDbEntity
  8
0
100
AcDbLine
 10
53.8345496230138
 20
203.9738169404671
 30
0.0
 11
55.03454962301475
 21
203.9738169404671
 31
0.0
  0
LINE
  5
526
330
1F
100
AcDbEntity
  8
0
100
AcDbLine
 10
52.73454962301503
 20
203.3238169404671
 30
0.0
 11
54.63454962301398
 21
203.3238169404671
 31
0.0
  0
LINE
  5
527
330
1F
100
AcDbEntity
  8
0
100
AcDbLine
 10
52.73454962301503
 20
203.023816940467
 30
0.0
 11
54.63454962301398
 21
203.023816940467
 31
0.0
  0
LINE
  5
528
330
1F
100
AcDbEntity
  8
0
100
AcDbLine
 10
53.134549623015
 20
202.6738169404671
 30
0.0
 11
54.234549623014
 21
202.6738169404671
 31
0.0
  0
LINE
  5
529
330
1F
100
AcDbEntity
  8
0
100
AcDbLine
 10
53.134549623015
 20
202.3738169404671
 30
0.0
 11
54.234549623014
 21
202.3738169404671
 31
0.0
  0
ARC
  5
52A
330
1F
100
AcDbEntity
  8
0
100
AcDbCircle
 10
53.134549623015
 20
202.5238169404671
 30
0.0
 40
0.15
100
AcDbArc
 50
90.0
 51
270.0
  0
ARC
  5
52B
330
1F
100
AcDbEntity
  8
0
100
AcDbCircle
 10
54.234549623014
 20
202.5238169404671
 30
0.0
 40
0.15
100
AcDbArc
 50
270.0
 51
90.0
  0
ARC
  5
52C
330
1F
100
AcDbEntity
  8
0
100
AcDbCircle
 10
52.73454962301503
 20
203.1738169404671
 30
0.0
 40
0.15
100
AcDbArc
 50
90.0
 51
270.0
  0
ARC
  5
52D
330
1F
100
AcDbEntity
  8
0
100
AcDbCircle
 10
54.63454962301398
 20
203.1738169404671
 30
0.0
 40
0.15
100
AcDbArc
 50
270.0
 51
90.0
  0
ARC
  5
52E
330
1F
100
AcDbEntity
  8
0
100
AcDbCircle
 10
52.33454962301482
 20
203.8238169404669
 30
0.0
 40
0.15
100
AcDbArc
 50
90.0
 51
270.0
  0
CIRCLE
  5
52F
330
1F
100
AcDbEntity
  8
0
100
AcDbCircle
 10
53.68454962301496
 20
203.9738169404671
 30
0.0
 40
2.149999999999999
  0
CIRCLE
  5
530
330
1F
100
AcDbEntity
  8
0
100
AcDbCircle
 10
53.68454962301496
 20
203.9738169404671
 30
0.0
 40
1.85
  0
LINE
  5
531
330
1F
100
AcDbEntity
  8
0
100
AcDbLine
 10
52.33454962301482
 20
203.673816940467
 30
0.0
 11
55.03454962301475
 21
203.673816940467
 31
0.0
  0
LINE
  5
532
330
1F
100
AcDbEntity
  8
0
100
AcDbLine
 10
52.33454962301482
 20
203.9738169404671
 30
0.0
 11
53.53454962301487
 21
203.9738169404671
 31
0.0
  0
CIRCLE
  5
533
330
1F
100
AcDbEntity
  8
0
100
AcDbCircle
 10
55.18454962301484
 20
195.9738169404671
 30
0.0
 40
2.0
  0
CIRCLE
  5
534
330
1F
100
AcDbEntity
  8
0
100
AcDbCircle
 10
55.18454962301484
 20
195.9738169404671
 30
0.0
 40
1.6
  0
ARC
  5
535
330
1F
100
AcDbEntity
  8
0
100
AcDbCircle
 10
55.48454962301479
 20
197.9738169404671
 30
0.0
 40
6.699999999996
100
AcDbArc
 50
0.0
 51
56.47925960398207
  0
ARC
  5
536
330
1F
100
AcDbEntity
  8
0
100
AcDbCircle
 10
55.38454962301397
 20
197.9738169404671
 30
0.0
 40
6.899999999996
100
AcDbArc
 50
0.0
 51
55.58261128954052
  0
CIRCLE
  5
537
330
1F
100
AcDbEntity
  8
0
100
AcDbCircle
 10
69.28454962301396
 20
193.5938169404669
 30
0.0
 40
2.0
  0
ARC
  5
538
330
1F
100
AcDbEntity
  8
0
100
AcDbCircle
 10
80.18454962301484
 20
175.9738169404671
 30
0.0
 40
5.5
100
AcDbArc
 50
114.6199773286552
 51
179.9999999999966
  0
CIRCLE
  5
539
330
1F
100
AcDbEntity
  8
0
100
AcDbCircle
 10
69.28454962301396
 20
188.8438169404669
 30
0.0
 40
1.0
  0
CIRCLE
  5
53A
330
1F
100
AcDbEntity
  8
0
100
AcDbCircle
 10
69.28454962301396
 20
188.8438169404669
 30
0.0
 40
1.5
  0
ARC
  5
53B
330
1F
100
AcDbEntity
  8
0
100
AcDbCircle
 10
80.18454962301484
 20
175.9738169404671
 30
0.0
 40
2.1
100
AcDbArc
 50
0.0
 51
180.0
  0
CIRCLE
  5
53C
330
1F
100
AcDbEntity
  8
0
100
AcDbCircle
 10
69.28454962301396
 20
203.7538169404681
 30
0.0
 40
2.0
  0
CIRCLE
  5
53D
330
1F
100
AcDbEntity
  8
0
100
AcDbCircle
 10
69.28454962301396
 20
203.7538169404681
 30
0.0
 40
2.0
  0
CIRCLE
  5
53E
330
1F
100
AcDbEntity
  8
0
100
AcDbCircle
 10
69.28454962301396
 20
198.6738169404669
 30
0.0
 40
2.0
  0
CIRCLE
  5
53F
330
1F
100
AcDbEntity
  8
0
100
AcDbCircle
 10
69.28454962301396
 20
198.6738169404669
 30
0.0
 40
2.0
  0
CIRCLE
  5
540
330
1F
100
AcDbEntity
  8
0
100
AcDbCircle
 10
69.28454962301396
 20
208.833816940467
 30
0.0
 40
2.0
  0
LINE
  5
542
330
1F
100
AcDbEntity
  8
0
100
AcDbLine
 10
85.68454962301496
 20
175.9738169404671
 30
0.0
 11
85.68454962301496
 21
170.973816940467
 31
0.0
  0
LINE
  5
548
330
1F
100
AcDbEntity
  8
0
100
AcDbLine
 10
82.28454962301475
 20
170.973816940467
 30
0.0
 11
108.1845496230149
 21
170.973816940467
 31
0.0
  0
ARC
  5
54A
330
1F
100
AcDbEntity
  8
0
100
AcDbCircle
 10
108.1845496230149
 20
171.9738169404671
 30
0.0
 40
1.0
100
AcDbArc
 50
270.0
 51
0.0
  0
LINE
  5
54B
330
1F
100
AcDbEntity
  8
0
100
AcDbLine
 10
100.2845496230138
 20
191.4738169404671
 30
0.0
 11
93.78454962301395
 21
191.4738169404671
 31
0.0
  0
LINE
  5
54C
330
1F
100
AcDbEntity
  8
0
100
AcDbLine
 10
91.68454962301485
 20
192.9738169404671
 30
0.0
 11
99.9845496230148
 21
192.9738169404671
 31
0.0
  0
LINE
  5
54D
330
1F
100
AcDbEntity
  8
0
100
AcDbLine
 10
90.88454962301501
 20
193.9738169404671
 30
0.0
 11
99.9845496230148
 21
193.9738169404671
 31
0.0
  0
LINE
  5
54E
330
1F
100
AcDbEntity
  8
0
100
AcDbLine
 10
93.78454962301395
 20
185.9738169404671
 30
0.0
 11
100.2845496230138
 21
185.9738169404671
 31
0.0
  0
LINE
  5
54F
330
1F
100
AcDbEntity
  8
0
100
AcDbLine
 10
101.1845497449328
 20
185.173816781123
 30
0.0
 11
89.78454974493194
 21
185.173816781123
 31
0.0
  0
CIRCLE
  5
551
330
1F
100
AcDbEntity
  8
0
100
AcDbCircle
 10
96.85454962301378
 20
189.9738169404671
 30
0.0
 40
0.32
  0
LINE
  5
552
330
1F
100
AcDbEntity
  8
0
100
AcDbLine
 10
94.78454962301384
 20
189.4738169404671
 30
0.0
 11
93.78454962301395
 21
189.4738169404671
 31
0.0
  0
CIRCLE
  5
553
330
1F
100
AcDbEntity
  8
0
100
AcDbCircle
 10
96.85454962301378
 20
187.4738169404671
 30
0.0
 40
0.32
  0
LINE
  5
554
330
1F
100
AcDbEntity
  8
0
100
AcDbLine
 10
93.78454962301395
 20
187.9738169404671
 30
0.0
 11
94.78454962301384
 21
187.9738169404671
 31
0.0
  0
LINE
  5
555
330
1F
100
AcDbEntity
  8
0
100
AcDbLine
 10
93.78454962301395
 20
185.9738169404671
 30
0.0
 11
94.78454962301384
 21
185.9738169404671
 31
0.0
  0
LINE
  5
556
330
1F
100
AcDbEntity
  8
0
100
AcDbLine
 10
94.78454962301384
 20
187.9738169404671
 30
0.0
 11
94.78454962301384
 21
189.4738169404671
 31
0.0
  0
LINE
  5
557
330
1F
100
AcDbEntity
  8
0
100
AcDbLine
 10
93.78454962301395
 20
189.4738169404671
 30
0.0
 11
93.78454962301395
 21
187.9738169404671
 31
0.0
  0
LINE
  5
558
330
1F
100
AcDbEntity
  8
0
100
AcDbLine
 10
94.78454962301384
 20
185.9738169404671
 30
0.0
 11
94.78454962301384
 21
191.4738169404671
 31
0.0
  0
LINE
  5
559
330
1F
100
AcDbEntity
  8
0
100
AcDbLine
 10
93.78454962301395
 20
191.4738169404671
 30
0.0
 11
93.78454962301395
 21
185.9738169404671
 31
0.0
  0
ARC
  5
55A
330
1F
100
AcDbEntity
  8
0
100
AcDbCircle
 10
91.68454962301485
 20
193.4738169404671
 30
0.0
 40
0.5
100
AcDbArc
 50
180.0
 51
270.0
  0
LINE
  5
55B
330
1F
100
AcDbEntity
  8
0
100
AcDbLine
 10
91.18454962301495
 20
193.9738169404671
 30
0.0
 11
91.18454962301495
 21
193.4738169404671
 31
0.0
  0
ARC
  5
55C
330
1F
100
AcDbEntity
  8
0
100
AcDbCircle
 10
96.634549623015
 20
204.090100083059
 30
0.0
 40
2.0
100
AcDbArc
 50
285.0000000000012
 51
0.0
  0
LINE
  5
55D
330
1F
100
AcDbEntity
  8
0
100
AcDbLine
 10
98.63454962301501
 20
197.9738169404671
 30
0.0
 11
98.63454962301501
 21
200.3738169404671
 31
0.0
  0
ARC
  5
55E
330
1F
100
AcDbEntity
  8
0
100
AcDbCircle
 10
94.3345496230148
 20
203.4738169404671
 30
0.0
 40
2.0
100
AcDbArc
 50
180.0
 51
285.0000000000012
  0
LINE
  5
55F
330
1F
100
AcDbEntity
  8
0
100
AcDbLine
 10
92.33454962301479
 20
200.3738169404671
 30
0.0
 11
92.33454962301479
 21
197.9738169404671
 31
0.0
  0
LINE
  5
560
330
1F
100
AcDbEntity
  8
0
100
AcDbLine
 10
94.8521877132198
 20
201.5419652878891
 30
0.0
 11
97.15218771322
 21
202.15824843048
 31
0.0
  0
LINE
  5
561
330
1F
100
AcDbEntity
  8
0
100
AcDbLine
 10
93.884549623015
 20
202.9738169404671
 30
0.0
 11
97.08454962301495
 21
202.9738169404671
 31
0.0
  0
LINE
  5
562
330
1F
100
AcDbEntity
  8
0
100
AcDbLine
 10
92.33454962301479
 20
200.3738169404671
 30
0.0
 11
98.63454962301501
 21
200.3738169404671
 31
0.0
  0
LINE
  5
563
330
1F
100
AcDbEntity
  8
0
100
AcDbLine
 10
92.33454962301479
 20
198.4738169404671
 30
0.0
 11
98.63454962301501
 21
198.4738169404671
 31
0.0
  0
LINE
  5
564
330
1F
100
AcDbEntity
  8
0
100
AcDbLine
 10
92.33454962301479
 20
197.9738169404671
 30
0.0
 11
98.63454962301501
 21
197.9738169404671
 31
0.0
  0
CIRCLE
  5
565
330
1F
100
AcDbEntity
  8
0
100
AcDbCircle
 10
95.4845496230148
 20
195.9438169404671
 30
0.0
 40
1.399999999999999
  0
LINE
  5
567
330
1F
100
AcDbEntity
  8
0
100
AcDbLine
 10
100.2845496230138
 20
185.9738169404671
 30
0.0
 11
100.2845496230138
 21
191.4738169404671
 31
0.0
  0
LINE
  5
568
330
1F
100
AcDbEntity
  8
0
100
AcDbLine
 10
99.9845496230148
 20
210.3038169404682
 30
0.0
 11
100.2845496230148
 21
210.3038169404682
 31
0.0
  0
LINE
  5
569
330
1F
100
AcDbEntity
  8
0
100
AcDbLine
 10
99.9845496230148
 20
209.033816940468
 30
0.0
 11
100.2845496230148
 21
209.033816940468
 31
0.0
  0
LINE
  5
56A
330
1F
100
AcDbEntity
  8
0
100
AcDbLine
 10
99.9845496230148
 20
207.7638169404681
 30
0.0
 11
100.2845496230148
 21
207.7638169404681
 31
0.0
  0
LINE
  5
56B
330
1F
100
AcDbEntity
  8
0
100
AcDbLine
 10
99.9845496230148
 20
207.7638169404681
 30
0.0
 11
100.2845496230148
 21
207.7638169404681
 31
0.0
  0
LINE
  5
56C
330
1F
100
AcDbEntity
  8
0
100
AcDbLine
 10
99.9845496230148
 20
206.4938169404681
 30
0.0
 11
100.2845496230148
 21
206.4938169404681
 31
0.0
  0
LINE
  5
56D
330
1F
100
AcDbEntity
  8
0
100
AcDbLine
 10
99.9845496230148
 20
205.223816940468
 30
0.0
 11
100.2845496230148
 21
205.223816940468
 31
0.0
  0
LINE
  5
56E
330
1F
100
AcDbEntity
  8
0
100
AcDbLine
 10
99.9845496230148
 20
203.9538169404681
 30
0.0
 11
100.2845496230148
 21
203.9538169404681
 31
0.0
  0
LINE
  5
56F
330
1F
100
AcDbEntity
  8
0
100
AcDbLine
 10
99.9845496230148
 20
200.3738169404671
 30
0.0
 11
100.2845496230148
 21
200.3738169404671
 31
0.0
  0
ARC
  5
570
330
1F
100
AcDbEntity
  8
0
100
AcDbCircle
 10
99.9845496230148
 20
193.2738169404671
 30
0.0
 40
0.3
100
AcDbArc
 50
270.0
 51
0.0
  0
LINE
  5
571
330
1F
100
AcDbEntity
  8
0
100
AcDbLine
 10
100.2845496230148
 20
200.3738169404671
 30
0.0
 11
100.2845496230148
 21
193.2738169404671
 31
0.0
  0
ARC
  5
572
330
1F
100
AcDbEntity
  8
0
100
AcDbCircle
 10
80.18454962301484
 20
359.9738169404671
 30
0.0
 40
5.5
100
AcDbArc
 50
294.6199773286553
 51
0.0
  0
LINE
  5
573
330
1F
100
AcDbEntity
  8
0
100
AcDbLine
 10
55.18454962301484
 20
364.9738169404668
 30
0.0
 11
108.1845496230149
 21
364.9738169404668
 31
0.0
  0
LINE
  5
574
330
1F
100
AcDbEntity
  8
0
100
AcDbLine
 10
57.18454962301496
 20
354.9738169404672
 30
0.0
 11
109.1845496230147
 21
354.9738169404672
 31
0.0
  0
LINE
  5
575
330
1F
100
AcDbEntity
  8
0
100
AcDbLine
 10
107.1845496230149
 20
352.9738169404672
 30
0.0
 11
59.18454962301485
 21
352.9738169404672
 31
0.0
  0
LINE
  5
576
330
1F
100
AcDbEntity
  8
0
100
AcDbLine
 10
106.8845496230139
 20
352.7738169404672
 30
0.0
 11
59.28454962301398
 21
352.7738169404672
 31
0.0
  0
LINE
  5
577
330
1F
100
AcDbEntity
  8
0
100
AcDbLine
 10
55.18454962301484
 20
364.9738169404668
 30
0.0
 11
108.1845496230149
 21
364.9738169404668
 31
0.0
  0
CIRCLE
  5
578
330
1F
100
AcDbEntity
  8
0
100
AcDbCircle
 10
80.18454962301484
 20
359.9738169404671
 30
0.0
 40
2.1
  0
LINE
  5
579
330
1F
100
AcDbEntity
  8
0
100
AcDbLine
 10
74.68454962301496
 20
359.9738169404671
 30
0.0
 11
74.68454962301496
 21
364.9738169404668
 31
0.0
  0
LINE
  5
57A
330
1F
100
AcDbEntity
  8
0
100
AcDbLine
 10
76.12954962301398
 20
301.1338169404671
 30
0.0
 11
76.12954962301398
 21
276.9738169404669
 31
0.0
  0
LINE
  5
57B
330
1F
100
AcDbEntity
  8
0
100
AcDbLine
 10
76.5845497449319
 20
302.1738167811231
 30
0.0
 11
76.5845497449319
 21
275.9738167811232
 31
0.0
  0
LINE
  5
57C
330
1F
100
AcDbEntity
  8
0
100
AcDbLine
 10
67.78454962301395
 20
301.1338169404671
 30
0.0
 11
67.78454962301395
 21
276.9738169404669
 31
0.0
  0
LINE
  5
57D
330
1F
100
AcDbEntity
  8
0
100
AcDbLine
 10
74.76954962301397
 20
301.1338169404671
 30
0.0
 11
74.76954962301397
 21
276.9738169404669
 31
0.0
  0
LINE
  5
57E
330
1F
100
AcDbEntity
  8
0
100
AcDbLine
 10
66.78454962301384
 20
301.1338169404671
 30
0.0
 11
66.78454962301384
 21
276.9738169404669
 31
0.0
  0
LINE
  5
57F
330
1F
100
AcDbEntity
  8
0
100
AcDbLine
 10
64.18454974493193
 20
302.1738167811231
 30
0.0
 11
64.18454974493193
 21
275.9738167811232
 31
0.0
  0
LINE
  5
580
330
1F
100
AcDbEntity
  8
0
100
AcDbLine
 10
65.28454962301474
 20
275.9738167811232
 30
0.0
 11
65.28454962301474
 21
302.1738167811231
 31
0.0
  0
LINE
  5
581
330
1F
100
AcDbEntity
  8
0
100
AcDbLine
 10
72.28454962301396
 20
252.5438169404671
 30
0.0
 11
72.28454962301396
 21
247.5438169404671
 31
0.0
  0
LINE
  5
582
330
1F
100
AcDbEntity
  8
0
100
AcDbLine
 10
67.28454962301396
 20
251.7538169404671
 30
0.0
 11
67.28454962301396
 21
248.3338169404671
 31
0.0
  0
LINE
  5
583
330
1F
100
AcDbEntity
  8
0
100
AcDbLine
 10
74.78454974493195
 20
256.5738167811232
 30
0.0
 11
74.78454974493195
 21
243.1738167811229
 31
0.0
  0
LINE
  5
584
330
1F
100
AcDbEntity
  8
0
100
AcDbLine
 10
73.78454962301384
 20
234.6138169404671
 30
0.0
 11
73.78454962301384
 21
265.1138169404671
 31
0.0
  0
LINE
  5
585
330
1F
100
AcDbEntity
  8
0
100
AcDbLine
 10
65.28454962301385
 20
270.4738169404671
 30
0.0
 11
65.28454962301385
 21
229.6138169404671
 31
0.0
  0
ARC
  5
586
330
1F
100
AcDbEntity
  8
0
100
AcDbCircle
 10
69.28454962301396
 20
238.6138169404671
 30
0.0
 40
2.9
100
AcDbArc
 50
133.6028189726986
 51
226.3971810273013
  0
LINE
  5
587
330
1F
100
AcDbEntity
  8
0
100
AcDbLine
 10
65.28454962301385
 20
229.6138169404671
 30
0.0
 11
72.28454962301396
 21
229.6138169404671
 31
0.0
  0
LINE
  5
588
330
1F
100
AcDbEntity
  8
0
100
AcDbLine
 10
65.28454962301385
 20
229.6138169404671
 30
0.0
 11
72.28454962301396
 21
229.6138169404671
 31
0.0
  0
LINE
  5
589
330
1F
100
AcDbEntity
  8
0
100
AcDbLine
 10
73.88454962301398
 20
226.613816940467
 30
0.0
 11
65.28454962301385
 21
226.613816940467
 31
0.0
  0
ARC
  5
58A
330
1F
100
AcDbEntity
  8
0
100
AcDbCircle
 10
69.28454962301396
 20
246.2338169404671
 30
0.0
 40
2.9
100
AcDbArc
 50
133.6028189726986
 51
226.3971810273013
  0
LINE
  5
58B
330
1F
100
AcDbEntity
  8
0
100
AcDbLine
 10
65.28454962301385
 20
234.8538169404672
 30
0.0
 11
65.28454962301385
 21
229.6138169404671
 31
0.0
  0
LINE
  5
58C
330
1F
100
AcDbEntity
  8
0
100
AcDbLine
 10
72.28454962301396
 20
229.6138169404671
 30
0.0
 11
72.28454962301396
 21
234.6138169404671
 31
0.0
  0
LINE
  5
58D
330
1F
100
AcDbEntity
  8
0
100
AcDbLine
 10
72.28454962301396
 20
229.6138169404671
 30
0.0
 11
72.28454962301396
 21
234.8538169404672
 31
0.0
  0
CIRCLE
  5
58E
330
1F
100
AcDbEntity
  8
0
100
AcDbCircle
 10
69.28454962301396
 20
223.7438169404679
 30
0.0
 40
1.0
  0
CIRCLE
  5
58F
330
1F
100
AcDbEntity
  8
0
100
AcDbCircle
 10
69.28454962301396
 20
223.7438169404679
 30
0.0
 40
1.5
  0
CIRCLE
  5
590
330
1F
100
AcDbEntity
  8
0
100
AcDbCircle
 10
69.28454962301396
 20
213.9138169404672
 30
0.0
 40
2.0
  0
CIRCLE
  5
591
330
1F
100
AcDbEntity
  8
0
100
AcDbCircle
 10
69.28454962301396
 20
213.9138169404672
 30
0.0
 40
2.0
  0
CIRCLE
  5
592
330
1F
100
AcDbEntity
  8
0
100
AcDbCircle
 10
69.28454962301396
 20
218.9938169404681
 30
0.0
 40
2.0
  0
LINE
  5
593
330
1F
100
AcDbEntity
  8
0
100
AcDbLine
 10
74.78454974493195
 20
243.1738167811229
 30
0.0
 11
76.38454974493186
 21
243.1738167811229
 31
0.0
  0
LINE
  5
594
330
1F
100
AcDbEntity
  8
0
100
AcDbLine
 10
73.78454962301384
 20
242.1638169404671
 30
0.0
 11
75.484549623014
 21
242.1638169404671
 31
0.0
  0
LINE
  5
595
330
1F
100
AcDbEntity
  8
0
100
AcDbLine
 10
75.484549623014
 20
240.5638169404671
 30
0.0
 11
73.78454962301384
 21
240.5638169404671
 31
0.0
  0
LINE
  5
596
330
1F
100
AcDbEntity
  8
0
100
AcDbLine
 10
74.78454974493195
 20
239.5738167811232
 30
0.0
 11
76.38454974493186
 21
239.5738167811232
 31
0.0
  0
LINE
  5
597
330
1F
100
AcDbEntity
  8
0
100
AcDbLine
 10
71.484549623014
 20
247.5438169404671
 30
0.0
 11
72.28454962301396
 21
247.5438169404671
 31
0.0
  0
LINE
  5
598
330
1F
100
AcDbEntity
  8
0
100
AcDbLine
 10
71.484549623014
 20
244.923816940467
 30
0.0
 11
72.28454962301396
 21
244.923816940467
 31
0.0
  0
LINE
  5
599
330
1F
100
AcDbEntity
  8
0
100
AcDbLine
 10
71.484549623014
 20
247.5438169404671
 30
0.0
 11
71.484549623014
 21
244.923816940467
 31
0.0
  0
CIRCLE
  5
59A
330
1F
100
AcDbEntity
  8
0
100
AcDbCircle
 10
69.28454962301396
 20
246.2338169404671
 30
0.0
 40
0.75
  0
LINE
  5
59B
330
1F
100
AcDbEntity
  8
0
100
AcDbLine
 10
71.484549623014
 20
239.9238169404671
 30
0.0
 11
72.28454962301396
 21
239.9238169404671
 31
0.0
  0
LINE
  5
59C
330
1F
100
AcDbEntity
  8
0
100
AcDbLine
 10
72.28454962301396
 20
234.6138169404671
 30
0.0
 11
73.78454962301384
 21
234.6138169404671
 31
0.0
  0
LINE
  5
59D
330
1F
100
AcDbEntity
  8
0
100
AcDbLine
 10
71.484549623014
 20
237.303816940467
 30
0.0
 11
72.28454962301396
 21
237.303816940467
 31
0.0
  0
LINE
  5
59E
330
1F
100
AcDbEntity
  8
0
100
AcDbLine
 10
72.28454962301396
 20
237.303816940467
 30
0.0
 11
72.28454962301396
 21
235.6138169404671
 31
0.0
  0
LINE
  5
59F
330
1F
100
AcDbEntity
  8
0
100
AcDbLine
 10
71.484549623014
 20
239.9238169404671
 30
0.0
 11
71.484549623014
 21
237.303816940467
 31
0.0
  0
LINE
  5
5A0
330
1F
100
AcDbEntity
  8
0
100
AcDbLine
 10
67.28454962301396
 20
244.1338169404672
 30
0.0
 11
67.28454962301396
 21
240.713816940467
 31
0.0
  0
LINE
  5
5A1
330
1F
100
AcDbEntity
  8
0
100
AcDbLine
 10
67.28454962301396
 20
236.5138169404672
 30
0.0
 11
67.28454962301396
 21
235.6138169404671
 31
0.0
  0
CIRCLE
  5
5A2
330
1F
100
AcDbEntity
  8
0
100
AcDbCircle
 10
69.28454962301396
 20
238.6138169404671
 30
0.0
 40
0.75
  0
CIRCLE
  5
5A3
330
1F
100
AcDbEntity
  8
0
100
AcDbCircle
 10
69.24816356261089
 20
232.5138169404671
 30
0.0
 40
0.9
  0
LINE
  5
5A4
330
1F
100
AcDbEntity
  8
0
100
AcDbLine
 10
67.28454962301396
 20
235.6138169404671
 30
0.0
 11
72.28454962301396
 21
235.6138169404671
 31
0.0
  0
CIRCLE
  5
5A5
330
1F
100
AcDbEntity
  8
0
100
AcDbCircle
 10
69.28454962301396
 20
238.6138169404671
 30
0.0
 40
1.5
  0
CIRCLE
  5
5A6
330
1F
100
AcDbEntity
  8
0
100
AcDbCircle
 10
69.24816356261089
 20
232.5138169404671
 30
0.0
 40
2.0
  0
LINE
  5
5A7
330
1F
100
AcDbEntity
  8
0
100
AcDbLine
 10
72.28454962301396
 20
244.923816940467
 30
0.0
 11
72.28454962301396
 21
239.9238169404671
 31
0.0
  0
CIRCLE
  5
5A8
330
1F
100
AcDbEntity
  8
0
100
AcDbCircle
 10
69.28454962301396
 20
246.2338169404671
 30
0.0
 40
1.5
  0
LINE
  5
5A9
330
1F
100
AcDbEntity
  8
0
100
AcDbLine
 10
75.484549623014
 20
242.1638169404671
 30
0.0
 11
75.484549623014
 21
240.5638169404671
 31
0.0
  0
LINE
  5
5AA
330
1F
100
AcDbEntity
  8
0
100
AcDbLine
 10
76.38454974493186
 20
243.1738167811229
 30
0.0
 11
76.38454974493186
 21
239.5738167811232
 31
0.0
  0
LINE
  5
5AB
330
1F
100
AcDbEntity
  8
0
100
AcDbLine
 10
66.78454962301384
 20
276.9738169404669
 30
0.0
 11
76.12954962301398
 21
276.9738169404669
 31
0.0
  0
LINE
  5
5AC
330
1F
100
AcDbEntity
  8
0
100
AcDbLine
 10
64.18454974493193
 20
271.4738167811232
 30
0.0
 11
74.78454974493195
 21
271.4738167811232
 31
0.0
  0
LINE
  5
5AD
330
1F
100
AcDbEntity
  8
0
100
AcDbLine
 10
65.28454962301385
 20
270.4738169404671
 30
0.0
 11
72.28454962301396
 21
270.4738169404671
 31
0.0
  0
LINE
  5
5AE
330
1F
100
AcDbEntity
  8
0
100
AcDbLine
 10
65.28454962301385
 20
270.4738169404671
 30
0.0
 11
72.28454962301396
 21
270.4738169404671
 31
0.0
  0
ARC
  5
5AF
330
1F
100
AcDbEntity
  8
0
100
AcDbCircle
 10
69.28454962301396
 20
253.8538169404671
 30
0.0
 40
2.9
100
AcDbArc
 50
133.6028189726986
 51
226.3971810273013
  0
ARC
  5
5B0
330
1F
100
AcDbEntity
  8
0
100
AcDbCircle
 10
69.28454962301396
 20
261.4738169404672
 30
0.0
 40
2.9
100
AcDbArc
 50
133.6028189726986
 51
226.3971810273013
  0
LINE
  5
5B1
330
1F
100
AcDbEntity
  8
0
100
AcDbLine
 10
64.18454974493193
 20
275.9738167811232
 30
0.0
 11
76.5845497449319
 21
275.9738167811232
 31
0.0
  0
LINE
  5
5B2
330
1F
100
AcDbEntity
  8
0
100
AcDbLine
 10
65.28454962301385
 20
265.2338169404671
 30
0.0
 11
65.28454962301385
 21
270.4738169404671
 31
0.0
  0
LINE
  5
5B3
330
1F
100
AcDbEntity
  8
0
100
AcDbLine
 10
66.78454962301384
 20
284.4738169404672
 30
0.0
 11
65.28454962301474
 21
284.4738169404667
 31
0.0
  0
LINE
  5
5B4
330
1F
100
AcDbEntity
  8
0
100
AcDbLine
 10
65.28454962301474
 20
283.4738169404671
 30
0.0
 11
66.78454962301384
 21
283.4738169404672
 31
0.0
  0
LINE
  5
5B5
330
1F
100
AcDbEntity
  8
0
100
AcDbLine
 10
66.78454962301384
 20
283.4738169404672
 30
0.0
 11
66.78454962301384
 21
284.4738169404672
 31
0.0
  0
LINE
  5
5B6
330
1F
100
AcDbEntity
  8
0
100
AcDbLine
 10
66.78454962301384
 20
279.9738169404672
 30
0.0
 11
65.28454962301385
 21
279.9738169404672
 31
0.0
  0
LINE
  5
5B7
330
1F
100
AcDbEntity
  8
0
100
AcDbLine
 10
65.28454962301385
 20
276.9738169404669
 30
0.0
 11
66.78454962301384
 21
276.9738169404669
 31
0.0
  0
LINE
  5
5B8
330
1F
100
AcDbEntity
  8
0
100
AcDbLine
 10
66.78454962301384
 20
276.9738169404669
 30
0.0
 11
66.78454962301384
 21
277.9738169404672
 31
0.0
  0
LINE
  5
5B9
330
1F
100
AcDbEntity
  8
0
100
AcDbLine
 10
66.78454962301384
 20
276.9738169404669
 30
0.0
 11
66.78454962301384
 21
279.9738169404672
 31
0.0
  0
LINE
  5
5BA
330
1F
100
AcDbEntity
  8
0
100
AcDbLine
 10
65.28454962301385
 20
279.9738169404672
 30
0.0
 11
65.28454962301385
 21
276.9738169404669
 31
0.0
  0
LINE
  5
5BB
330
1F
100
AcDbEntity
  8
0
100
AcDbLine
 10
72.28454962301396
 20
265.4738169404672
 30
0.0
 11
72.28454962301396
 21
270.4738169404671
 31
0.0
  0
LINE
  5
5BC
330
1F
100
AcDbEntity
  8
0
100
AcDbLine
 10
72.28454962301396
 20
270.4738169404671
 30
0.0
 11
72.28454962301396
 21
265.2338169404671
 31
0.0
  0
CIRCLE
  5
5BD
330
1F
100
AcDbEntity
  8
0
100
AcDbCircle
 10
69.28454962301396
 20
267.5738169404671
 30
0.0
 40
0.9
  0
CIRCLE
  5
5BE
330
1F
100
AcDbEntity
  8
0
100
AcDbCircle
 10
69.28454962301396
 20
267.5738169404671
 30
0.0
 40
2.0
  0
LINE
  5
5BF
330
1F
100
AcDbEntity
  8
0
100
AcDbLine
 10
74.78454974493195
 20
271.4738167811232
 30
0.0
 11
74.78454974493195
 21
260.173816781123
 31
0.0
  0
LINE
  5
5C0
330
1F
100
AcDbEntity
  8
0
100
AcDbLine
 10
74.78454974493195
 20
260.173816781123
 30
0.0
 11
76.38454974493186
 21
260.173816781123
 31
0.0
  0
LINE
  5
5C1
330
1F
100
AcDbEntity
  8
0
100
AcDbLine
 10
75.484549623014
 20
259.1638169404669
 30
0.0
 11
73.78454962301384
 21
259.1638169404669
 31
0.0
  0
LINE
  5
5C2
330
1F
100
AcDbEntity
  8
0
100
AcDbLine
 10
74.78454974493195
 20
256.5738167811232
 30
0.0
 11
76.38454974493186
 21
256.5738167811232
 31
0.0
  0
LINE
  5
5C3
330
1F
100
AcDbEntity
  8
0
100
AcDbLine
 10
75.484549623014
 20
257.5638169404671
 30
0.0
 11
73.78454962301384
 21
257.5638169404671
 31
0.0
  0
LINE
  5
5C4
330
1F
100
AcDbEntity
  8
0
100
AcDbLine
 10
72.28454962301396
 20
265.4738169404672
 30
0.0
 11
73.78454962301384
 21
265.4738169404672
 31
0.0
  0
LINE
  5
5C5
330
1F
100
AcDbEntity
  8
0
100
AcDbLine
 10
73.78454962301384
 20
265.4738169404672
 30
0.0
 11
73.78454962301384
 21
265.1138169404671
 31
0.0
  0
LINE
  5
5C6
330
1F
100
AcDbEntity
  8
0
100
AcDbLine
 10
67.28454962301396
 20
264.1138169404671
 30
0.0
 11
67.28454962301396
 21
263.5738169404671
 31
0.0
  0
LINE
  5
5C7
330
1F
100
AcDbEntity
  8
0
100
AcDbLine
 10
72.28454962301396
 20
264.1138169404671
 30
0.0
 11
67.28454962301396
 21
264.1138169404671
 31
0.0
  0
LINE
  5
5C8
330
1F
100
AcDbEntity
  8
0
100
AcDbLine
 10
71.484549623014
 20
262.7838169404669
 30
0.0
 11
72.28454962301396
 21
262.7838169404669
 31
0.0
  0
LINE
  5
5C9
330
1F
100
AcDbEntity
  8
0
100
AcDbLine
 10
71.484549623014
 20
260.1638169404671
 30
0.0
 11
72.28454962301396
 21
260.1638169404671
 31
0.0
  0
LINE
  5
5CA
330
1F
100
AcDbEntity
  8
0
100
AcDbLine
 10
71.484549623014
 20
262.7838169404669
 30
0.0
 11
71.484549623014
 21
260.1638169404671
 31
0.0
  0
LINE
  5
5CB
330
1F
100
AcDbEntity
  8
0
100
AcDbLine
 10
71.484549623014
 20
255.1638169404671
 30
0.0
 11
72.28454962301396
 21
255.1638169404671
 31
0.0
  0
LINE
  5
5CC
330
1F
100
AcDbEntity
  8
0
100
AcDbLine
 10
71.484549623014
 20
252.5438169404671
 30
0.0
 11
72.28454962301396
 21
252.5438169404671
 31
0.0
  0
LINE
  5
5CD
330
1F
100
AcDbEntity
  8
0
100
AcDbLine
 10
71.484549623014
 20
255.1638169404671
 30
0.0
 11
71.484549623014
 21
252.5438169404671
 31
0.0
  0
LINE
  5
5CE
330
1F
100
AcDbEntity
  8
0
100
AcDbLine
 10
72.28454962301396
 20
260.1638169404671
 30
0.0
 11
72.28454962301396
 21
255.1638169404671
 31
0.0
  0
CIRCLE
  5
5CF
330
1F
100
AcDbEntity
  8
0
100
AcDbCircle
 10
69.28454962301396
 20
261.4738169404672
 30
0.0
 40
0.75
  0
CIRCLE
  5
5D0
330
1F
100
AcDbEntity
  8
0
100
AcDbCircle
 10
69.28454962301396
 20
253.8538169404671
 30
0.0
 40
0.75
  0
LINE
  5
5D1
330
1F
100
AcDbEntity
  8
0
100
AcDbLine
 10
67.28454962301396
 20
259.3738169404671
 30
0.0
 11
67.28454962301396
 21
255.9538169404671
 31
0.0
  0
CIRCLE
  5
5D2
330
1F
100
AcDbEntity
  8
0
100
AcDbCircle
 10
69.28454962301396
 20
261.4738169404672
 30
0.0
 40
1.5
  0
CIRCLE
  5
5D3
330
1F
100
AcDbEntity
  8
0
100
AcDbCircle
 10
69.28454962301396
 20
253.8538169404671
 30
0.0
 40
1.5
  0
LINE
  5
5D4
330
1F
100
AcDbEntity
  8
0
100
AcDbLine
 10
72.28454962301396
 20
264.1138169404671
 30
0.0
 11
72.28454962301396
 21
262.7838169404669
 31
0.0
  0
LINE
  5
5D5
330
1F
100
AcDbEntity
  8
0
100
AcDbLine
 10
76.38454974493186
 20
260.173816781123
 30
0.0
 11
76.38454974493186
 21
256.5738167811232
 31
0.0
  0
LINE
  5
5D6
330
1F
100
AcDbEntity
  8
0
100
AcDbLine
 10
75.484549623014
 20
259.1638169404669
 30
0.0
 11
75.484549623014
 21
257.5638169404671
 31
0.0
  0
LINE
  5
5D7
330
1F
100
AcDbEntity
  8
0
100
AcDbLine
 10
71.78454962301396
 20
284.9738169404671
 30
0.0
 11
70.78454962301385
 21
284.9738169404671
 31
0.0
  0
LINE
  5
5D8
330
1F
100
AcDbEntity
  8
0
100
AcDbLine
 10
70.78454962301385
 20
282.9738169404672
 30
0.0
 11
71.78454962301396
 21
282.9738169404672
 31
0.0
  0
LINE
  5
5D9
330
1F
100
AcDbEntity
  8
0
100
AcDbLine
 10
71.78454962301396
 20
282.9738169404672
 30
0.0
 11
71.78454962301396
 21
284.9738169404671
 31
0.0
  0
LINE
  5
5DA
330
1F
100
AcDbEntity
  8
0
100
AcDbLine
 10
70.78454962301385
 20
284.9738169404671
 30
0.0
 11
70.78454962301385
 21
282.9738169404672
 31
0.0
  0
LINE
  5
5DB
330
1F
100
AcDbEntity
  8
0
100
AcDbLine
 10
67.78454962301395
 20
277.9738169404672
 30
0.0
 11
74.76954962301397
 21
277.9738169404672
 31
0.0
  0
LINE
  5
5DC
330
1F
100
AcDbEntity
  8
0
100
AcDbLine
 10
37.67146114886088
 20
354.515220579249
 30
0.0
 11
55.18454962301484
 21
354.9738169404672
 31
0.0
  0
ARC
  5
5DD
330
1F
100
AcDbEntity
  8
0
100
AcDbCircle
 10
37.68454962301484
 20
354.0153919167611
 30
0.0
 40
0.5
100
AcDbArc
 50
91.4999999999962
 51
180.0
  0
LINE
  5
5DE
330
1F
100
AcDbEntity
  8
0
100
AcDbLine
 10
77.0845497449319
 20
331.0738167811231
 30
0.0
 11
77.0845497449319
 21
322.8738167811231
 31
0.0
  0
LINE
  5
5DF
330
1F
100
AcDbEntity
  8
0
100
AcDbLine
 10
75.48454962301502
 20
323.4138169404672
 30
0.0
 11
75.48454962301502
 21
330.053816940467
 31
0.0
  0
LINE
  5
5E0
330
1F
100
AcDbEntity
  8
0
100
AcDbLine
 10
65.28454962301474
 20
323.4138169404672
 30
0.0
 11
65.28454962301474
 21
330.053816940467
 31
0.0
  0
LINE
  5
5E1
330
1F
100
AcDbEntity
  8
0
100
AcDbLine
 10
64.18454974493193
 20
339.0738167811231
 30
0.0
 11
64.18454974493193
 21
306.0738167811231
 31
0.0
  0
LINE
  5
5E2
330
1F
100
AcDbEntity
  8
0
100
AcDbLine
 10
65.28454962301497
 20
306.0738167811231
 30
0.0
 11
65.28454962301474
 21
339.0738167811231
 31
0.0
  0
LINE
  5
5E3
330
1F
100
AcDbEntity
  8
0
100
AcDbLine
 10
72.53454962301488
 20
322.4138169404671
 30
0.0
 11
65.28454962301385
 21
322.4138169404671
 31
0.0
  0
LINE
  5
5E4
330
1F
100
AcDbEntity
  8
0
100
AcDbLine
 10
75.48454962301502
 20
323.4138169404672
 30
0.0
 11
65.28454962301474
 21
323.4138169404672
 31
0.0
  0
LINE
  5
5E5
330
1F
100
AcDbEntity
  8
0
100
AcDbLine
 10
66.78454962301384
 20
301.1338169404671
 30
0.0
 11
67.78454962301395
 21
301.1338169404671
 31
0.0
  0
LINE
  5
5E6
330
1F
100
AcDbEntity
  8
0
100
AcDbLine
 10
65.28454962301385
 20
307.0138169404671
 30
0.0
 11
72.53454962301488
 21
307.0138169404671
 31
0.0
  0
LINE
  5
5E7
330
1F
100
AcDbEntity
  8
0
100
AcDbLine
 10
64.18454974493193
 20
306.0738167811231
 30
0.0
 11
73.48454974493188
 21
306.0738167811231
 31
0.0
  0
LINE
  5
5E8
330
1F
100
AcDbEntity
  8
0
100
AcDbLine
 10
76.12954962301398
 20
301.1338169404671
 30
0.0
 11
66.78454962301384
 21
301.1338169404671
 31
0.0
  0
LINE
  5
5E9
330
1F
100
AcDbEntity
  8
0
100
AcDbLine
 10
64.18454974493193
 20
302.1738167811231
 30
0.0
 11
76.5845497449319
 21
302.1738167811231
 31
0.0
  0
LINE
  5
5EA
330
1F
100
AcDbEntity
  8
0
100
AcDbLine
 10
66.78454962301384
 20
301.1338169404671
 30
0.0
 11
65.28454962301385
 21
301.1338169404671
 31
0.0
  0
LINE
  5
5EB
330
1F
100
AcDbEntity
  8
0
100
AcDbLine
 10
65.28454962301385
 20
298.1338169404669
 30
0.0
 11
66.78454962301384
 21
298.1338169404669
 31
0.0
  0
LINE
  5
5EC
330
1F
100
AcDbEntity
  8
0
100
AcDbLine
 10
66.78454962301384
 20
293.6338169404671
 30
0.0
 11
66.78454962301384
 21
294.633816940467
 31
0.0
  0
LINE
  5
5ED
330
1F
100
AcDbEntity
  8
0
100
AcDbLine
 10
65.28454962301474
 20
293.6338169404671
 30
0.0
 11
66.78454962301384
 21
293.6338169404671
 31
0.0
  0
LINE
  5
5EE
330
1F
100
AcDbEntity
  8
0
100
AcDbLine
 10
66.78454962301384
 20
294.633816940467
 30
0.0
 11
65.28454962301474
 21
294.633816940467
 31
0.0
  0
LINE
  5
5EF
330
1F
100
AcDbEntity
  8
0
100
AcDbLine
 10
66.78454962301384
 20
288.5538169404671
 30
0.0
 11
66.78454962301384
 21
289.5538169404671
 31
0.0
  0
LINE
  5
5F0
330
1F
100
AcDbEntity
  8
0
100
AcDbLine
 10
65.28454962301474
 20
288.5538169404671
 30
0.0
 11
66.78454962301384
 21
288.5538169404671
 31
0.0
  0
LINE
  5
5F1
330
1F
100
AcDbEntity
  8
0
100
AcDbLine
 10
66.78454962301384
 20
289.5538169404671
 30
0.0
 11
65.28454962301474
 21
289.5538169404671
 31
0.0
  0
LINE
  5
5F2
330
1F
100
AcDbEntity
  8
0
100
AcDbLine
 10
66.78454962301384
 20
301.1338169404671
 30
0.0
 11
66.78454962301384
 21
300.1338169404671
 31
0.0
  0
LINE
  5
5F3
330
1F
100
AcDbEntity
  8
0
100
AcDbLine
 10
66.78454962301384
 20
298.1338169404669
 30
0.0
 11
66.78454962301384
 21
301.1338169404671
 31
0.0
  0
LINE
  5
5F4
330
1F
100
AcDbEntity
  8
0
100
AcDbLine
 10
65.28454962301385
 20
301.1338169404671
 30
0.0
 11
65.28454962301385
 21
298.1338169404669
 31
0.0
  0
LINE
  5
5F5
330
1F
100
AcDbEntity
  8
0
100
AcDbLine
 10
65.28454962301385
 20
322.4138169404671
 30
0.0
 11
65.28454962301385
 21
307.0138169404671
 31
0.0
  0
LINE
  5
5F6
330
1F
100
AcDbEntity
  8
0
100
AcDbLine
 10
75.26954962301386
 20
301.1338169404671
 30
0.0
 11
74.76954962301397
 21
301.1338169404671
 31
0.0
  0
LINE
  5
5F7
330
1F
100
AcDbEntity
  8
0
100
AcDbLine
 10
70.78454962301385
 20
293.1338169404671
 30
0.0
 11
71.78454962301396
 21
293.1338169404671
 31
0.0
  0
LINE
  5
5F8
330
1F
100
AcDbEntity
  8
0
100
AcDbLine
 10
71.78454962301396
 20
293.1338169404671
 30
0.0
 11
71.78454962301396
 21
295.1338169404668
 31
0.0
  0
LINE
  5
5F9
330
1F
100
AcDbEntity
  8
0
100
AcDbLine
 10
71.78454962301396
 20
295.1338169404668
 30
0.0
 11
70.78454962301385
 21
295.1338169404668
 31
0.0
  0
LINE
  5
5FA
330
1F
100
AcDbEntity
  8
0
100
AcDbLine
 10
70.78454962301385
 20
295.1338169404668
 30
0.0
 11
70.78454962301385
 21
293.1338169404671
 31
0.0
  0
LINE
  5
5FB
330
1F
100
AcDbEntity
  8
0
100
AcDbLine
 10
71.78454962301396
 20
290.0538169404671
 30
0.0
 11
70.78454962301385
 21
290.0538169404671
 31
0.0
  0
LINE
  5
5FC
330
1F
100
AcDbEntity
  8
0
100
AcDbLine
 10
70.78454962301385
 20
288.0538169404671
 30
0.0
 11
71.78454962301396
 21
288.0538169404671
 31
0.0
  0
LINE
  5
5FD
330
1F
100
AcDbEntity
  8
0
100
AcDbLine
 10
71.78454962301396
 20
288.0538169404671
 30
0.0
 11
71.78454962301396
 21
290.0538169404671
 31
0.0
  0
LINE
  5
5FE
330
1F
100
AcDbEntity
  8
0
100
AcDbLine
 10
70.78454962301385
 20
290.0538169404671
 30
0.0
 11
70.78454962301385
 21
288.0538169404671
 31
0.0
  0
LINE
  5
5FF
330
1F
100
AcDbEntity
  8
0
100
AcDbLine
 10
67.78454962301395
 20
300.1338169404671
 30
0.0
 11
74.76954962301397
 21
300.1338169404671
 31
0.0
  0
LINE
  5
600
330
1F
100
AcDbEntity
  8
0
100
AcDbLine
 10
73.48454974493188
 20
322.8738167811231
 30
0.0
 11
77.0845497449319
 21
322.8738167811231
 31
0.0
  0
CIRCLE
  5
601
330
1F
100
AcDbEntity
  8
0
100
AcDbCircle
 10
68.78454962301396
 20
312.9638169404671
 30
0.0
 40
1.0
  0
CIRCLE
  5
602
330
1F
100
AcDbEntity
  8
0
100
AcDbCircle
 10
68.78454962301396
 20
316.4638169404671
 30
0.0
 40
1.0
  0
CIRCLE
  5
603
330
1F
100
AcDbEntity
  8
0
100
AcDbCircle
 10
68.78454962301396
 20
309.463816940467
 30
0.0
 40
1.0
  0
CIRCLE
  5
604
330
1F
100
AcDbEntity
  8
0
100
AcDbCircle
 10
68.78454962301396
 20
319.963816940467
 30
0.0
 40
1.0
  0
LINE
  5
605
330
1F
100
AcDbEntity
  8
0
100
AcDbLine
 10
72.53454962301488
 20
307.0138169404671
 30
0.0
 11
72.53454962301488
 21
322.4138169404671
 31
0.0
  0
LINE
  5
606
330
1F
100
AcDbEntity
  8
0
100
AcDbLine
 10
73.48454974493188
 20
322.8738167811231
 30
0.0
 11
73.48454974493188
 21
306.0738167811231
 31
0.0
  0
CIRCLE
  5
607
330
1F
100
AcDbEntity
  8
0
100
AcDbCircle
 10
67.78454974493183
 20
347.7738167811232
 30
0.0
 40
1.399999999999999
  0
CIRCLE
  5
608
330
1F
100
AcDbEntity
  8
0
100
AcDbCircle
 10
67.78454974493183
 20
342.9738167811232
 30
0.0
 40
1.399999999999999
  0
LINE
  5
609
330
1F
100
AcDbEntity
  8
0
100
AcDbLine
 10
74.0845497449319
 20
339.0738167811231
 30
0.0
 11
64.18454974493193
 21
339.0738167811231
 31
0.0
  0
LINE
  5
60A
330
1F
100
AcDbEntity
  8
0
100
AcDbLine
 10
73.1845496230138
 20
338.553816940467
 30
0.0
 11
65.28454962301385
 21
338.553816940467
 31
0.0
  0
LINE
  5
60B
330
1F
100
AcDbEntity
  8
0
100
AcDbLine
 10
73.1845496230138
 20
331.0538169404681
 30
0.0
 11
65.28454962301385
 21
331.0538169404681
 31
0.0
  0
LINE
  5
60C
330
1F
100
AcDbEntity
  8
0
100
AcDbLine
 10
75.48454962301502
 20
330.053816940467
 30
0.0
 11
65.28454962301474
 21
330.053816940467
 31
0.0
  0
LINE
  5
60D
330
1F
100
AcDbEntity
  8
0
100
AcDbLine
 10
65.28454962301474
 20
337.6438169404682
 30
0.0
 11
65.68454962301382
 21
337.6438169404682
 31
0.0
  0
LINE
  5
60E
330
1F
100
AcDbEntity
  8
0
100
AcDbLine
 10
65.28454962301474
 20
337.043816940468
 30
0.0
 11
65.68454962301382
 21
337.043816940468
 31
0.0
  0
LINE
  5
60F
330
1F
100
AcDbEntity
  8
0
100
AcDbLine
 10
65.28454962301474
 20
335.1038169404681
 30
0.0
 11
65.68454962301382
 21
335.1038169404681
 31
0.0
  0
LINE
  5
610
330
1F
100
AcDbEntity
  8
0
100
AcDbLine
 10
65.28454962301474
 20
334.5038169404681
 30
0.0
 11
65.68454962301382
 21
334.5038169404681
 31
0.0
  0
LINE
  5
611
330
1F
100
AcDbEntity
  8
0
100
AcDbLine
 10
65.28454962301474
 20
331.9638169404681
 30
0.0
 11
65.68454962301382
 21
331.9638169404681
 31
0.0
  0
LINE
  5
612
330
1F
100
AcDbEntity
  8
0
100
AcDbLine
 10
65.28454962301474
 20
332.5638169404681
 30
0.0
 11
65.68454962301382
 21
332.5638169404681
 31
0.0
  0
LINE
  5
613
330
1F
100
AcDbEntity
  8
0
100
AcDbLine
 10
65.28454962301385
 20
331.0538169404681
 30
0.0
 11
65.28454962301385
 21
331.9638169404681
 31
0.0
  0
LINE
  5
614
330
1F
100
AcDbEntity
  8
0
100
AcDbLine
 10
65.28454962301385
 20
337.6438169404671
 30
0.0
 11
65.28454962301385
 21
338.553816940467
 31
0.0
  0
LINE
  5
615
330
1F
100
AcDbEntity
  8
0
100
AcDbLine
 10
65.68454962301382
 20
331.0538169404681
 30
0.0
 11
65.68454962301382
 21
338.553816940467
 31
0.0
  0
LINE
  5
616
330
1F
100
AcDbEntity
  8
0
100
AcDbLine
 10
55.18454962301484
 20
354.9738169404672
 30
0.0
 11
56.18454962301496
 21
354.9476310188981
 31
0.0
  0
LINE
  5
617
330
1F
100
AcDbEntity
  8
0
100
AcDbLine
 10
56.18454962301496
 20
350.9738169404672
 30
0.0
 11
56.19763809716777
 21
350.9741596742252
 31
0.0
  0
LINE
  5
618
330
1F
100
AcDbEntity
  8
0
100
AcDbLine
 10
57.18454962301496
 20
354.4738169404672
 30
0.0
 11
56.18454962301496
 21
354.4738169404672
 31
0.0
  0
CIRCLE
  5
619
330
1F
100
AcDbEntity
  8
0
100
AcDbCircle
 10
72.88454974493186
 20
342.9738167811232
 30
0.0
 40
1.399999999999999
  0
LINE
  5
61A
330
1F
100
AcDbEntity
  8
0
100
AcDbLine
 10
75.48454962301502
 20
324.8638169404671
 30
0.0
 11
70.70905469402294
 21
324.8638169404671
 31
0.0
  0
LINE
  5
61B
330
1F
100
AcDbEntity
  8
0
100
AcDbLine
 10
75.48454962301502
 20
328.6038169404668
 30
0.0
 11
70.70905469402294
 21
328.6038169404668
 31
0.0
  0
LINE
  5
61C
330
1F
100
AcDbEntity
  8
0
100
AcDbLine
 10
75.48454962301502
 20
327.4038169404672
 30
0.0
 11
72.4845496230148
 21
327.4038169404672
 31
0.0
  0
LINE
  5
61D
330
1F
100
AcDbEntity
  8
0
100
AcDbLine
 10
75.48454962301502
 20
326.0638169404669
 30
0.0
 11
72.4845496230148
 21
326.0638169404669
 31
0.0
  0
LINE
  5
61E
330
1F
100
AcDbEntity
  8
0
100
AcDbLine
 10
75.48454962301502
 20
324.8638169404671
 30
0.0
 11
72.4845496230148
 21
324.8638169404671
 31
0.0
  0
LINE
  5
61F
330
1F
100
AcDbEntity
  8
0
100
AcDbLine
 10
74.0845497449319
 20
331.0738167811231
 30
0.0
 11
77.0845497449319
 21
331.0738167811231
 31
0.0
  0
LINE
  5
620
330
1F
100
AcDbEntity
  8
0
100
AcDbLine
 10
72.4845496230148
 20
327.4038169404672
 30
0.0
 11
72.4845496230148
 21
328.6038169404668
 31
0.0
  0
LINE
  5
621
330
1F
100
AcDbEntity
  8
0
100
AcDbLine
 10
72.4845496230148
 20
324.8638169404671
 30
0.0
 11
72.4845496230148
 21
326.0638169404669
 31
0.0
  0
LINE
  5
622
330
1F
100
AcDbEntity
  8
0
100
AcDbLine
 10
73.9845496230148
 20
326.0638169404669
 30
0.0
 11
73.9845496230148
 21
327.4038169404672
 31
0.0
  0
LINE
  5
623
330
1F
100
AcDbEntity
  8
0
100
AcDbLine
 10
74.4845496230148
 20
327.4038169404672
 30
0.0
 11
74.4845496230148
 21
328.6038169404668
 31
0.0
  0
LINE
  5
624
330
1F
100
AcDbEntity
  8
0
100
AcDbLine
 10
74.4845496230148
 20
324.8638169404671
 30
0.0
 11
74.4845496230148
 21
326.0638169404669
 31
0.0
  0
LINE
  5
625
330
1F
100
AcDbEntity
  8
0
100
AcDbLine
 10
70.70905469402294
 20
328.6038169404668
 30
0.0
 11
70.70905469402294
 21
324.8638169404671
 31
0.0
  0
CIRCLE
  5
626
330
1F
100
AcDbEntity
  8
0
100
AcDbCircle
 10
69.43454962301394
 20
334.803816940467
 30
0.0
 40
1.290290050200999
  0
LINE
  5
627
330
1F
100
AcDbEntity
  8
0
100
AcDbLine
 10
74.0845497449319
 20
339.0738167811231
 30
0.0
 11
74.0845497449319
 21
331.0738167811231
 31
0.0
  0
LINE
  5
628
330
1F
100
AcDbEntity
  8
0
100
AcDbLine
 10
73.1845496230138
 20
331.0538169404681
 30
0.0
 11
73.1845496230138
 21
338.553816940467
 31
0.0
  0
ARC
  5
629
330
1F
100
AcDbEntity
  8
0
100
AcDbCircle
 10
80.18454962301484
 20
359.9738169404671
 30
0.0
 40
5.5
100
AcDbArc
 50
180.0
 51
245.3800226713445
  0
CIRCLE
  5
62A
330
1F
100
AcDbEntity
  8
0
100
AcDbCircle
 10
72.88454974493186
 20
347.7738167811232
 30
0.0
 40
1.399999999999999
  0
LINE
  5
62B
330
1F
100
AcDbEntity
  8
0
100
AcDbLine
 10
55.18454962301484
 20
364.9738169404668
 30
0.0
 11
38.15837267470669
 21
364.527970806276
 31
0.0
  0
ARC
  5
62C
330
1F
100
AcDbEntity
  8
0
100
AcDbCircle
 10
38.18454962301484
 20
363.5283134813001
 30
0.0
 40
1.0
100
AcDbArc
 50
91.4999999999962
 51
180.0
  0
LINE
  5
62D
330
1F
100
AcDbEntity
  8
0
100
AcDbLine
 10
85.68454962301496
 20
359.9738169404671
 30
0.0
 11
85.68454962301496
 21
364.9738169404668
 31
0.0
  0
LINE
  5
62E
330
1F
100
AcDbEntity
  8
0
100
AcDbLine
 10
100.2845496230148
 20
247.573816940467
 30
0.0
 11
100.2845496230148
 21
253.4738169404672
 31
0.0
  0
LINE
  5
62F
330
1F
100
AcDbEntity
  8
0
100
AcDbLine
 10
101.1845497449328
 20
267.573816781123
 30
0.0
 11
101.1845497449328
 21
232.6738167811229
 31
0.0
  0
LINE
  5
630
330
1F
100
AcDbEntity
  8
0
100
AcDbLine
 10
100.2845496230148
 20
267.573816781123
 30
0.0
 11
100.2845496230148
 21
232.6738167811229
 31
0.0
  0
LINE
  5
631
330
1F
100
AcDbEntity
  8
0
100
AcDbLine
 10
86.38454974493177
 20
263.0738167811232
 30
0.0
 11
86.38454974493177
 21
247.0738167811232
 31
0.0
  0
LINE
  5
632
330
1F
100
AcDbEntity
  8
0
100
AcDbLine
 10
87.484549623014
 20
247.573816940467
 30
0.0
 11
87.484549623014
 21
261.5738169404671
 31
0.0
  0
LINE
  5
633
330
1F
100
AcDbEntity
  8
0
100
AcDbLine
 10
100.2845496230138
 20
247.0738169404671
 30
0.0
 11
92.38454962301387
 21
247.0738169404671
 31
0.0
  0
LINE
  5
634
330
1F
100
AcDbEntity
  8
0
100
AcDbLine
 10
100.2845496230138
 20
241.5738169404671
 30
0.0
 11
93.03454962301385
 21
241.5738169404671
 31
0.0
  0
LINE
  5
635
330
1F
100
AcDbEntity
  8
0
100
AcDbLine
 10
92.38454962301387
 20
242.0738169404671
 30
0.0
 11
100.2845496230138
 21
242.0738169404671
 31
0.0
  0
LINE
  5
636
330
1F
100
AcDbEntity
  8
0
100
AcDbLine
 10
93.03454962301385
 20
233.1738169404671
 30
0.0
 11
100.2845496230138
 21
233.1738169404671
 31
0.0
  0
LINE
  5
637
330
1F
100
AcDbEntity
  8
0
100
AcDbLine
 10
101.1845497449328
 20
232.6738167811229
 30
0.0
 11
89.78454974493194
 21
232.6738167811229
 31
0.0
  0
LINE
  5
638
330
1F
100
AcDbEntity
  8
0
100
AcDbLine
 10
101.1845497449328
 20
230.6738167811232
 30
0.0
 11
89.78454974493194
 21
230.6738167811232
 31
0.0
  0
LINE
  5
639
330
1F
100
AcDbEntity
  8
0
100
AcDbLine
 10
91.68454962301485
 20
230.1738169404671
 30
0.0
 11
99.9845496230148
 21
230.1738169404682
 31
0.0
  0
LINE
  5
63A
330
1F
100
AcDbEntity
  8
0
100
AcDbLine
 10
90.88454962301501
 20
229.1738169404671
 30
0.0
 11
99.9845496230148
 21
229.1738169404671
 31
0.0
  0
LINE
  5
63B
330
1F
100
AcDbEntity
  8
0
100
AcDbLine
 10
100.2845496230148
 20
247.573816940467
 30
0.0
 11
87.484549623014
 21
247.573816940467
 31
0.0
  0
ARC
  5
63C
330
1F
100
AcDbEntity
  8
0
100
AcDbCircle
 10
91.68454962301485
 20
229.6738169404671
 30
0.0
 40
0.5
100
AcDbArc
 50
90.0
 51
180.0
  0
LINE
  5
63D
330
1F
100
AcDbEntity
  8
0
100
AcDbLine
 10
91.18454962301495
 20
229.6738169404671
 30
0.0
 11
91.18454962301495
 21
229.1738169404671
 31
0.0
  0
LINE
  5
63E
330
1F
100
AcDbEntity
  8
0
100
AcDbLine
 10
98.63454962301501
 20
222.7738169404672
 30
0.0
 11
98.63454962301501
 21
225.173816940468
 31
0.0
  0
ARC
  5
63F
330
1F
100
AcDbEntity
  8
0
100
AcDbCircle
 10
96.634549623015
 20
219.057533797876
 30
0.0
 40
2.0
100
AcDbArc
 50
0.0
 51
74.99999999999841
  0
LINE
  5
640
330
1F
100
AcDbEntity
  8
0
100
AcDbLine
 10
92.33454962301479
 20
225.173816940468
 30
0.0
 11
92.33454962301479
 21
222.7738169404672
 31
0.0
  0
ARC
  5
641
330
1F
100
AcDbEntity
  8
0
100
AcDbCircle
 10
94.3345496230148
 20
219.6738169404671
 30
0.0
 40
2.0
100
AcDbArc
 50
74.99999999999841
 51
180.0
  0
LINE
  5
642
330
1F
100
AcDbEntity
  8
0
100
AcDbLine
 10
94.8521877132198
 20
221.6056685930451
 30
0.0
 11
97.15218771322
 21
220.9893854504541
 31
0.0
  0
LINE
  5
643
330
1F
100
AcDbEntity
  8
0
100
AcDbLine
 10
92.33454962301479
 20
222.7738169404672
 30
0.0
 11
98.63454962301501
 21
222.7738169404672
 31
0.0
  0
LINE
  5
644
330
1F
100
AcDbEntity
  8
0
100
AcDbLine
 10
92.33454962301479
 20
224.6738169404671
 30
0.0
 11
98.63454962301501
 21
224.6738169404671
 31
0.0
  0
LINE
  5
645
330
1F
100
AcDbEntity
  8
0
100
AcDbLine
 10
92.33454962301479
 20
225.1738169404671
 30
0.0
 11
98.63454962301501
 21
225.1738169404671
 31
0.0
  0
LINE
  5
646
330
1F
100
AcDbEntity
  8
0
100
AcDbLine
 10
97.08454962301495
 20
220.173816940467
 30
0.0
 11
93.884549623015
 21
220.1738169404682
 31
0.0
  0
CIRCLE
  5
647
330
1F
100
AcDbEntity
  8
0
100
AcDbCircle
 10
95.4845496230148
 20
227.203816940467
 30
0.0
 40
1.399999999999999
  0
LINE
  5
648
330
1F
100
AcDbEntity
  8
0
100
AcDbLine
 10
89.78454974493194
 20
247.0738167811232
 30
0.0
 11
89.78454974493194
 21
232.6738167811229
 31
0.0
  0
LINE
  5
649
330
1F
100
AcDbEntity
  8
0
100
AcDbLine
 10
89.78454974493194
 20
247.0738167811232
 30
0.0
 11
86.38454974493177
 21
247.0738167811232
 31
0.0
  0
LINE
  5
64A
330
1F
100
AcDbEntity
  8
0
100
AcDbLine
 10
95.3345496230138
 20
246.0738169404671
 30
0.0
 11
94.33454962301381
 21
246.0738169404671
 31
0.0
  0
LINE
  5
64B
330
1F
100
AcDbEntity
  8
0
100
AcDbLine
 10
99.33454962301381
 20
246.0738169404671
 30
0.0
 11
93.33454962301379
 21
246.0738169404671
 31
0.0
  0
CIRCLE
  5
64C
330
1F
100
AcDbEntity
  8
0
100
AcDbCircle
 10
96.78454962301396
 20
235.6238169404671
 30
0.0
 40
1.0
  0
CIRCLE
  5
64D
330
1F
100
AcDbEntity
  8
0
100
AcDbCircle
 10
96.78454962301396
 20
239.1238169404671
 30
0.0
 40
1.0
  0
LINE
  5
64E
330
1F
100
AcDbEntity
  8
0
100
AcDbLine
 10
94.33454962301381
 20
243.0738169404671
 30
0.0
 11
95.3345496230138
 21
243.0738169404671
 31
0.0
  0
LINE
  5
64F
330
1F
100
AcDbEntity
  8
0
100
AcDbLine
 10
93.03454962301385
 20
241.5738169404671
 30
0.0
 11
93.03454962301385
 21
233.1738169404671
 31
0.0
  0
LINE
  5
650
330
1F
100
AcDbEntity
  8
0
100
AcDbLine
 10
93.33454962301379
 20
243.0738169404671
 30
0.0
 11
99.33454962301381
 21
243.0738169404671
 31
0.0
  0
LINE
  5
651
330
1F
100
AcDbEntity
  8
0
100
AcDbLine
 10
96.134549623014
 20
243.0738169404671
 30
0.0
 11
96.134549623014
 21
246.0738169404671
 31
0.0
  0
LINE
  5
652
330
1F
100
AcDbEntity
  8
0
100
AcDbLine
 10
99.33454962301381
 20
243.0738169404671
 30
0.0
 11
99.33454962301381
 21
246.0738169404671
 31
0.0
  0
LINE
  5
653
330
1F
100
AcDbEntity
  8
0
100
AcDbLine
 10
93.33454962301379
 20
246.0738169404671
 30
0.0
 11
93.33454962301379
 21
243.0738169404671
 31
0.0
  0
LINE
  5
654
330
1F
100
AcDbEntity
  8
0
100
AcDbLine
 10
95.3345496230138
 20
243.0738169404671
 30
0.0
 11
95.3345496230138
 21
246.0738169404671
 31
0.0
  0
LINE
  5
655
330
1F
100
AcDbEntity
  8
0
100
AcDbLine
 10
94.33454962301381
 20
246.0738169404671
 30
0.0
 11
94.33454962301381
 21
243.0738169404671
 31
0.0
  0
LINE
  5
656
330
1F
100
AcDbEntity
  8
0
100
AcDbLine
 10
92.38454962301387
 20
247.0738169404671
 30
0.0
 11
92.38454962301387
 21
242.0738169404671
 31
0.0
  0
LINE
  5
657
330
1F
100
AcDbEntity
  8
0
100
AcDbLine
 10
100.2845496230148
 20
229.8738169404681
 30
0.0
 11
100.2845496230148
 21
222.7738169404672
 31
0.0
  0
LINE
  5
658
330
1F
100
AcDbEntity
  8
0
100
AcDbLine
 10
99.9845496230148
 20
222.7738169404672
 30
0.0
 11
100.2845496230148
 21
222.7738169404672
 31
0.0
  0
LINE
  5
659
330
1F
100
AcDbEntity
  8
0
100
AcDbLine
 10
99.9845496230148
 20
215.3838169404681
 30
0.0
 11
100.2845496230148
 21
215.3838169404681
 31
0.0
  0
LINE
  5
65A
330
1F
100
AcDbEntity
  8
0
100
AcDbLine
 10
99.9845496230148
 20
214.1138169404681
 30
0.0
 11
100.2845496230148
 21
214.1138169404681
 31
0.0
  0
LINE
  5
65B
330
1F
100
AcDbEntity
  8
0
100
AcDbLine
 10
99.9845496230148
 20
217.9238169404682
 30
0.0
 11
100.2845496230148
 21
217.9238169404682
 31
0.0
  0
LINE
  5
65C
330
1F
100
AcDbEntity
  8
0
100
AcDbLine
 10
99.9845496230148
 20
216.6538169404681
 30
0.0
 11
100.2845496230148
 21
216.6538169404681
 31
0.0
  0
LINE
  5
65D
330
1F
100
AcDbEntity
  8
0
100
AcDbLine
 10
99.9845496230148
 20
215.3838169404681
 30
0.0
 11
100.2845496230148
 21
215.3838169404681
 31
0.0
  0
LINE
  5
65E
330
1F
100
AcDbEntity
  8
0
100
AcDbLine
 10
99.9845496230148
 20
219.1938169404671
 30
0.0
 11
100.2845496230148
 21
219.1938169404671
 31
0.0
  0
LINE
  5
65F
330
1F
100
AcDbEntity
  8
0
100
AcDbLine
 10
99.9845496230148
 20
217.9238169404682
 30
0.0
 11
100.2845496230148
 21
217.9238169404682
 31
0.0
  0
LINE
  5
660
330
1F
100
AcDbEntity
  8
0
100
AcDbLine
 10
99.9845496230148
 20
212.8438169404681
 30
0.0
 11
100.2845496230148
 21
212.8438169404681
 31
0.0
  0
LINE
  5
661
330
1F
100
AcDbEntity
  8
0
100
AcDbLine
 10
99.9845496230148
 20
211.5738169404681
 30
0.0
 11
100.2845496230148
 21
211.5738169404681
 31
0.0
  0
ARC
  5
662
330
1F
100
AcDbEntity
  8
0
100
AcDbCircle
 10
99.9845496230148
 20
229.8738169404681
 30
0.0
 40
0.3
100
AcDbArc
 50
0.0
 51
90.0
  0
LINE
  5
663
330
1F
100
AcDbEntity
  8
0
100
AcDbLine
 10
100.2845496230138
 20
233.1738169404671
 30
0.0
 11
100.2845496230138
 21
241.5738169404671
 31
0.0
  0
LINE
  5
664
330
1F
100
AcDbEntity
  8
0
100
AcDbLine
 10
100.2845496230138
 20
242.0738169404671
 30
0.0
 11
100.2845496230138
 21
247.0738169404671
 31
0.0
  0
LINE
  5
665
330
1F
100
AcDbEntity
  8
0
100
AcDbLine
 10
101.1845497449328
 20
267.573816781123
 30
0.0
 11
89.78454974493194
 21
267.573816781123
 31
0.0
  0
LINE
  5
666
330
1F
100
AcDbEntity
  8
0
100
AcDbLine
 10
100.2845496230138
 20
267.0738169404671
 30
0.0
 11
92.38454962301387
 21
267.0738169404671
 31
0.0
  0
LINE
  5
667
330
1F
100
AcDbEntity
  8
0
100
AcDbLine
 10
92.38454962301387
 20
262.073816940467
 30
0.0
 11
100.2845496230138
 21
262.073816940467
 31
0.0
  0
LINE
  5
668
330
1F
100
AcDbEntity
  8
0
100
AcDbLine
 10
100.2845496230148
 20
261.5738169404671
 30
0.0
 11
87.484549623014
 21
261.5738169404671
 31
0.0
  0
LINE
  5
669
330
1F
100
AcDbEntity
  8
0
100
AcDbLine
 10
89.78454974493194
 20
263.0738167811232
 30
0.0
 11
89.78454974493194
 21
267.573816781123
 31
0.0
  0
CIRCLE
  5
66A
330
1F
100
AcDbEntity
  8
0
100
AcDbCircle
 10
93.78454962301477
 20
254.5738169404671
 30
0.0
 40
5.5
  0
LINE
  5
66B
330
1F
100
AcDbEntity
  8
0
100
AcDbLine
 10
89.78454974493194
 20
263.0738167811232
 30
0.0
 11
86.38454974493177
 21
263.0738167811232
 31
0.0
  0
LINE
  5
66C
330
1F
100
AcDbEntity
  8
0
100
AcDbLine
 10
95.3345496230138
 20
266.0738169404671
 30
0.0
 11
94.33454962301381
 21
266.0738169404671
 31
0.0
  0
LINE
  5
66D
330
1F
100
AcDbEntity
  8
0
100
AcDbLine
 10
99.33454962301381
 20
266.0738169404671
 30
0.0
 11
93.33454962301379
 21
266.0738169404671
 31
0.0
  0
LINE
  5
66E
330
1F
100
AcDbEntity
  8
0
100
AcDbLine
 10
94.33454962301381
 20
263.0738169404671
 30
0.0
 11
95.3345496230138
 21
263.0738169404671
 31
0.0
  0
LINE
  5
66F
330
1F
100
AcDbEntity
  8
0
100
AcDbLine
 10
93.33454962301379
 20
263.0738169404671
 30
0.0
 11
99.33454962301381
 21
263.0738169404671
 31
0.0
  0
LINE
  5
670
330
1F
100
AcDbEntity
  8
0
100
AcDbLine
 10
99.33454962301381
 20
263.0738169404671
 30
0.0
 11
99.33454962301381
 21
266.0738169404671
 31
0.0
  0
LINE
  5
671
330
1F
100
AcDbEntity
  8
0
100
AcDbLine
 10
96.134549623014
 20
263.0738169404671
 30
0.0
 11
96.134549623014
 21
266.0738169404671
 31
0.0
  0
LINE
  5
672
330
1F
100
AcDbEntity
  8
0
100
AcDbLine
 10
95.3345496230138
 20
263.0738169404671
 30
0.0
 11
95.3345496230138
 21
266.0738169404671
 31
0.0
  0
LINE
  5
673
330
1F
100
AcDbEntity
  8
0
100
AcDbLine
 10
94.33454962301381
 20
266.0738169404671
 30
0.0
 11
94.33454962301381
 21
263.0738169404671
 31
0.0
  0
LINE
  5
674
330
1F
100
AcDbEntity
  8
0
100
AcDbLine
 10
93.33454962301379
 20
266.0738169404671
 30
0.0
 11
93.33454962301379
 21
263.0738169404671
 31
0.0
  0
LINE
  5
675
330
1F
100
AcDbEntity
  8
0
100
AcDbLine
 10
92.38454962301387
 20
267.0738169404671
 30
0.0
 11
92.38454962301387
 21
262.073816940467
 31
0.0
  0
LINE
  5
676
330
1F
100
AcDbEntity
  8
0
100
AcDbLine
 10
100.2845496230148
 20
255.673816940467
 30
0.0
 11
100.2845496230148
 21
261.5738169404671
 31
0.0
  0
LINE
  5
677
330
1F
100
AcDbEntity
  8
0
100
AcDbLine
 10
100.2845496230138
 20
262.073816940467
 30
0.0
 11
100.2845496230138
 21
267.0738169404671
 31
0.0
  0
ARC
  5
678
330
1F
100
AcDbEntity
  8
0
100
AcDbCircle
 10
108.1845496230149
 20
363.9738169404671
 30
0.0
 40
1.0
100
AcDbArc
 50
0.0
 51
90.0
  0
ARC
  5
679
330
1F
100
AcDbEntity
  8
0
100
AcDbCircle
 10
108.1845496230149
 20
363.9738169404671
 30
0.0
 40
1.0
100
AcDbArc
 50
0.0
 51
90.0
  0
LINE
  5
67F
330
1F
100
AcDbEntity
  8
0
100
AcDbLine
 10
55.18454962301484
 20
5.000002862035954
 30
0.0
 11
109.1845496230147
 21
3.585963097298986
 31
0.0
  0
LINE
  5
680
330
1F
100
AcDbEntity
  8
0
100
AcDbLine
 10
109.1845496230147
 20
3.585963097298986
 30
0.0
 11
56.18454962301496
 21
4.973816940466861
 31
0.0
  0
LINE
  5
682
330
1F
100
AcDbEntity
  8
0
100
AcDbLine
 10
67.18454962301485
 20
21.97381694046686
 30
0.0
 11
109.1845496230147
 21
21.97381694046686
 31
0.0
  0
LINE
  5
683
330
1F
100
AcDbEntity
  8
0
100
AcDbLine
 10
108.1845496230149
 20
42.97381694046686
 30
0.0
 11
67.18454962301485
 21
42.97381694046686
 31
0.0
  0
LINE
  5
684
330
1F
100
AcDbEntity
  8
0
100
AcDbLine
 10
108.1845496230149
 20
40.97381694046686
 30
0.0
 11
67.18454962301485
 21
40.97381694046686
 31
0.0
  0
LINE
  5
685
330
1F
100
AcDbEntity
  8
0
100
AcDbLine
 10
108.1845496230149
 20
35.97381694046686
 30
0.0
 11
67.18454962301485
 21
35.97381694046686
 31
0.0
  0
LINE
  5
686
330
1F
100
AcDbEntity
  8
0
100
AcDbLine
 10
108.1845496230149
 20
33.97381694046686
 30
0.0
 11
67.18454962301485
 21
33.97381694046686
 31
0.0
  0
LINE
  5
687
330
1F
100
AcDbEntity
  8
0
100
AcDbLine
 10
108.1845496230149
 20
28.97381694046686
 30
0.0
 11
67.18454962301485
 21
28.97381694046686
 31
0.0
  0
LINE
  5
688
330
1F
100
AcDbEntity
  8
0
100
AcDbLine
 10
108.1845496230149
 20
26.97381694046686
 30
0.0
 11
67.18454962301485
 21
26.97381694046686
 31
0.0
  0
LINE
  5
689
330
1F
100
AcDbEntity
  8
0
100
AcDbLine
 10
57.18454962301496
 20
120.9738169404668
 30
0.0
 11
109.1845496230147
 21
120.9738169404668
 31
0.0
  0
LINE
  5
68B
330
1F
100
AcDbEntity
  8
0
100
AcDbLine
 10
37.18454962301496
 20
0.0000028620359558
 30
0.0
 11
109.1845496230147
 21
0.0000028620359558
 31
0.0
  0
LINE
  5
68C
330
1F
100
AcDbEntity
  8
0
100
AcDbLine
 10
37.18454962301496
 20
79.00000286203596
 30
0.0
 11
37.18454962301496
 21
54.00000286203596
 31
0.0
  0
LINE
  5
68E
330
1F
100
AcDbEntity
  8
0
100
AcDbLine
 10
56.18454962301496
 20
71.00000286203595
 30
0.0
 11
56.18454962301496
 21
33.00000286203594
 31
0.0
  0
LINE
  5
68F
330
1F
100
AcDbEntity
  8
0
100
AcDbLine
 10
57.18454962301496
 20
32.97381694046787
 30
0.0
 11
57.18454962301496
 21
70.97381694046686
 31
0.0
  0
LINE
  5
690
330
1F
100
AcDbEntity
  8
0
100
AcDbLine
 10
67.18454962301485
 20
103.9738169404668
 30
0.0
 11
67.18454962301485
 21
21.97381694046686
 31
0.0
  0
ARC
  5
691
330
1F
100
AcDbEntity
  8
0
100
AcDbCircle
 10
38.18454962301484
 20
56.05154363498797
 30
0.0
 40
1.0
100
AcDbArc
 50
93.03047684586108
 51
180.0
  0
LINE
  5
692
330
1F
100
AcDbEntity
  8
0
100
AcDbLine
 10
55.18454962301484
 20
5.000002862035954
 30
0.0
 11
37.18454962301496
 21
4.52865627378992
 31
0.0
  0
LINE
  5
693
330
1F
100
AcDbEntity
  8
0
100
AcDbLine
 10
37.18454962301496
 20
21.17552057867793
 30
0.0
 11
37.18454962301496
 21
0.0000028620359558
 31
0.0
  0
LINE
  5
694
330
1F
100
AcDbEntity
  8
0
100
AcDbLine
 10
37.3309962324215
 20
53.64644947144268
 30
0.0
 11
41.18454962301496
 21
52.00000286203596
 31
0.0
  0
LINE
  5
695
330
1F
100
AcDbEntity
  8
0
100
AcDbLine
 10
37.65838164489366
 20
21.67483534605611
 30
0.0
 11
48.76305355737986
 21
22.25680654065592
 31
0.0
  0
LINE
  5
696
330
1F
100
AcDbEntity
  8
0
100
AcDbLine
 10
38.1316824818748
 20
29.050145189857
 30
0.0
 11
48.76385033472593
 21
29.61302466441992
 31
0.0
  0
LINE
  5
697
330
1F
100
AcDbEntity
  8
0
100
AcDbLine
 10
38.1316824818748
 20
26.94986053421405
 30
0.0
 11
48.76385033472593
 21
26.38698105965101
 31
0.0
  0
LINE
  5
698
330
1F
100
AcDbEntity
  8
0
100
AcDbLine
 10
38.1316824818748
 20
54.94986053421399
 30
0.0
 11
48.76385033472593
 21
54.38698105965102
 31
0.0
  0
LINE
  5
699
330
1F
100
AcDbEntity
  8
0
100
AcDbLine
 10
38.1316824818748
 20
50.05014518985699
 30
0.0
 11
48.76385033472593
 21
50.61302466441992
 31
0.0
  0
LINE
  5
69A
330
1F
100
AcDbEntity
  8
0
100
AcDbLine
 10
38.1316824818748
 20
47.94986053421403
 30
0.0
 11
48.76385033472593
 21
47.38698105965101
 31
0.0
  0
LINE
  5
69B
330
1F
100
AcDbEntity
  8
0
100
AcDbLine
 10
38.1316824818748
 20
43.05014518985706
 30
0.0
 11
48.76385033472593
 21
43.61302466441975
 31
0.0
  0
LINE
  5
69C
330
1F
100
AcDbEntity
  8
0
100
AcDbLine
 10
38.1316824818748
 20
40.949860534214
 30
0.0
 11
48.76385033472593
 21
40.38698105965107
 31
0.0
  0
LINE
  5
69D
330
1F
100
AcDbEntity
  8
0
100
AcDbLine
 10
38.1316824818748
 20
36.05014518985706
 30
0.0
 11
48.76385033472593
 21
36.61302466441992
 31
0.0
  0
LINE
  5
69E
330
1F
100
AcDbEntity
  8
0
100
AcDbLine
 10
38.1316824818748
 20
33.949860534214
 30
0.0
 11
48.76385033472593
 21
33.38698105965102
 31
0.0
  0
POINT
  5
69F
330
1F
100
AcDbEntity
  8
0
100
AcDbPoint
 10
37.18454962301496
 20
21.65000286203592
 30
0.0
  0
ARC
  5
6A0
330
1F
100
AcDbEntity
  8
0
100
AcDbCircle
 10
37.68454962301484
 20
21.17552057867793
 30
0.0
 40
0.5
100
AcDbArc
 50
92.9999999999991
 51
180.0
  0
LINE
  5
6A1
330
1F
100
AcDbEntity
  8
0
100
AcDbLine
 10
37.18454962301496
 20
28.05154363498798
 30
0.0
 11
37.18454962301496
 21
27.94846208908291
 31
0.0
  0
ARC
  5
6A2
330
1F
100
AcDbEntity
  8
0
100
AcDbCircle
 10
38.18454962301484
 20
28.05154363498798
 30
0.0
 40
1.0
100
AcDbArc
 50
93.03047684586108
 51
180.0
  0
ARC
  5
6A3
330
1F
100
AcDbEntity
  8
0
100
AcDbCircle
 10
38.18454962301484
 20
27.94846208908291
 30
0.0
 40
1.0
100
AcDbArc
 50
180.0
 51
266.9695231541388
  0
LINE
  5
6A4
330
1F
100
AcDbEntity
  8
0
100
AcDbLine
 10
37.18454962301496
 20
35.05154363498798
 30
0.0
 11
37.18454962301496
 21
34.94846208908291
 31
0.0
  0
ARC
  5
6A5
330
1F
100
AcDbEntity
  8
0
100
AcDbCircle
 10
38.18454962301484
 20
35.05154363498798
 30
0.0
 40
1.0
100
AcDbArc
 50
93.03047684586108
 51
180.0
  0
ARC
  5
6A6
330
1F
100
AcDbEntity
  8
0
100
AcDbCircle
 10
38.18454962301484
 20
34.94846208908291
 30
0.0
 40
1.0
100
AcDbArc
 50
180.0
 51
266.9695231541388
  0
ARC
  5
6A7
330
1F
100
AcDbEntity
  8
0
100
AcDbCircle
 10
37.68454962301484
 20
54.00000286203596
 30
0.0
 40
0.5
100
AcDbArc
 50
180.0
 51
224.9999999999908
  0
LINE
  5
6A8
330
1F
100
AcDbEntity
  8
0
100
AcDbLine
 10
37.18454962301496
 20
42.05154363498798
 30
0.0
 11
37.18454962301496
 21
41.9484620890829
 31
0.0
  0
ARC
  5
6A9
330
1F
100
AcDbEntity
  8
0
100
AcDbCircle
 10
38.18454962301484
 20
42.05154363498798
 30
0.0
 40
1.0
100
AcDbArc
 50
93.03047684586108
 51
180.0
  0
ARC
  5
6AA
330
1F
100
AcDbEntity
  8
0
100
AcDbCircle
 10
38.18454962301484
 20
41.9484620890829
 30
0.0
 40
1.0
100
AcDbArc
 50
180.0
 51
266.9695231541388
  0
LINE
  5
6AB
330
1F
100
AcDbEntity
  8
0
100
AcDbLine
 10
37.18454962301496
 20
56.05154363498797
 30
0.0
 11
37.18454962301496
 21
55.94846208908291
 31
0.0
  0
ARC
  5
6AC
330
1F
100
AcDbEntity
  8
0
100
AcDbCircle
 10
38.18454962301484
 20
55.94846208908291
 30
0.0
 40
1.0
100
AcDbArc
 50
180.0
 51
266.9695231541388
  0
LINE
  5
6AD
330
1F
100
AcDbEntity
  8
0
100
AcDbLine
 10
37.18454962301496
 20
49.05154363498796
 30
0.0
 11
37.18454962301496
 21
48.9484620890829
 31
0.0
  0
ARC
  5
6AE
330
1F
100
AcDbEntity
  8
0
100
AcDbCircle
 10
38.18454962301484
 20
49.05154363498796
 30
0.0
 40
1.0
100
AcDbArc
 50
93.03047684586108
 51
180.0
  0
ARC
  5
6AF
330
1F
100
AcDbEntity
  8
0
100
AcDbCircle
 10
38.18454962301484
 20
48.9484620890829
 30
0.0
 40
1.0
100
AcDbArc
 50
180.0
 51
266.9695231541388
  0
ARC
  5
6B0
330
1F
100
AcDbEntity
  8
0
100
AcDbCircle
 10
48.68454962301496
 20
38.110926996724
 30
0.0
 40
1.5
100
AcDbArc
 50
273.030476845861
 51
0.0
  0
LINE
  5
6B1
330
1F
100
AcDbEntity
  8
0
100
AcDbLine
 10
50.18454962301484
 20
31.88907872734699
 30
0.0
 11
50.18454962301484
 21
31.110926996724
 31
0.0
  0
ARC
  5
6B2
330
1F
100
AcDbEntity
  8
0
100
AcDbCircle
 10
48.68454962301496
 20
31.110926996724
 30
0.0
 40
1.5
100
AcDbArc
 50
273.030476845861
 51
0.0
  0
LINE
  5
6B3
330
1F
100
AcDbEntity
  8
0
100
AcDbLine
 10
50.18454962301484
 20
24.88907872734698
 30
0.0
 11
50.18454962301484
 21
23.75475084278798
 31
0.0
  0
ARC
  5
6B4
330
1F
100
AcDbEntity
  8
0
100
AcDbCircle
 10
48.68454962301496
 20
24.88907872734698
 30
0.0
 40
1.5
100
AcDbArc
 50
0.0
 51
86.96952315413239
  0
ARC
  5
6B5
330
1F
100
AcDbEntity
  8
0
100
AcDbCircle
 10
48.68454962301496
 20
23.75475084278798
 30
0.0
 40
1.5
100
AcDbArc
 50
273.0000000000056
 51
0.0
  0
ARC
  5
6B6
330
1F
100
AcDbEntity
  8
0
100
AcDbCircle
 10
48.68454962301496
 20
31.88907872734699
 30
0.0
 40
1.5
100
AcDbArc
 50
0.0
 51
86.96952315413239
  0
LINE
  5
6B7
330
1F
100
AcDbEntity
  8
0
  6
CONTINUOUS
100
AcDbLine
 10
43.18454962301482
 20
46.50000286203595
 30
0.0
 11
50.05450279800107
 21
46.50000286203595
 31
0.0
  0
LINE
  5
6B8
330
1F
100
AcDbEntity
  8
0
  6
CONTINUOUS
100
AcDbLine
 10
41.18454962301484
 20
54.78823815615363
 30
0.0
 11
41.18454962301496
 21
54.00000286203596
 31
0.0
  0
LINE
  5
6B9
330
1F
100
AcDbEntity
  8
0
  6
CONTINUOUS
100
AcDbLine
 10
43.18454962301482
 20
54.68235580321231
 30
0.0
 11
43.18454962301482
 21
50.31764992085857
 31
0.0
  0
LINE
  5
6BA
330
1F
100
AcDbEntity
  8
0
100
AcDbLine
 10
39.18454962301484
 20
54.89412050909464
 30
0.0
 11
39.18454962301484
 21
54.85451112623997
 31
0.0
  0
LINE
  5
6BB
330
1F
100
AcDbEntity
  8
0
100
AcDbLine
 10
41.18454962301496
 20
47.78823815615362
 30
0.0
 11
41.18454962301496
 21
47.00000286203596
 31
0.0
  0
LINE
  5
6BC
330
1F
100
AcDbEntity
  8
0
100
AcDbLine
 10
43.18454962301482
 20
50.31764992085857
 30
0.0
 11
43.18454962301482
 21
54.00000286203596
 31
0.0
  0
LINE
  5
6BD
330
1F
100
AcDbEntity
  8
0
  6
CONTINUOUS
100
AcDbLine
 10
43.18454962301482
 20
47.68235580321229
 30
0.0
 11
43.18454962301482
 21
46.50000286203595
 31
0.0
  0
LINE
  5
6BE
330
1F
100
AcDbEntity
  8
0
100
AcDbLine
 10
39.18454962301484
 20
52.85451112623997
 30
0.0
 11
39.18454962301484
 21
52.00000286203596
 31
0.0
  0
LINE
  5
6BF
330
1F
100
AcDbEntity
  8
0
100
AcDbLine
 10
39.18454962301484
 20
54.85451112623997
 30
0.0
 11
41.18454962301496
 21
54.00000286203596
 31
0.0
  0
LINE
  5
6C0
330
1F
100
AcDbEntity
  8
0
100
AcDbLine
 10
39.18454962301484
 20
54.85451112623997
 30
0.0
 11
39.18454962301484
 21
54.89412050909464
 31
0.0
  0
ARC
  5
6C1
330
1F
100
AcDbEntity
  8
0
100
AcDbCircle
 10
39.68454962301496
 20
52.00000286203596
 30
0.0
 40
0.5
100
AcDbArc
 50
180.0
 51
270.0
  0
ARC
  5
6C2
330
1F
100
AcDbEntity
  8
0
100
AcDbCircle
 10
40.68454962301496
 20
52.00000286203596
 30
0.0
 40
0.5
100
AcDbArc
 50
270.0
 51
0.0
  0
LINE
  5
6C3
330
1F
100
AcDbEntity
  8
0
100
AcDbLine
 10
39.68454962301496
 20
51.50000286203596
 30
0.0
 11
40.68454962301496
 21
51.50000286203596
 31
0.0
  0
ARC
  5
6C4
330
1F
100
AcDbEntity
  8
0
100
AcDbCircle
 10
41.68454962301484
 20
47.00000286203596
 30
0.0
 40
0.5
100
AcDbArc
 50
180.0
 51
270.0
  0
ARC
  5
6C5
330
1F
100
AcDbEntity
  8
0
100
AcDbCircle
 10
42.68454962301517
 20
47.00000286203596
 30
0.0
 40
0.5
100
AcDbArc
 50
270.0
 51
0.0
  0
ARC
  5
6C6
330
1F
100
AcDbEntity
  8
0
100
AcDbCircle
 10
42.68454962301484
 20
54.00000286203596
 30
0.0
 40
0.5
100
AcDbArc
 50
0.0
 51
90.0
  0
ARC
  5
6C7
330
1F
100
AcDbEntity
  8
0
100
AcDbCircle
 10
41.68454962301484
 20
54.00000286203596
 30
0.0
 40
0.5
100
AcDbArc
 50
90.0
 51
180.0
  0
LINE
  5
6C8
330
1F
100
AcDbEntity
  8
0
100
AcDbLine
 10
41.18454962301496
 20
52.00000286203596
 30
0.0
 11
41.18454962301496
 21
50.21176756791743
 31
0.0
  0
LINE
  5
6C9
330
1F
100
AcDbEntity
  8
0
100
AcDbLine
 10
42.68454962301484
 20
54.50000286203596
 30
0.0
 11
41.68454962301484
 21
54.50000286203596
 31
0.0
  0
LINE
  5
6CA
330
1F
100
AcDbEntity
  8
0
100
AcDbLine
 10
43.18454962301518
 20
47.00000286203596
 30
0.0
 11
43.18454962301518
 21
47.68235580321229
 31
0.0
  0
LINE
  5
6CB
330
1F
100
AcDbEntity
  8
0
100
AcDbLine
 10
41.68454962301484
 20
46.50000286203595
 30
0.0
 11
42.68454962301517
 21
46.50000286203595
 31
0.0
  0
LINE
  5
6CC
330
1F
100
AcDbEntity
  8
0
100
AcDbLine
 10
50.18454962301484
 20
38.88907872734705
 30
0.0
 11
50.18454962301484
 21
38.110926996724
 31
0.0
  0
LINE
  5
6CD
330
1F
100
AcDbEntity
  8
0
100
AcDbLine
 10
49.18454962301495
 20
43.69671343435096
 30
0.0
 11
49.18454962301495
 21
46.50000286203595
 31
0.0
  0
LINE
  5
6CE
330
1F
100
AcDbEntity
  8
0
100
AcDbLine
 10
50.18454962301484
 20
45.889078727347
 30
0.0
 11
50.18454962301484
 21
45.11092699672412
 31
0.0
  0
ARC
  5
6CF
330
1F
100
AcDbEntity
  8
0
100
AcDbCircle
 10
48.68454962301496
 20
45.889078727347
 30
0.0
 40
1.5
100
AcDbArc
 50
0.0
 51
86.96952315413239
  0
ARC
  5
6D0
330
1F
100
AcDbEntity
  8
0
100
AcDbCircle
 10
48.68454962301496
 20
45.11092699672412
 30
0.0
 40
1.5
100
AcDbArc
 50
273.030476845861
 51
0.0
  0
ARC
  5
6D1
330
1F
100
AcDbEntity
  8
0
100
AcDbCircle
 10
48.68454962301496
 20
38.88907872734705
 30
0.0
 40
1.5
100
AcDbArc
 50
0.0
 51
86.96952315413239
  0
LINE
  5
6D2
330
1F
100
AcDbEntity
  8
0
100
AcDbLine
 10
50.18454962301484
 20
52.889078727347
 30
0.0
 11
50.18454962301484
 21
52.110926996724
 31
0.0
  0
ARC
  5
6D3
330
1F
100
AcDbEntity
  8
0
100
AcDbCircle
 10
48.68454962301496
 20
52.889078727347
 30
0.0
 40
1.5
100
AcDbArc
 50
0.0
 51
86.96952315413239
  0
ARC
  5
6D4
330
1F
100
AcDbEntity
  8
0
100
AcDbCircle
 10
48.68454962301496
 20
52.110926996724
 30
0.0
 40
1.5
100
AcDbArc
 50
273.030476845861
 51
0.0
  0
LINE
  5
6D5
330
1F
100
AcDbEntity
  8
0
100
AcDbLine
 10
56.18454962301496
 20
21.00000286203595
 30
0.0
 11
56.18454962301496
 21
4.97381694046595
 31
0.0
  0
LINE
  5
6D6
330
1F
100
AcDbEntity
  8
0
100
AcDbLine
 10
57.18454962301496
 20
4.921445097328898
 30
0.0
 11
57.18454962301496
 21
20.97381694046686
 31
0.0
  0
LINE
  5
6D7
330
1F
100
AcDbEntity
  8
0
100
AcDbLine
 10
82.47583747049191
 20
4.259169417370968
 30
0.0
 11
82.47583747049191
 21
21.97381694046686
 31
0.0
  0
LINE
  5
6D8
330
1F
100
AcDbEntity
  8
0
100
AcDbLine
 10
77.89326177553687
 20
4.379168385103977
 30
0.0
 11
77.89326177553687
 21
21.97381694046794
 31
0.0
  0
LINE
  5
6D9
330
1F
100
AcDbEntity
  8
0
100
AcDbLine
 10
78.0845496230138
 20
3.800002862034886
 30
0.0
 11
78.0845496230138
 21
0.0000028620359558
 31
0.0
  0
LINE
  5
6DA
330
1F
100
AcDbEntity
  8
0
100
AcDbLine
 10
82.28454962301475
 20
3.800002862034886
 30
0.0
 11
82.28454962301475
 21
0.0000028620359558
 31
0.0
  0
LINE
  5
6DB
330
1F
100
AcDbEntity
  8
0
100
AcDbLine
 10
74.68454962301496
 20
3.800002862034886
 30
0.0
 11
85.68454962301496
 21
3.800002862034886
 31
0.0
  0
LINE
  5
6DC
330
1F
100
AcDbEntity
  8
0
100
AcDbLine
 10
74.68454962301496
 20
4.489377391436106
 30
0.0
 11
74.68454962301496
 21
3.800002862034886
 31
0.0
  0
LINE
  5
6DD
330
1F
100
AcDbEntity
  8
0
100
AcDbLine
 10
85.68454962301496
 20
4.201332254176008
 30
0.0
 11
85.68454962301496
 21
3.800002862034886
 31
0.0
  0
LINE
  5
6E1
330
1F
100
AcDbEntity
  8
0
100
AcDbLine
 10
60.68454962301497
 20
23.00000286203594
 30
0.0
 11
59.18454962301392
 21
23.00000286203594
 31
0.0
  0
LINE
  5
6E2
330
1F
100
AcDbEntity
  8
0
100
AcDbLine
 10
60.88454962301387
 20
22.47381694046686
 30
0.0
 11
59.18454962301392
 21
22.47381694046686
 31
0.0
  0
LINE
  5
6E3
330
1F
100
AcDbEntity
  8
0
100
AcDbLine
 10
56.18454962301496
 20
21.00000286203595
 30
0.0
 11
54.884549623015
 21
21.00000286203595
 31
0.0
  0
LINE
  5
6E4
330
1F
100
AcDbEntity
  8
0
100
AcDbLine
 10
57.18454962301496
 20
20.97381694046686
 30
0.0
 11
56.18454962301496
 21
20.97381694046686
 31
0.0
  0
LINE
  5
6E5
330
1F
100
AcDbEntity
  8
0
100
AcDbLine
 10
60.68454962301497
 20
31.00000286203594
 30
0.0
 11
59.18454962301392
 21
31.00000286203594
 31
0.0
  0
LINE
  5
6E6
330
1F
100
AcDbEntity
  8
0
100
AcDbLine
 10
56.18454962301496
 20
33.00000286203594
 30
0.0
 11
54.884549623015
 21
33.00000286203594
 31
0.0
  0
LINE
  5
6E7
330
1F
100
AcDbEntity
  8
0
100
AcDbLine
 10
60.88454962301387
 20
31.47381694046696
 30
0.0
 11
59.18454962301392
 21
31.47381694046696
 31
0.0
  0
LINE
  5
6E8
330
1F
100
AcDbEntity
  8
0
100
AcDbLine
 10
57.18454962301496
 20
32.97381694046787
 30
0.0
 11
56.18454962301496
 21
32.97381694046787
 31
0.0
  0
LINE
  5
6E9
330
1F
100
AcDbEntity
  8
0
100
AcDbLine
 10
59.28454962301486
 20
31.00000286203594
 30
0.0
 11
59.28454962301486
 21
23.00000286203594
 31
0.0
  0
LINE
  5
6EA
330
1F
100
AcDbEntity
  8
0
100
AcDbLine
 10
59.884549623015
 20
31.00000286203594
 30
0.0
 11
59.884549623015
 21
23.00000286203594
 31
0.0
  0
LINE
  5
6EB
330
1F
100
AcDbEntity
  8
0
100
AcDbLine
 10
60.68454962301497
 20
31.00000286203594
 30
0.0
 11
60.68454962301497
 21
23.00000286203594
 31
0.0
  0
LINE
  5
6EC
330
1F
100
AcDbEntity
  8
0
100
AcDbLine
 10
54.884549623015
 20
33.00000286203594
 30
0.0
 11
54.884549623015
 21
21.10000286203495
 31
0.0
  0
LINE
  5
6ED
330
1F
100
AcDbEntity
  8
0
100
AcDbLine
 10
55.68454962301483
 20
33.00000286203594
 30
0.0
 11
55.68454962301483
 21
21.00000286203595
 31
0.0
  0
LINE
  5
6EE
330
1F
100
AcDbEntity
  8
0
100
AcDbLine
 10
56.18454962301496
 20
33.00000286203594
 30
0.0
 11
56.18454962301496
 21
21.00000286203487
 31
0.0
  0
LINE
  5
6EF
330
1F
100
AcDbEntity
  8
0
100
AcDbLine
 10
59.18454962301392
 20
31.47381694046696
 30
0.0
 11
59.18454962301392
 21
22.47381694046686
 31
0.0
  0
LINE
  5
6F0
330
1F
100
AcDbEntity
  8
0
100
AcDbLine
 10
60.88454962301387
 20
31.47381694046696
 30
0.0
 11
60.88454962301387
 21
22.47381694046686
 31
0.0
  0
LINE
  5
6F3
330
1F
100
AcDbEntity
  8
0
100
AcDbLine
 10
37.18454962301496
 20
120.5286562737899
 30
0.0
 11
55.18454962301792
 21
121.0000028620348
 31
0.0
  0
LINE
  5
6F4
330
1F
100
AcDbEntity
  8
0
100
AcDbLine
 10
47.98454962301582
 20
96.42823815615299
 30
0.0
 11
47.98454962301582
 21
92.57176756791812
 31
0.0
  0
LINE
  5
6F5
330
1F
100
AcDbEntity
  8
0
100
AcDbLine
 10
50.18454962301484
 20
94.88907872734699
 30
0.0
 11
50.18454962301484
 21
94.11092699672414
 31
0.0
  0
LINE
  5
6F6
330
1F
100
AcDbEntity
  8
0
100
AcDbLine
 10
37.3309962324215
 20
79.35355625262913
 30
0.0
 11
41.18454962301496
 21
81.00000286203595
 31
0.0
  0
LINE
  5
6F7
330
1F
100
AcDbEntity
  8
0
100
AcDbLine
 10
38.1316824818748
 20
64.05014518985706
 30
0.0
 11
48.76385033472593
 21
64.61302466441974
 31
0.0
  0
LINE
  5
6F8
330
1F
100
AcDbEntity
  8
0
100
AcDbLine
 10
38.1316824818748
 20
61.94986053421398
 30
0.0
 11
48.76385033472593
 21
61.38698105965108
 31
0.0
  0
LINE
  5
6F9
330
1F
100
AcDbEntity
  8
0
100
AcDbLine
 10
38.1316824818748
 20
57.05014518985706
 30
0.0
 11
48.76385033472593
 21
57.61302466441993
 31
0.0
  0
LINE
  5
6FA
330
1F
100
AcDbEntity
  8
0
100
AcDbLine
 10
38.1316824818748
 20
92.05014518985706
 30
0.0
 11
48.76385033472593
 21
92.61302466441977
 31
0.0
  0
LINE
  5
6FB
330
1F
100
AcDbEntity
  8
0
100
AcDbLine
 10
38.1316824818748
 20
89.94986053421405
 30
0.0
 11
48.76385033472593
 21
89.386981059651
 31
0.0
  0
LINE
  5
6FC
330
1F
100
AcDbEntity
  8
0
100
AcDbLine
 10
38.1316824818748
 20
85.05014518985706
 30
0.0
 11
48.76385033472593
 21
85.61302466441992
 31
0.0
  0
LINE
  5
6FD
330
1F
100
AcDbEntity
  8
0
100
AcDbLine
 10
38.1316824818748
 20
82.949860534214
 30
0.0
 11
48.76385033472593
 21
82.386981059651
 31
0.0
  0
LINE
  5
6FE
330
1F
100
AcDbEntity
  8
0
100
AcDbLine
 10
38.1316824818748
 20
78.05014518985706
 30
0.0
 11
48.76385033472593
 21
78.61302466441992
 31
0.0
  0
LINE
  5
6FF
330
1F
100
AcDbEntity
  8
0
100
AcDbLine
 10
38.1316824818748
 20
75.949860534214
 30
0.0
 11
48.76385033472593
 21
75.386981059651
 31
0.0
  0
LINE
  5
700
330
1F
100
AcDbEntity
  8
0
100
AcDbLine
 10
38.1316824818748
 20
71.05014518985702
 30
0.0
 11
48.76385033472593
 21
71.61302466441973
 31
0.0
  0
LINE
  5
701
330
1F
100
AcDbEntity
  8
0
100
AcDbLine
 10
38.1316824818748
 20
68.94986053421405
 30
0.0
 11
48.76385033472593
 21
68.38698105965102
 31
0.0
  0
LINE
  5
702
330
1F
100
AcDbEntity
  8
0
100
AcDbLine
 10
37.18454962301496
 20
63.05154363498797
 30
0.0
 11
37.18454962301496
 21
62.94846208908291
 31
0.0
  0
ARC
  5
703
330
1F
100
AcDbEntity
  8
0
100
AcDbCircle
 10
38.18454962301484
 20
63.05154363498797
 30
0.0
 40
1.0
100
AcDbArc
 50
93.03047684586108
 51
180.0
  0
ARC
  5
704
330
1F
100
AcDbEntity
  8
0
100
AcDbCircle
 10
38.18454962301484
 20
62.94846208908291
 30
0.0
 40
1.0
100
AcDbArc
 50
180.0
 51
266.9695231541388
  0
LINE
  5
705
330
1F
100
AcDbEntity
  8
0
100
AcDbLine
 10
37.18454962301496
 20
70.05154363498792
 30
0.0
 11
37.18454962301496
 21
69.94846208908291
 31
0.0
  0
ARC
  5
706
330
1F
100
AcDbEntity
  8
0
100
AcDbCircle
 10
38.18454962301484
 20
70.05154363498792
 30
0.0
 40
1.0
100
AcDbArc
 50
93.03047684586108
 51
180.0
  0
ARC
  5
707
330
1F
100
AcDbEntity
  8
0
100
AcDbCircle
 10
38.18454962301484
 20
69.94846208908291
 30
0.0
 40
1.0
100
AcDbArc
 50
180.0
 51
266.9695231541388
  0
ARC
  5
708
330
1F
100
AcDbEntity
  8
0
100
AcDbCircle
 10
37.68454962301484
 20
79.00000286203596
 30
0.0
 40
0.5
100
AcDbArc
 50
134.9999999999723
 51
180.0
  0
LINE
  5
709
330
1F
100
AcDbEntity
  8
0
100
AcDbLine
 10
37.18454962301496
 20
77.05154363498798
 30
0.0
 11
37.18454962301496
 21
76.94846208908291
 31
0.0
  0
ARC
  5
70A
330
1F
100
AcDbEntity
  8
0
100
AcDbCircle
 10
38.18454962301484
 20
77.05154363498798
 30
0.0
 40
1.0
100
AcDbArc
 50
93.03047684586108
 51
180.0
  0
ARC
  5
70B
330
1F
100
AcDbEntity
  8
0
100
AcDbCircle
 10
38.18454962301484
 20
76.94846208908291
 30
0.0
 40
1.0
100
AcDbArc
 50
180.0
 51
266.9695231541388
  0
LINE
  5
70C
330
1F
100
AcDbEntity
  8
0
100
AcDbLine
 10
37.18454962301496
 20
84.05154363498798
 30
0.0
 11
37.18454962301496
 21
83.9484620890829
 31
0.0
  0
ARC
  5
70D
330
1F
100
AcDbEntity
  8
0
100
AcDbCircle
 10
38.18454962301484
 20
84.05154363498798
 30
0.0
 40
1.0
100
AcDbArc
 50
93.03047684586108
 51
180.0
  0
ARC
  5
70E
330
1F
100
AcDbEntity
  8
0
100
AcDbCircle
 10
38.18454962301484
 20
83.9484620890829
 30
0.0
 40
1.0
100
AcDbArc
 50
180.0
 51
266.9695231541388
  0
LINE
  5
70F
330
1F
100
AcDbEntity
  8
0
100
AcDbLine
 10
37.18454962301496
 20
91.05154363498792
 30
0.0
 11
37.18454962301496
 21
90.94846208908291
 31
0.0
  0
ARC
  5
710
330
1F
100
AcDbEntity
  8
0
100
AcDbCircle
 10
38.18454962301484
 20
91.05154363498792
 30
0.0
 40
1.0
100
AcDbArc
 50
93.03047684586108
 51
180.0
  0
ARC
  5
711
330
1F
100
AcDbEntity
  8
0
100
AcDbCircle
 10
38.18454962301484
 20
90.94846208908291
 30
0.0
 40
1.0
100
AcDbArc
 50
180.0
 51
266.9695231541388
  0
LINE
  5
712
330
1F
100
AcDbEntity
  8
0
  6
CONTINUOUS
100
AcDbLine
 10
41.18454962301496
 20
75.78823815615362
 30
0.0
 11
41.18454962301496
 21
71.21176756791744
 31
0.0
  0
LINE
  5
713
330
1F
100
AcDbEntity
  8
0
  6
CONTINUOUS
100
AcDbLine
 10
43.18454962301482
 20
75.6823558032123
 30
0.0
 11
43.18454962301482
 21
71.31764992085857
 31
0.0
  0
LINE
  5
714
330
1F
100
AcDbEntity
  8
0
100
AcDbLine
 10
39.18454962301484
 20
71.10588521497618
 30
0.0
 11
39.18454962301484
 21
75.89412050909466
 31
0.0
  0
LINE
  5
715
330
1F
100
AcDbEntity
  8
0
100
AcDbLine
 10
39.18454962301519
 20
75.89412050909466
 30
0.0
 11
39.18454962301519
 21
71.10588521497618
 31
0.0
  0
ARC
  5
716
330
1F
100
AcDbEntity
  8
0
100
AcDbCircle
 10
48.68454962301496
 20
73.889078727347
 30
0.0
 40
1.5
100
AcDbArc
 50
0.0
 51
86.96952315413239
  0
LINE
  5
717
330
1F
100
AcDbEntity
  8
0
  6
CONTINUOUS
100
AcDbLine
 10
41.18454962301496
 20
61.78823815615363
 30
0.0
 11
41.18454962301496
 21
57.21176756791743
 31
0.0
  0
LINE
  5
718
330
1F
100
AcDbEntity
  8
0
  6
CONTINUOUS
100
AcDbLine
 10
41.18454962301496
 20
68.78823815615368
 30
0.0
 11
41.18454962301496
 21
64.21176756791743
 31
0.0
  0
LINE
  5
719
330
1F
100
AcDbEntity
  8
0
  6
CONTINUOUS
100
AcDbLine
 10
43.18454962301482
 20
68.68235580321243
 30
0.0
 11
43.18454962301482
 21
64.31764992085851
 31
0.0
  0
LINE
  5
71A
330
1F
100
AcDbEntity
  8
0
100
AcDbLine
 10
39.18454962301484
 20
61.89412050909481
 30
0.0
 11
39.18454962301484
 21
57.10588521497617
 31
0.0
  0
LINE
  5
71B
330
1F
100
AcDbEntity
  8
0
100
AcDbLine
 10
39.18454962301484
 20
64.10588521497619
 30
0.0
 11
39.18454962301484
 21
68.89412050909465
 31
0.0
  0
LINE
  5
71C
330
1F
100
AcDbEntity
  8
0
  6
CONTINUOUS
100
AcDbLine
 10
43.18454962301482
 20
61.68235580321232
 30
0.0
 11
43.18454962301482
 21
57.31764992085849
 31
0.0
  0
LINE
  5
71D
330
1F
100
AcDbEntity
  8
0
100
AcDbLine
 10
39.18454962301484
 20
57.10588521497617
 30
0.0
 11
39.18454962301484
 21
61.89412050909465
 31
0.0
  0
LINE
  5
71E
330
1F
100
AcDbEntity
  8
0
100
AcDbLine
 10
39.18454962301519
 20
68.89412050909465
 30
0.0
 11
39.18454962301484
 21
64.10588521497619
 31
0.0
  0
LINE
  5
71F
330
1F
100
AcDbEntity
  8
0
100
AcDbLine
 10
50.18454962301484
 20
59.88907872734706
 30
0.0
 11
50.18454962301484
 21
59.110926996724
 31
0.0
  0
ARC
  5
720
330
1F
100
AcDbEntity
  8
0
100
AcDbCircle
 10
48.68454962301496
 20
59.88907872734706
 30
0.0
 40
1.5
100
AcDbArc
 50
0.0
 51
86.96952315413239
  0
ARC
  5
721
330
1F
100
AcDbEntity
  8
0
100
AcDbCircle
 10
48.68454962301496
 20
59.110926996724
 30
0.0
 40
1.5
100
AcDbArc
 50
273.030476845861
 51
0.0
  0
LINE
  5
722
330
1F
100
AcDbEntity
  8
0
100
AcDbLine
 10
50.18454962301484
 20
66.88907872734699
 30
0.0
 11
50.18454962301484
 21
66.1109269967241
 31
0.0
  0
ARC
  5
723
330
1F
100
AcDbEntity
  8
0
100
AcDbCircle
 10
48.68454962301496
 20
66.88907872734699
 30
0.0
 40
1.5
100
AcDbArc
 50
0.0
 51
86.96952315413239
  0
LINE
  5
724
330
1F
100
AcDbEntity
  8
0
100
AcDbLine
 10
50.18454962301484
 20
73.889078727347
 30
0.0
 11
50.18454962301484
 21
73.11092699672411
 31
0.0
  0
ARC
  5
725
330
1F
100
AcDbEntity
  8
0
100
AcDbCircle
 10
48.68454962301496
 20
73.11092699672411
 30
0.0
 40
1.5
100
AcDbArc
 50
273.030476845861
 51
0.0
  0
ARC
  5
726
330
1F
100
AcDbEntity
  8
0
100
AcDbCircle
 10
48.68454962301496
 20
66.1109269967241
 30
0.0
 40
1.5
100
AcDbArc
 50
273.030476845861
 51
0.0
  0
LWPOLYLINE
  5
727
330
1F
100
AcDbEntity
  8
0
100
AcDbPolyline
 90
        3
 70
     0
 43
0.0
 10
50.05450279800153
 20
86.50000286203596
 10
43.18454962301482
 20
86.50000286203596
 10
43.18454962301482
 20
85.31764992085857
  0
LINE
  5
728
330
1F
100
AcDbEntity
  8
0
  6
CONTINUOUS
100
AcDbLine
 10
41.18454962301496
 20
79.00000286203596
 30
0.0
 11
41.18454962301496
 21
78.21176756791743
 31
0.0
  0
LINE
  5
729
330
1F
100
AcDbEntity
  8
0
  6
CONTINUOUS
100
AcDbLine
 10
43.18454962301482
 20
82.68235580321229
 30
0.0
 11
43.18454962301482
 21
78.31764992085857
 31
0.0
  0
LINE
  5
72A
330
1F
100
AcDbEntity
  8
0
100
AcDbLine
 10
39.18454962301484
 20
78.10588521497618
 30
0.0
 11
39.18454962301484
 21
78.14549459783177
 31
0.0
  0
LINE
  5
72B
330
1F
100
AcDbEntity
  8
0
100
AcDbLine
 10
41.18454962301496
 20
82.78823815615362
 30
0.0
 11
41.18454962301496
 21
81.00000286203595
 31
0.0
  0
LINE
  5
72C
330
1F
100
AcDbEntity
  8
0
100
AcDbLine
 10
43.18454962301482
 20
85.31764992085852
 30
0.0
 11
43.18454962301482
 21
86.00000286203595
 31
0.0
  0
LINE
  5
72D
330
1F
100
AcDbEntity
  8
0
100
AcDbLine
 10
39.1845496230153
 20
78.14549459783205
 30
0.0
 11
39.18454962301519
 21
78.10588521497618
 31
0.0
  0
LINE
  5
72E
330
1F
100
AcDbEntity
  8
0
100
AcDbLine
 10
39.1845496230153
 20
78.14549459783205
 30
0.0
 11
41.18454962301496
 21
79.00000286203596
 31
0.0
  0
ARC
  5
72F
330
1F
100
AcDbEntity
  8
0
100
AcDbCircle
 10
40.68454962301507
 20
81.00000286203595
 30
0.0
 40
0.5
100
AcDbArc
 50
0.0
 51
90.0
  0
ARC
  5
730
330
1F
100
AcDbEntity
  8
0
100
AcDbCircle
 10
39.68454962301517
 20
81.00000286203595
 30
0.0
 40
0.5
100
AcDbArc
 50
90.0
 51
180.0
  0
LINE
  5
731
330
1F
100
AcDbEntity
  8
0
100
AcDbLine
 10
39.18454962301519
 20
81.00000286203595
 30
0.0
 11
39.1845496230153
 21
80.14549459783205
 31
0.0
  0
LINE
  5
732
330
1F
100
AcDbEntity
  8
0
100
AcDbLine
 10
40.68454962301507
 20
81.50000286203596
 30
0.0
 11
39.68454962301517
 21
81.50000286203596
 31
0.0
  0
ARC
  5
733
330
1F
100
AcDbEntity
  8
0
100
AcDbCircle
 10
41.68454962301484
 20
79.00000286203596
 30
0.0
 40
0.5
100
AcDbArc
 50
180.0
 51
270.0
  0
ARC
  5
734
330
1F
100
AcDbEntity
  8
0
100
AcDbCircle
 10
42.68454962301517
 20
79.00000286203596
 30
0.0
 40
0.5
100
AcDbArc
 50
270.0
 51
0.0
  0
ARC
  5
735
330
1F
100
AcDbEntity
  8
0
100
AcDbCircle
 10
42.68454962301484
 20
86.00000286203595
 30
0.0
 40
0.5
100
AcDbArc
 50
0.0
 51
90.0
  0
ARC
  5
736
330
1F
100
AcDbEntity
  8
0
100
AcDbCircle
 10
41.68454962301484
 20
86.00000286203595
 30
0.0
 40
0.5
100
AcDbArc
 50
90.0
 51
180.0
  0
LINE
  5
737
330
1F
100
AcDbEntity
  8
0
100
AcDbLine
 10
41.18454962301496
 20
86.00000286203595
 30
0.0
 11
41.18454962301496
 21
85.21176756791744
 31
0.0
  0
LINE
  5
738
330
1F
100
AcDbEntity
  8
0
100
AcDbLine
 10
42.68454962301484
 20
86.50000286203596
 30
0.0
 11
41.68454962301484
 21
86.50000286203596
 31
0.0
  0
LINE
  5
739
330
1F
100
AcDbEntity
  8
0
100
AcDbLine
 10
43.18454962301518
 20
79.00000286203596
 30
0.0
 11
43.18454962301482
 21
82.68235580321229
 31
0.0
  0
LINE
  5
73A
330
1F
100
AcDbEntity
  8
0
100
AcDbLine
 10
41.68454962301484
 20
78.50000286203595
 30
0.0
 11
42.68454962301517
 21
78.50000286203595
 31
0.0
  0
LINE
  5
73B
330
1F
100
AcDbEntity
  8
0
  6
CONTINUOUS
100
AcDbLine
 10
43.18454962301482
 20
86.50000286203596
 30
0.0
 11
43.18454962301482
 21
85.31764992085852
 31
0.0
  0
LINE
  5
73C
330
1F
100
AcDbEntity
  8
0
100
AcDbLine
 10
50.18454962301484
 20
80.88907872734706
 30
0.0
 11
50.18454962301484
 21
80.11092699672401
 31
0.0
  0
ARC
  5
73D
330
1F
100
AcDbEntity
  8
0
100
AcDbCircle
 10
48.68454962301496
 20
80.11092699672401
 30
0.0
 40
1.5
100
AcDbArc
 50
273.030476845861
 51
0.0
  0
LINE
  5
73E
330
1F
100
AcDbEntity
  8
0
100
AcDbLine
 10
49.18454962301495
 20
86.50000286203596
 30
0.0
 11
49.18454962301495
 21
89.30329228971986
 31
0.0
  0
LINE
  5
73F
330
1F
100
AcDbEntity
  8
0
100
AcDbLine
 10
47.98454962301582
 20
89.04896533635694
 30
0.0
 11
49.18454962301495
 21
89.01754223047413
 31
0.0
  0
LINE
  5
740
330
1F
100
AcDbEntity
  8
0
100
AcDbLine
 10
50.18454962301484
 20
87.889078727347
 30
0.0
 11
50.18454962301484
 21
87.11092699672411
 31
0.0
  0
ARC
  5
741
330
1F
100
AcDbEntity
  8
0
100
AcDbCircle
 10
48.68454962301496
 20
87.11092699672411
 30
0.0
 40
1.5
100
AcDbArc
 50
273.030476845861
 51
0.0
  0
ARC
  5
742
330
1F
100
AcDbEntity
  8
0
100
AcDbCircle
 10
48.68454962301496
 20
94.11092699672414
 30
0.0
 40
1.5
100
AcDbArc
 50
273.030476845861
 51
0.0
  0
LINE
  5
743
330
1F
100
AcDbEntity
  8
0
100
AcDbLine
 10
47.98454962301582
 20
89.42823815615311
 30
0.0
 11
47.98454962301582
 21
89.04896533635694
 31
0.0
  0
ARC
  5
744
330
1F
100
AcDbEntity
  8
0
100
AcDbCircle
 10
48.68454962301496
 20
87.889078727347
 30
0.0
 40
1.5
100
AcDbArc
 50
0.0
 51
86.96952315413239
  0
ARC
  5
745
330
1F
100
AcDbEntity
  8
0
100
AcDbCircle
 10
48.68454962301496
 20
80.88907872734706
 30
0.0
 40
1.5
100
AcDbArc
 50
0.0
 51
86.96952315413239
  0
LINE
  5
746
330
1F
100
AcDbEntity
  8
0
100
AcDbLine
 10
38.1316824818748
 20
96.94986053421406
 30
0.0
 11
48.76385033472593
 21
96.38698105965104
 31
0.0
  0
LINE
  5
747
330
1F
100
AcDbEntity
  8
0
100
AcDbLine
 10
37.65838164489366
 20
104.3251703780158
 30
0.0
 11
48.76305355737986
 21
103.7431991834157
 31
0.0
  0
LINE
  5
748
330
1F
100
AcDbEntity
  8
0
100
AcDbLine
 10
38.1316824818748
 20
99.05014518985709
 30
0.0
 11
48.76385033472593
 21
99.61302466441992
 31
0.0
  0
LINE
  5
749
330
1F
100
AcDbEntity
  8
0
100
AcDbLine
 10
37.18454962301496
 20
104.8244851453927
 30
0.0
 11
37.18454962301496
 21
120.5286562737899
 31
0.0
  0
LINE
  5
74A
330
1F
100
AcDbEntity
  8
0
100
AcDbLine
 10
37.18454962301496
 20
98.05154363498798
 30
0.0
 11
37.18454962301496
 21
97.94846208908293
 31
0.0
  0
POINT
  5
74B
330
1F
100
AcDbEntity
  8
0
100
AcDbPoint
 10
37.18454962301496
 20
104.3500028620349
 30
0.0
  0
ARC
  5
74C
330
1F
100
AcDbEntity
  8
0
100
AcDbCircle
 10
37.68454962301484
 20
104.8244851453927
 30
0.0
 40
0.5
100
AcDbArc
 50
180.0
 51
266.9999999999943
  0
ARC
  5
74D
330
1F
100
AcDbEntity
  8
0
100
AcDbCircle
 10
38.18454962301484
 20
98.05154363498798
 30
0.0
 40
1.0
100
AcDbArc
 50
93.03047684586108
 51
180.0
  0
ARC
  5
74E
330
1F
100
AcDbEntity
  8
0
100
AcDbCircle
 10
38.18454962301484
 20
97.94846208908293
 30
0.0
 40
1.0
100
AcDbArc
 50
180.0
 51
266.9695231541388
  0
ARC
  5
74F
330
1F
100
AcDbEntity
  8
0
100
AcDbCircle
 10
48.68454962301496
 20
94.88907872734699
 30
0.0
 40
1.5
100
AcDbArc
 50
0.0
 51
86.96952315413239
  0
LINE
  5
750
330
1F
100
AcDbEntity
  8
0
100
AcDbLine
 10
47.98454962301582
 20
103.7839988457789
 30
0.0
 11
47.98454962301582
 21
99.56600687829187
 31
0.0
  0
LINE
  5
751
330
1F
100
AcDbEntity
  8
0
100
AcDbLine
 10
50.18454962301484
 20
102.2452548812839
 30
0.0
 11
50.18454962301484
 21
101.1109269967239
 31
0.0
  0
ARC
  5
752
330
1F
100
AcDbEntity
  8
0
100
AcDbCircle
 10
48.68454962301496
 20
102.2452548812839
 30
0.0
 40
1.5
100
AcDbArc
 50
0.0
 51
87.00000000000091
  0
ARC
  5
753
330
1F
100
AcDbEntity
  8
0
100
AcDbCircle
 10
48.68454962301496
 20
101.1109269967239
 30
0.0
 40
1.5
100
AcDbArc
 50
273.030476845861
 51
0.0
  0
LINE
  5
755
330
1F
100
AcDbEntity
  8
0
100
AcDbLine
 10
56.18454962301496
 20
110.4710219199098
 30
0.0
 11
56.18454962301496
 21
83.00000286203596
 31
0.0
  0
LINE
  5
756
330
1F
100
AcDbEntity
  8
0
100
AcDbLine
 10
57.18454962301496
 20
82.97381694046789
 30
0.0
 11
57.18454962301496
 21
109.6057363671648
 31
0.0
  0
LINE
  5
763
330
1F
100
AcDbEntity
  8
0
100
AcDbLine
 10
59.28454962301486
 20
81.00000286203595
 30
0.0
 11
59.28454962301486
 21
73.00000286203595
 31
0.0
  0
LINE
  5
764
330
1F
100
AcDbEntity
  8
0
100
AcDbLine
 10
59.884549623015
 20
81.00000286203595
 30
0.0
 11
59.884549623015
 21
73.00000286203595
 31
0.0
  0
LINE
  5
765
330
1F
100
AcDbEntity
  8
0
100
AcDbLine
 10
60.68454962301497
 20
81.00000286203595
 30
0.0
 11
60.68454962301497
 21
73.00000286203595
 31
0.0
  0
LINE
  5
766
330
1F
100
AcDbEntity
  8
0
100
AcDbLine
 10
59.18454962301392
 20
81.47381694046698
 30
0.0
 11
59.18454962301392
 21
72.47381694046686
 31
0.0
  0
LINE
  5
767
330
1F
100
AcDbEntity
  8
0
100
AcDbLine
 10
60.88454962301387
 20
81.47381694046698
 30
0.0
 11
60.88454962301387
 21
72.47381694046686
 31
0.0
  0
LINE
  5
768
330
1F
100
AcDbEntity
  8
0
100
AcDbLine
 10
54.884549623015
 20
83.00000286203596
 30
0.0
 11
54.884549623015
 21
71.10000286203495
 31
0.0
  0
LINE
  5
769
330
1F
100
AcDbEntity
  8
0
100
AcDbLine
 10
55.68454962301483
 20
83.00000286203596
 30
0.0
 11
55.68454962301483
 21
71.00000286203595
 31
0.0
  0
LINE
  5
76A
330
1F
100
AcDbEntity
  8
0
100
AcDbLine
 10
56.18454962301496
 20
71.00000286203488
 30
0.0
 11
56.18454962301496
 21
83.00000286203596
 31
0.0
  0
LINE
  5
76B
330
1F
100
AcDbEntity
  8
0
100
AcDbLine
 10
56.18454962301496
 20
71.00000286203595
 30
0.0
 11
54.884549623015
 21
71.00000286203595
 31
0.0
  0
LINE
  5
76C
330
1F
100
AcDbEntity
  8
0
100
AcDbLine
 10
57.18454962301496
 20
70.97381694046686
 30
0.0
 11
56.18454962301496
 21
70.97381694046686
 31
0.0
  0
LINE
  5
76D
330
1F
100
AcDbEntity
  8
0
100
AcDbLine
 10
60.68454962301497
 20
73.00000286203595
 30
0.0
 11
59.18454962301392
 21
73.00000286203595
 31
0.0
  0
LINE
  5
76E
330
1F
100
AcDbEntity
  8
0
100
AcDbLine
 10
60.88454962301387
 20
72.47381694046686
 30
0.0
 11
59.18454962301392
 21
72.47381694046686
 31
0.0
  0
LINE
  5
76F
330
1F
100
AcDbEntity
  8
0
100
AcDbLine
 10
60.68454962301497
 20
81.00000286203595
 30
0.0
 11
59.18454962301392
 21
81.00000286203595
 31
0.0
  0
LINE
  5
770
330
1F
100
AcDbEntity
  8
0
100
AcDbLine
 10
56.18454962301496
 20
83.00000286203596
 30
0.0
 11
54.884549623015
 21
83.00000286203596
 31
0.0
  0
LINE
  5
771
330
1F
100
AcDbEntity
  8
0
100
AcDbLine
 10
60.88454962301387
 20
81.47381694046698
 30
0.0
 11
59.18454962301392
 21
81.47381694046698
 31
0.0
  0
LINE
  5
772
330
1F
100
AcDbEntity
  8
0
100
AcDbLine
 10
57.18454962301496
 20
82.97381694046789
 30
0.0
 11
56.18454962301496
 21
82.97381694046789
 31
0.0
  0
LINE
  5
77B
330
1F
100
AcDbEntity
  8
0
100
AcDbLine
 10
65.28454962301474
 20
121.9738169404668
 30
0.0
 11
73.88454962301409
 21
121.9738169404668
 31
0.0
  0
LINE
  5
77C
330
1F
100
AcDbEntity
  8
0
100
AcDbLine
 10
66.38454962301397
 20
126.2738169404669
 30
0.0
 11
72.28454962301396
 21
126.2738169404669
 31
0.0
  0
LINE
  5
77D
330
1F
100
AcDbEntity
  8
0
100
AcDbLine
 10
66.78454962301384
 20
127.573816940467
 30
0.0
 11
76.12954962301398
 21
127.573816940467
 31
0.0
  0
LINE
  5
77E
330
1F
100
AcDbEntity
  8
0
100
AcDbLine
 10
59.18454962301485
 20
111.0000028620359
 30
0.0
 11
59.18454962301485
 21
120.8952591757589
 31
0.0
  0
LINE
  5
77F
330
1F
100
AcDbEntity
  8
0
100
AcDbLine
 10
60.18454962301497
 20
120.9738169404668
 30
0.0
 11
60.18454962301497
 21
110.1347173092898
 31
0.0
  0
LINE
  5
780
330
1F
100
AcDbEntity
  8
0
100
AcDbLine
 10
59.18454962301485
 20
120.4738169404668
 30
0.0
 11
59.18454962301485
 21
110.9738169404677
 31
0.0
  0
LINE
  5
781
330
1F
100
AcDbEntity
  8
0
100
AcDbLine
 10
59.18454962301485
 20
111.0000028620359
 30
0.0
 11
56.18454962301496
 21
110.4710219199098
 31
0.0
  0
LINE
  5
782
330
1F
100
AcDbEntity
  8
0
100
AcDbLine
 10
60.18454962301497
 20
110.1347173092898
 30
0.0
 11
57.18454962301496
 21
109.6057363671648
 31
0.0
  0
LINE
  5
783
330
1F
100
AcDbEntity
  8
0
100
AcDbLine
 10
56.18454962301496
 20
110.4448359983416
 30
0.0
 11
59.18454962301485
 21
110.9738169404677
 31
0.0
  0
LINE
  5
784
330
1F
100
AcDbEntity
  8
0
100
AcDbLine
 10
55.18454962301484
 20
121.0000028620356
 30
0.0
 11
59.18454962301485
 21
120.8952591757589
 31
0.0
  0
LINE
  5
785
330
1F
100
AcDbEntity
  8
0
100
AcDbLine
 10
59.18454962301485
 20
120.4738169404668
 30
0.0
 11
60.18454962301497
 21
120.4738169404668
 31
0.0
  0
LINE
  5
786
330
1F
100
AcDbEntity
  8
0
100
AcDbLine
 10
57.18454962301496
 20
120.9738169404668
 30
0.0
 11
57.18454962301496
 21
120.947631018898
 31
0.0
  0
LINE
  5
787
330
1F
100
AcDbEntity
  8
0
100
AcDbLine
 10
57.18454962301496
 20
120.9738169404668
 30
0.0
 11
57.18454962301496
 21
120.9476310188974
 31
0.0
  0
LINE
  5
788
330
1F
100
AcDbEntity
  8
0
100
AcDbLine
 10
65.28454962301474
 20
120.9738169404668
 30
0.0
 11
65.28454962301474
 21
121.9738169404668
 31
0.0
  0
LINE
  5
789
330
1F
100
AcDbEntity
  8
0
100
AcDbLine
 10
66.38454962301397
 20
121.9738169404668
 30
0.0
 11
66.38454962301397
 21
126.2738169404669
 31
0.0
  0
LINE
  5
78A
330
1F
100
AcDbEntity
  8
0
100
AcDbLine
 10
66.78454962301384
 20
126.2738169404667
 30
0.0
 11
66.78454962301384
 21
127.573816940467
 31
0.0
  0
LINE
  5
78B
330
1F
100
AcDbEntity
  8
0
100
AcDbLine
 10
76.38454962301501
 20
107.4738169404668
 30
0.0
 11
76.38454962301501
 21
115.4738169404668
 31
0.0
  0
LINE
  5
78C
330
1F
100
AcDbEntity
  8
0
100
AcDbLine
 10
79.384549623015
 20
105.4738169404668
 30
0.0
 11
79.384549623015
 21
117.4738169404668
 31
0.0
  0
LINE
  5
78D
330
1F
100
AcDbEntity
  8
0
100
AcDbLine
 10
79.384549623015
 20
105.4738169404668
 30
0.0
 11
71.18454962301484
 21
105.4738169404668
 31
0.0
  0
LINE
  5
78E
330
1F
100
AcDbEntity
  8
0
100
AcDbLine
 10
74.384549623015
 20
109.4738169404668
 30
0.0
 11
74.384549623015
 21
107.4738169404668
 31
0.0
  0
LINE
  5
78F
330
1F
100
AcDbEntity
  8
0
100
AcDbLine
 10
74.384549623015
 20
107.4738169404668
 30
0.0
 11
76.38454962301501
 21
107.4738169404668
 31
0.0
  0
LINE
  5
790
330
1F
100
AcDbEntity
  8
0
100
AcDbLine
 10
71.18454962301484
 20
109.4738169404668
 30
0.0
 11
71.18454962301484
 21
105.4738169404668
 31
0.0
  0
LINE
  5
791
330
1F
100
AcDbEntity
  8
0
100
AcDbLine
 10
71.18454962301484
 20
109.4738169404668
 30
0.0
 11
74.384549623015
 21
109.4738169404668
 31
0.0
  0
LINE
  5
793
330
1F
100
AcDbEntity
  8
0
100
AcDbLine
 10
71.18454962301484
 20
117.4738169404668
 30
0.0
 11
79.384549623015
 21
117.4738169404668
 31
0.0
  0
LINE
  5
794
330
1F
100
AcDbEntity
  8
0
100
AcDbLine
 10
73.88454962301409
 20
121.9738169404668
 30
0.0
 11
73.88454962301409
 21
120.9738169404668
 31
0.0
  0
LINE
  5
795
330
1F
100
AcDbEntity
  8
0
100
AcDbLine
 10
72.28454962301396
 20
126.2738169404669
 30
0.0
 11
72.28454962301396
 21
121.9738169404668
 31
0.0
  0
LINE
  5
796
330
1F
100
AcDbEntity
  8
0
100
AcDbLine
 10
76.12954962301398
 20
127.573816940467
 30
0.0
 11
76.12954962301398
 21
120.9738169404668
 31
0.0
  0
LINE
  5
797
330
1F
100
AcDbEntity
  8
0
100
AcDbLine
 10
74.384549623015
 20
113.4738169404668
 30
0.0
 11
74.384549623015
 21
115.4738169404668
 31
0.0
  0
LINE
  5
798
330
1F
100
AcDbEntity
  8
0
100
AcDbLine
 10
74.384549623015
 20
115.4738169404668
 30
0.0
 11
76.38454962301501
 21
115.4738169404668
 31
0.0
  0
LINE
  5
799
330
1F
100
AcDbEntity
  8
0
100
AcDbLine
 10
71.18454962301484
 20
113.4738169404668
 30
0.0
 11
71.18454962301484
 21
117.4738169404668
 31
0.0
  0
LINE
  5
79A
330
1F
100
AcDbEntity
  8
0
100
AcDbLine
 10
71.18454962301484
 20
113.4738169404668
 30
0.0
 11
74.384549623015
 21
113.4738169404668
 31
0.0
  0
LINE
  5
79E
330
1F
100
AcDbEntity
  8
0
100
AcDbLine
 10
108.1845496230149
 20
21.97381694046686
 30
0.0
 11
108.1845496230149
 21
103.9738169404668
 31
0.0
  0
LINE
  5
79F
330
1F
100
AcDbEntity
  8
0
100
AcDbLine
 10
109.1845496230147
 20
3.585963097298986
 30
0.0
 11
109.1845496230147
 21
120.9738169404668
 31
0.0
  0
LINE
  5
7A0
330
1F
100
AcDbEntity
  8
0
100
AcDbLine
 10
109.1845496230147
 20
0.0000028620359558
 30
0.0
 11
109.1845496230147
 21
3.585963097298986
 31
0.0
  0
LINE
  5
7A8
330
1F
100
AcDbEntity
  8
0
100
AcDbLine
 10
106.1845496230149
 20
33.97381694046686
 30
0.0
 11
106.1845496230149
 21
35.97381694046686
 31
0.0
  0
LINE
  5
7A9
330
1F
100
AcDbEntity
  8
0
100
AcDbLine
 10
107.1845496230149
 20
33.97381694046686
 30
0.0
 11
107.1845496230149
 21
35.97381694046686
 31
0.0
  0
LINE
  5
7AA
330
1F
100
AcDbEntity
  8
0
100
AcDbLine
 10
106.1845496230149
 20
26.97381694046686
 30
0.0
 11
106.1845496230149
 21
28.97381694046686
 31
0.0
  0
LINE
  5
7AB
330
1F
100
AcDbEntity
  8
0
100
AcDbLine
 10
107.1845496230149
 20
26.97381694046686
 30
0.0
 11
107.1845496230149
 21
28.97381694046686
 31
0.0
  0
LINE
  5
7AD
330
1F
100
AcDbEntity
  8
0
100
AcDbLine
 10
106.1845496230149
 20
40.97381694046686
 30
0.0
 11
106.1845496230149
 21
42.97381694046686
 31
0.0
  0
LINE
  5
7AE
330
1F
100
AcDbEntity
  8
0
100
AcDbLine
 10
107.1845496230149
 20
40.97381694046686
 30
0.0
 11
107.1845496230149
 21
42.97381694046686
 31
0.0
  0
LINE
  5
7D6
330
1F
100
AcDbEntity
  8
0
100
AcDbLine
 10
57.18454962301496
 20
120.9738169404668
 30
0.0
 11
109.1845496230147
 21
120.9738169404668
 31
0.0
  0
LINE
  5
7D7
330
1F
100
AcDbEntity
  8
0
100
AcDbLine
 10
92.33454962301479
 20
120.9738169404668
 30
0.0
 11
92.33454962301479
 21
124.3738169404668
 31
0.0
  0
LINE
  5
7D8
330
1F
100
AcDbEntity
  8
0
100
AcDbLine
 10
92.33454962301479
 20
124.3738169404668
 30
0.0
 11
98.63454962301501
 21
124.3738169404668
 31
0.0
  0
LINE
  5
7D9
330
1F
100
AcDbEntity
  8
0
100
AcDbLine
 10
98.63454962301501
 20
124.3738169404668
 30
0.0
 11
98.63454962301501
 21
120.9738169404668
 31
0.0
  0
LINE
  5
7DA
330
1F
100
AcDbEntity
  8
0
  6
BYBLOCK
100
AcDbLine
 10
82.28469824811156
 20
308.2989522451674
 30
0.0
 11
97.18462393556379
 21
308.2989522451691
 31
0.0
  0
LINE
  5
7DB
330
1F
100
AcDbEntity
  8
0
  6
BYBLOCK
100
AcDbLine
 10
97.18462393556558
 20
275.4989486451699
 30
0.0
 11
97.18462393556379
 21
308.2989522451691
 31
0.0
  0
LINE
  5
7DC
330
1F
100
AcDbEntity
  8
0
  6
BYBLOCK
100
AcDbLine
 10
82.28469824811156
 20
275.4989486451699
 30
0.0
 11
97.18462393556558
 21
275.4989486451699
 31
0.0
  0
INSERT
  5
7DD
330
1F
100
AcDbEntity
  8
0
 62
     0
 48
5.0
100
AcDbBlockReference
  2
A$C5CFD6E8C
 10
98.6845524119947
 20
315.7488151945126
 30
0.0
  0
INSERT
  5
7DE
330
1F
100
AcDbEntity
  8
0
 62
     0
 48
5.0
100
AcDbBlockReference
  2
A$C5CFD6E8C
 10
98.6845524119947
 20
310.2488151945126
 30
0.0
  0
LINE
  5
7DF
330
1F
100
AcDbEntity
  8
0
 48
5.0
100
AcDbLine
 10
82.28469824811156
 20
308.2989522451674
 30
0.0
 11
82.28469824811156
 21
275.4989486451699
 31
0.0
  0
LINE
  5
7E0
330
1F
100
AcDbEntity
  8
0
100
AcDbLine
 10
96.18454962301484
 20
308.2989522451691
 30
0.0
 11
96.18454962301484
 21
275.4989486451699
 31
0.0
  0
LINE
  5
7E1
330
1F
100
AcDbEntity
  8
0
100
AcDbLine
 10
96.18454962301484
 20
275.4989486451699
 30
0.0
 11
97.18462393556558
 21
275.4989486451699
 31
0.0
  0
LINE
  5
7E2
330
1F
100
AcDbEntity
  8
0
100
AcDbLine
 10
97.18462393556558
 20
275.4989486451699
 30
0.0
 11
97.18462393556558
 21
275.5988169404673
 31
0.0
  0
LINE
  5
7E3
330
1F
100
AcDbEntity
  8
0
100
AcDbLine
 10
97.18462393556558
 20
275.5988169404673
 30
0.0
 11
96.18454962301484
 21
275.5988169404673
 31
0.0
  0
LINE
  5
7E4
330
1F
100
AcDbEntity
  8
0
100
AcDbLine
 10
96.18454962301484
 20
308.1988169404671
 30
0.0
 11
97.1846239355632
 21
308.1988169404671
 31
0.0
  0
LWPOLYLINE
  5
7E5
330
1F
100
AcDbEntity
  8
0
 62
     0
100
AcDbPolyline
 90
        4
 70
     1
 43
0.0
 10
98.68454962301441
 20
318.4488176741581
 10
100.2844012618443
 20
318.4488176741581
 10
100.2844012618443
 20
315.7488176741573
 10
98.68454962301441
 20
315.7488176741573
  0
LWPOLYLINE
  5
7E6
330
1F
100
AcDbEntity
  8
0
 62
     0
100
AcDbPolyline
 90
        4
 70
     1
 43
0.0
 10
98.68454962301441
 20
312.9488176741581
 10
100.2845496230148
 20
312.9488176741581
 10
100.2845496230148
 20
310.2488176741573
 10
98.68454962301441
 20
310.2488176741573
  0
ARC
  5
7E7
330
1F
100
AcDbEntity
  8
0
100
AcDbCircle
 10
88.47470082302924
 20
286.2687868029406
 30
0.0
 40
1.639993
100
AcDbArc
 50
180.0
 51
279.9990282000055
  0
ARC
  5
7E8
330
1F
100
AcDbEntity
  8
0
100
AcDbCircle
 10
91.3946532230293
 20
286.7837958029408
 30
0.0
 40
1.639991999999999
100
AcDbArc
 50
279.9988909000173
 51
359.9996795999958
  0
ARC
  5
7E9
330
1F
100
AcDbEntity
  8
0
100
AcDbCircle
 10
91.63465102302973
 20
286.522296302941
 30
0.0
 40
1.449996899999999
100
AcDbArc
 50
279.9990282000055
 51
359.9999770999867
  0
CIRCLE
  5
7EA
330
1F
100
AcDbEntity
  8
0
100
AcDbCircle
 10
88.51470172302922
 20
286.4188055029408
 30
0.0
 40
1.0
  0
ARC
  5
7EB
330
1F
100
AcDbEntity
  8
0
100
AcDbCircle
 10
88.52465042302911
 20
286.2687868029406
 30
0.0
 40
1.7399909
100
AcDbArc
 50
180.0
 51
279.9989461999804
  0
ARC
  5
7EC
330
1F
100
AcDbEntity
  8
0
100
AcDbCircle
 10
88.52465042302911
 20
286.2888064029408
 30
0.0
 40
2.5399921
100
AcDbArc
 50
180.0010070999862
 51
279.9989327999802
  0
ARC
  5
7ED
330
1F
100
AcDbEntity
  8
0
100
AcDbCircle
 10
91.63465102302973
 20
286.5422968029406
 30
0.0
 40
2.249988999999998
100
AcDbArc
 50
279.9990282000055
 51
359.9997481999839
  0
LINE
  5
7EE
330
1F
100
AcDbEntity
  8
0
100
AcDbLine
 10
96.1845496230036
 20
278.2488172872488
 30
0.0
 11
96.18454962302671
 21
305.5488165936854
 31
0.0
  0
LINE
  5
7EF
330
1F
100
AcDbEntity
  8
0
100
AcDbLine
 10
83.68454562301497
 20
278.2488169404674
 30
0.0
 11
83.68455362301483
 21
305.5488249406021
 31
0.0
  0
LINE
  5
7F0
330
1F
100
AcDbEntity
  8
0
100
AcDbLine
 10
91.67930212302977
 20
285.1687960029408
 30
0.0
 11
88.75930012302944
 21
284.6537966029405
 31
0.0
  0
LINE
  5
7F1
330
1F
100
AcDbEntity
  8
0
100
AcDbLine
 10
91.8863905230293
 20
285.0948366029413
 30
0.0
 11
88.8267516230295
 21
284.5553354029405
 31
0.0
  0
ARC
  5
7F2
330
1F
100
AcDbEntity
  8
0
100
AcDbCircle
 10
94.43456062304369
 20
278.2488165404785
 30
0.0
 40
1.749989
100
AcDbArc
 50
270.0
 51
0.0003890999917428
  0
ARC
  5
7F3
330
1F
100
AcDbEntity
  8
0
100
AcDbCircle
 10
85.43454562301496
 20
278.2488169404674
 30
0.0
 40
1.75
100
AcDbArc
 50
180.0
 51
270.0
  0
LINE
  5
7F4
330
1F
100
AcDbEntity
  8
0
100
AcDbLine
 10
85.43454562301496
 20
276.4988169404674
 30
0.0
 11
94.43456062304369
 21
276.4988169404674
 31
0.0
  0
CIRCLE
  5
7F5
330
1F
100
AcDbEntity
  8
0
100
AcDbCircle
 10
89.93455112302944
 20
279.403806102941
 30
0.0
 40
1.299998999999999
  0
CIRCLE
  5
7F6
330
1F
100
AcDbEntity
  8
0
100
AcDbCircle
 10
89.93455112302944
 20
279.403806102941
 30
0.0
 40
1.520001099999999
  0
CIRCLE
  5
7F7
330
1F
100
AcDbEntity
  8
0
100
AcDbCircle
 10
89.93455112302944
 20
279.403806102941
 30
0.0
 40
1.0
  0
CIRCLE
  5
7F8
330
1F
100
AcDbEntity
  8
0
100
AcDbCircle
 10
89.93455112302944
 20
279.403806102941
 30
0.0
 40
2.5114751
  0
LINE
  5
7F9
330
1F
100
AcDbEntity
  8
0
100
AcDbLine
 10
88.4845503230297
 20
276.8923067029404
 30
0.0
 11
87.03455342302925
 21
279.4037966029406
 31
0.0
  0
LINE
  5
7FA
330
1F
100
AcDbEntity
  8
0
100
AcDbLine
 10
92.83453352302968
 20
279.4037851029404
 30
0.0
 11
91.38458242302943
 21
276.8922762029411
 31
0.0
  0
LINE
  5
7FB
330
1F
100
AcDbEntity
  8
0
100
AcDbLine
 10
91.38458242302943
 20
281.9153265029405
 30
0.0
 11
92.83453352302968
 21
279.4038252029411
 31
0.0
  0
LINE
  5
7FC
330
1F
100
AcDbEntity
  8
0
100
AcDbLine
 10
87.0345419230299
 20
279.4038157029405
 30
0.0
 11
88.48454272302943
 21
281.9153151029411
 31
0.0
  0
LINE
  5
7FD
330
1F
100
AcDbEntity
  8
0
100
AcDbLine
 10
88.4845503230297
 20
281.9153151029411
 30
0.0
 11
91.38455192302968
 21
281.9153151029411
 31
0.0
  0
LINE
  5
7FE
330
1F
100
AcDbEntity
  8
0
100
AcDbLine
 10
91.38455192302968
 20
276.8923067029404
 30
0.0
 11
88.4845503230297
 21
276.8923067029404
 31
0.0
  0
LINE
  5
7FF
330
1F
100
AcDbEntity
  8
0
100
AcDbLine
 10
92.0253027230292
 20
284.326795002941
 30
0.0
 11
88.96565232302966
 21
283.7872957029408
 31
0.0
  0
ARC
  5
800
330
1F
100
AcDbEntity
  8
0
100
AcDbCircle
 10
94.43456062304369
 20
305.548827940332
 30
0.0
 40
1.749989
100
AcDbArc
 50
0.0002517999899077
 51
90.00100709998623
  0
ARC
  5
801
330
1F
100
AcDbEntity
  8
0
100
AcDbCircle
 10
85.43454562301496
 20
305.5488249406026
 30
0.0
 40
1.749991999999999
100
AcDbArc
 50
89.9989928999877
 51
180.0
  0
LINE
  5
802
330
1F
100
AcDbEntity
  8
0
100
AcDbLine
 10
85.43457638299333
 20
307.2988169403322
 30
0.0
 11
94.43456062304369
 21
307.2988169403322
 31
0.0
  0
ARC
  5
803
330
1F
100
AcDbEntity
  8
0
100
AcDbCircle
 10
88.52465042302911
 20
297.5088138029409
 30
0.0
 40
2.5399921
100
AcDbArc
 50
80.00100710001571
 51
179.9989014000123
  0
CIRCLE
  5
804
330
1F
100
AcDbEntity
  8
0
100
AcDbCircle
 10
89.93455112302944
 20
304.3933099029406
 30
0.0
 40
1.3000031
  0
CIRCLE
  5
805
330
1F
100
AcDbEntity
  8
0
100
AcDbCircle
 10
89.93465032302912
 20
304.3933099029406
 30
0.0
 40
1.5500031
  0
CIRCLE
  5
806
330
1F
100
AcDbEntity
  8
0
100
AcDbCircle
 10
89.93455112302944
 20
304.3933099029406
 30
0.0
 40
1.0
  0
CIRCLE
  5
807
330
1F
100
AcDbEntity
  8
0
100
AcDbCircle
 10
89.93455112302944
 20
304.3933099029406
 30
0.0
 40
2.5114751
  0
LINE
  5
808
330
1F
100
AcDbEntity
  8
0
100
AcDbLine
 10
87.0345610230297
 20
304.3933149029403
 30
0.0
 11
88.4845503230297
 21
306.9048089029406
 31
0.0
  0
LINE
  5
809
330
1F
100
AcDbEntity
  8
0
100
AcDbLine
 10
88.4845503230297
 20
301.8818120029406
 30
0.0
 11
87.03455342302925
 21
304.3933089029411
 31
0.0
  0
LINE
  5
80A
330
1F
100
AcDbEntity
  8
0
100
AcDbLine
 10
91.38455192302968
 20
301.8818130029409
 30
0.0
 11
88.4845503230297
 21
301.8818130029409
 31
0.0
  0
LINE
  5
80B
330
1F
100
AcDbEntity
  8
0
100
AcDbLine
 10
88.4845503230297
 20
306.9048080029413
 30
0.0
 11
91.38455192302968
 21
306.9048080029413
 31
0.0
  0
LINE
  5
80C
330
1F
100
AcDbEntity
  8
0
100
AcDbLine
 10
92.83451072302987
 20
304.3933079029408
 30
0.0
 11
91.38455192302968
 21
301.8818120029406
 31
0.0
  0
LINE
  5
80D
330
1F
100
AcDbEntity
  8
0
100
AcDbLine
 10
91.38455192302968
 20
306.9048049029404
 30
0.0
 11
92.83450302302949
 21
304.3933099029406
 31
0.0
  0
ARC
  5
80E
330
1F
100
AcDbEntity
  8
0
100
AcDbCircle
 10
88.52465042302911
 20
297.5288257029411
 30
0.0
 40
1.7399909
100
AcDbArc
 50
80.00100710001571
 51
180.0
  0
ARC
  5
80F
330
1F
100
AcDbEntity
  8
0
100
AcDbCircle
 10
88.47470082302924
 20
297.5288257029411
 30
0.0
 40
1.639993
100
AcDbArc
 50
80.00090030000761
 51
180.0
  0
LINE
  5
810
330
1F
100
AcDbEntity
  8
0
100
AcDbLine
 10
91.67930212302977
 20
298.6288199029411
 30
0.0
 11
88.75930012302944
 21
299.1438188029411
 31
0.0
  0
LINE
  5
811
330
1F
100
AcDbEntity
  8
0
100
AcDbLine
 10
92.0253027230292
 20
299.4708218029403
 30
0.0
 11
88.96565232302966
 21
300.0103211029405
 31
0.0
  0
LINE
  5
812
330
1F
100
AcDbEntity
  8
0
100
AcDbLine
 10
91.8863905230293
 20
298.7027849029406
 30
0.0
 11
88.8267516230295
 21
299.2422828029408
 31
0.0
  0
LINE
  5
813
330
1F
100
AcDbEntity
  8
0
100
AcDbLine
 10
86.78465952302952
 20
286.2687868029403
 30
0.0
 11
86.78465262302973
 21
291.8988060029411
 31
0.0
  0
CIRCLE
  5
814
330
1F
100
AcDbEntity
  8
0
100
AcDbCircle
 10
88.51470172302922
 20
289.1586819029408
 30
0.0
 40
1.0
  0
CIRCLE
  5
815
330
1F
100
AcDbEntity
  8
0
100
AcDbCircle
 10
91.35470182302936
 20
290.5285627029408
 30
0.0
 40
1.0
  0
LINE
  5
816
330
1F
100
AcDbEntity
  8
0
100
AcDbLine
 10
93.03440082302961
 20
286.784305002941
 30
0.0
 11
93.03440082302961
 21
297.0138191029406
 31
0.0
  0
LINE
  5
817
330
1F
100
AcDbEntity
  8
0
100
AcDbLine
 10
93.88465102302973
 20
286.5433058029408
 30
0.0
 11
93.88465102302973
 21
297.2753171029405
 31
0.0
  0
LINE
  5
818
330
1F
100
AcDbEntity
  8
0
100
AcDbLine
 10
93.08460222302926
 20
286.5233168029405
 30
0.0
 11
93.08460222302926
 21
297.2748207029403
 31
0.0
  0
CIRCLE
  5
819
330
1F
100
AcDbEntity
  8
0
100
AcDbCircle
 10
91.35470182302936
 20
290.5285627029408
 30
0.0
 40
0.5500030000000004
  0
CIRCLE
  5
81A
330
1F
100
AcDbEntity
  8
0
100
AcDbCircle
 10
91.35470182302936
 20
293.2684391029406
 30
0.0
 40
0.5500030000000004
  0
CIRCLE
  5
81B
330
1F
100
AcDbEntity
  8
0
100
AcDbCircle
 10
91.35470182302936
 20
296.0083155029412
 30
0.0
 40
1.0
  0
CIRCLE
  5
81C
330
1F
100
AcDbEntity
  8
0
100
AcDbCircle
 10
91.35470182302936
 20
296.0083155029412
 30
0.0
 40
0.5500030000000004
  0
CIRCLE
  5
81D
330
1F
100
AcDbEntity
  8
0
100
AcDbCircle
 10
91.35470182302936
 20
293.2684391029406
 30
0.0
 40
1.0
  0
CIRCLE
  5
81E
330
1F
100
AcDbEntity
  8
0
100
AcDbCircle
 10
88.51470172302922
 20
294.6384347029407
 30
0.0
 40
1.0
  0
CIRCLE
  5
81F
330
1F
100
AcDbEntity
  8
0
100
AcDbCircle
 10
88.51470172302922
 20
294.6384347029407
 30
0.0
 40
0.5500030000000004
  0
CIRCLE
  5
820
330
1F
100
AcDbEntity
  8
0
100
AcDbCircle
 10
88.51470172302922
 20
291.8985583029408
 30
0.0
 40
1.0
  0
CIRCLE
  5
821
330
1F
100
AcDbEntity
  8
0
100
AcDbCircle
 10
88.51470172302922
 20
291.8985583029408
 30
0.0
 40
0.5500030000000004
  0
CIRCLE
  5
822
330
1F
100
AcDbEntity
  8
0
100
AcDbCircle
 10
88.51470172302922
 20
289.1586819029408
 30
0.0
 40
0.5500030000000004
  0
CIRCLE
  5
823
330
1F
100
AcDbEntity
  8
0
100
AcDbCircle
 10
88.51470172302922
 20
286.4188055029408
 30
0.0
 40
0.5499990000000004
  0
CIRCLE
  5
824
330
1F
100
AcDbEntity
  8
0
100
AcDbCircle
 10
91.35470182302936
 20
287.7888064029408
 30
0.0
 40
0.5500030000000004
  0
CIRCLE
  5
825
330
1F
100
AcDbEntity
  8
0
100
AcDbCircle
 10
91.35470182302936
 20
287.7888064029408
 30
0.0
 40
1.0
  0
LINE
  5
826
330
1F
100
AcDbEntity
  8
0
100
AcDbLine
 10
85.98465832342172
 20
286.2887617569636
 30
0.0
 11
85.98465332302929
 21
297.5088138029409
 31
0.0
  0
LINE
  5
827
330
1F
100
AcDbEntity
  8
0
100
AcDbLine
 10
86.83445342302922
 20
286.2693056029406
 30
0.0
 11
86.83445342302922
 21
297.5288257029411
 31
0.0
  0
ARC
  5
828
330
1F
100
AcDbEntity
  8
0
100
AcDbCircle
 10
91.63465102302973
 20
297.2553200029411
 30
0.0
 40
2.249988999999998
100
AcDbArc
 50
0.0002136000027381
 51
80.00090030000761
  0
ARC
  5
829
330
1F
100
AcDbEntity
  8
0
100
AcDbCircle
 10
91.63465102302973
 20
297.275317102941
 30
0.0
 40
1.449996899999999
100
AcDbArc
 50
359.9999770999867
 51
80.00090030000761
  0
ARC
  5
82A
330
1F
100
AcDbEntity
  8
0
100
AcDbCircle
 10
91.3946532230293
 20
297.0138191029406
 30
0.0
 40
1.639991999999999
100
AcDbArc
 50
0.0002822999903722
 51
80.00109860001039
  0
CIRCLE
  5
82B
330
1F
100
AcDbEntity
  8
0
100
AcDbCircle
 10
88.51470172302922
 20
297.3783111029407
 30
0.0
 40
1.0
  0
CIRCLE
  5
82C
330
1F
100
AcDbEntity
  8
0
100
AcDbCircle
 10
88.51470172302922
 20
297.3783111029407
 30
0.0
 40
0.5500030000000004
  0
LINE
  5
82D
330
1F
100
AcDbEntity
  8
0
100
AcDbLine
 10
86.78465262302973
 20
291.8988060029411
 30
0.0
 11
86.78465262302973
 21
297.5288257029411
 31
0.0
  0
LINE
  5
82E
330
1F
100
AcDbEntity
  8
0
  6
CONTINUOUS
100
AcDbLine
 10
87.42307602304743
 20
120.9738169404668
 30
0.0
 11
87.42307602304743
 21
122.8664098855584
 31
0.0
  0
LINE
  5
82F
330
1F
100
AcDbEntity
  8
0
  6
CONTINUOUS
100
AcDbLine
 10
87.42307602304743
 20
122.8664098855584
 30
0.0
 11
92.33454962301479
 21
122.8664098855584
 31
0.0
  0
LINE
  5
830
330
1F
100
AcDbEntity
  8
0
  6
CONTINUOUS
100
AcDbLine
 10
86.78465952302904
 20
120.9738169404668
 30
0.0
 11
86.78465952302904
 21
122.9738169404668
 31
0.0
  0
LINE
  5
831
330
1F
100
AcDbEntity
  8
0
  6
CONTINUOUS
100
AcDbLine
 10
86.78465952302904
 20
122.9738169404668
 30
0.0
 11
92.33454962301479
 21
122.9738169404668
 31
0.0
  0
LINE
  5
832
330
1F
100
AcDbEntity
  8
0
100
AcDbLine
 10
330.7347622280773
 20
364.8428873326208
 30
0.0
 11
330.7347622280773
 21
171.104746548313
 31
0.0
  0
LINE
  5
833
330
1F
100
AcDbEntity
  8
0
100
AcDbLine
 10
325.7347622280773
 20
170.9738169404668
 30
0.0
 11
325.7347622280773
 21
180.9738169404669
 31
0.0
  0
LINE
  5
834
330
1F
100
AcDbEntity
  8
0
100
AcDbLine
 10
209.7347622280784
 20
180.9738169404669
 30
0.0
 11
209.7347622280784
 21
354.9738169404668
 31
0.0
  0
LINE
  5
835
330
1F
100
AcDbEntity
  8
0
100
AcDbLine
 10
209.7347622280784
 20
354.9738169404668
 30
0.0
 11
325.7347622280773
 21
354.9738169404668
 31
0.0
  0
LINE
  5
836
330
1F
100
AcDbEntity
  8
0
100
AcDbLine
 10
209.7347622280784
 20
180.9738169404669
 30
0.0
 11
325.7347622280773
 21
180.9738169404669
 31
0.0
  0
LINE
  5
837
330
1F
100
AcDbEntity
  8
0
100
AcDbLine
 10
325.7347622280773
 20
364.9738169404668
 30
0.0
 11
330.7347622280773
 21
364.8428873326208
 31
0.0
  0
LINE
  5
838
330
1F
100
AcDbEntity
  8
0
100
AcDbLine
 10
327.1488019928143
 20
364.9367890060918
 30
0.0
 11
327.1488019928131
 21
171.0108448748419
 31
0.0
  0
LINE
  5
839
330
1F
100
AcDbEntity
  8
0
100
AcDbLine
 10
325.7347622280773
 20
170.9738169404668
 30
0.0
 11
330.7347622280773
 21
171.104746548313
 31
0.0
  0
LINE
  5
83A
330
1F
100
AcDbEntity
  8
0
100
AcDbLine
 10
209.7347622280784
 20
180.9738169404669
 30
0.0
 11
209.7347622280784
 21
354.9738169404668
 31
0.0
  0
LINE
  5
83B
330
1F
100
AcDbEntity
  8
0
100
AcDbLine
 10
209.7347622280784
 20
354.9738169404668
 30
0.0
 11
327.1226160712466
 21
354.9738169404668
 31
0.0
  0
LINE
  5
83C
330
1F
100
AcDbEntity
  8
0
100
AcDbLine
 10
226.7347622280784
 20
180.9738169404669
 30
0.0
 11
226.7347622280784
 21
354.9738169404668
 31
0.0
  0
LINE
  5
83D
330
1F
100
AcDbEntity
  8
0
100
AcDbLine
 10
308.7347622280783
 20
180.9738169404669
 30
0.0
 11
308.7347622280783
 21
354.9738169404668
 31
0.0
  0
LINE
  5
83E
330
1F
100
AcDbEntity
  8
0
100
AcDbLine
 10
226.7347622280784
 20
353.9738169404668
 30
0.0
 11
308.7347622280783
 21
353.9738169404668
 31
0.0
  0
LINE
  5
83F
330
1F
100
AcDbEntity
  8
0
100
AcDbLine
 10
231.7347622280784
 20
351.9738169404668
 30
0.0
 11
233.7347622280783
 21
351.9738169404668
 31
0.0
  0
LINE
  5
840
330
1F
100
AcDbEntity
  8
0
100
AcDbLine
 10
231.7347622280784
 20
181.9738169404669
 30
0.0
 11
231.7347622280784
 21
235.2238169404667
 31
0.0
  0
LINE
  5
841
330
1F
100
AcDbEntity
  8
0
100
AcDbLine
 10
233.7347622280783
 20
181.9738169404669
 30
0.0
 11
233.7347622280783
 21
235.2238169404667
 31
0.0
  0
LINE
  5
842
330
1F
100
AcDbEntity
  8
0
100
AcDbLine
 10
231.7347622280784
 20
300.7238169404668
 30
0.0
 11
233.7347622280783
 21
300.7238169404668
 31
0.0
  0
LINE
  5
843
330
1F
100
AcDbEntity
  8
0
100
AcDbLine
 10
231.7347622280784
 20
235.2238169404667
 30
0.0
 11
233.7347622280783
 21
235.2238169404667
 31
0.0
  0
LINE
  5
844
330
1F
100
AcDbEntity
  8
0
100
AcDbLine
 10
226.7347622280784
 20
181.9738169404669
 30
0.0
 11
308.7347622280783
 21
181.9738169404669
 31
0.0
  0
LINE
  5
845
330
1F
100
AcDbEntity
  8
0
100
AcDbLine
 10
231.7347622280784
 20
183.9738169404669
 30
0.0
 11
233.7347622280783
 21
183.9738169404669
 31
0.0
  0
LINE
  5
846
330
1F
100
AcDbEntity
  8
0
100
AcDbLine
 10
231.7347622280784
 20
300.7238169404668
 30
0.0
 11
231.7347622280784
 21
353.9738169404668
 31
0.0
  0
LINE
  5
847
330
1F
100
AcDbEntity
  8
0
100
AcDbLine
 10
233.7347622280783
 20
300.7238169404668
 30
0.0
 11
233.7347622280783
 21
353.9738169404668
 31
0.0
  0
LINE
  5
848
330
1F
100
AcDbEntity
  8
0
100
AcDbLine
 10
238.7347622280784
 20
351.9738169404668
 30
0.0
 11
240.7347622280784
 21
351.9738169404668
 31
0.0
  0
LINE
  5
849
330
1F
100
AcDbEntity
  8
0
100
AcDbLine
 10
238.7347622280784
 20
181.9738169404669
 30
0.0
 11
238.7347622280784
 21
235.2238169404667
 31
0.0
  0
LINE
  5
84A
330
1F
100
AcDbEntity
  8
0
100
AcDbLine
 10
240.7347622280784
 20
181.9738169404669
 30
0.0
 11
240.7347622280784
 21
235.2238169404667
 31
0.0
  0
LINE
  5
84B
330
1F
100
AcDbEntity
  8
0
100
AcDbLine
 10
238.7347622280784
 20
300.7238169404668
 30
0.0
 11
240.7347622280784
 21
300.7238169404668
 31
0.0
  0
LINE
  5
84C
330
1F
100
AcDbEntity
  8
0
100
AcDbLine
 10
238.7347622280784
 20
235.2238169404667
 30
0.0
 11
240.7347622280784
 21
235.2238169404667
 31
0.0
  0
LINE
  5
84D
330
1F
100
AcDbEntity
  8
0
100
AcDbLine
 10
238.7347622280784
 20
183.9738169404669
 30
0.0
 11
240.7347622280784
 21
183.9738169404669
 31
0.0
  0
LINE
  5
84E
330
1F
100
AcDbEntity
  8
0
100
AcDbLine
 10
238.7347622280784
 20
300.7238169404668
 30
0.0
 11
238.7347622280784
 21
353.9738169404668
 31
0.0
  0
LINE
  5
84F
330
1F
100
AcDbEntity
  8
0
100
AcDbLine
 10
240.7347622280784
 20
300.7238169404668
 30
0.0
 11
240.7347622280784
 21
353.9738169404668
 31
0.0
  0
LINE
  5
850
330
1F
100
AcDbEntity
  8
0
100
AcDbLine
 10
245.734762228078
 20
351.9738169404668
 30
0.0
 11
247.7347622280784
 21
351.9738169404668
 31
0.0
  0
LINE
  5
851
330
1F
100
AcDbEntity
  8
0
100
AcDbLine
 10
245.734762228078
 20
181.9738169404669
 30
0.0
 11
245.734762228078
 21
235.2238169404667
 31
0.0
  0
LINE
  5
852
330
1F
100
AcDbEntity
  8
0
100
AcDbLine
 10
247.7347622280784
 20
181.9738169404669
 30
0.0
 11
247.7347622280784
 21
235.2238169404667
 31
0.0
  0
LINE
  5
853
330
1F
100
AcDbEntity
  8
0
100
AcDbLine
 10
245.734762228078
 20
300.7238169404668
 30
0.0
 11
247.7347622280784
 21
300.7238169404668
 31
0.0
  0
LINE
  5
854
330
1F
100
AcDbEntity
  8
0
100
AcDbLine
 10
245.734762228078
 20
235.2238169404667
 30
0.0
 11
247.7347622280784
 21
235.2238169404667
 31
0.0
  0
LINE
  5
855
330
1F
100
AcDbEntity
  8
0
100
AcDbLine
 10
245.734762228078
 20
183.9738169404669
 30
0.0
 11
247.7347622280784
 21
183.9738169404669
 31
0.0
  0
LINE
  5
856
330
1F
100
AcDbEntity
  8
0
100
AcDbLine
 10
245.734762228078
 20
300.7238169404668
 30
0.0
 11
245.734762228078
 21
353.9738169404668
 31
0.0
  0
LINE
  5
857
330
1F
100
AcDbEntity
  8
0
100
AcDbLine
 10
247.7347622280784
 20
300.7238169404668
 30
0.0
 11
247.7347622280784
 21
353.9738169404668
 31
0.0
  0
LINE
  5
858
330
1F
100
AcDbEntity
  8
0
100
AcDbLine
 10
252.7347622280784
 20
181.9738169404669
 30
0.0
 11
252.7347622280784
 21
235.2238169404667
 31
0.0
  0
LINE
  5
859
330
1F
100
AcDbEntity
  8
0
100
AcDbLine
 10
254.7347622280784
 20
181.9738169404669
 30
0.0
 11
254.7347622280784
 21
235.2238169404667
 31
0.0
  0
LINE
  5
85A
330
1F
100
AcDbEntity
  8
0
100
AcDbLine
 10
252.7347622280784
 20
300.7238169404668
 30
0.0
 11
254.7347622280784
 21
300.7238169404668
 31
0.0
  0
LINE
  5
85B
330
1F
100
AcDbEntity
  8
0
100
AcDbLine
 10
252.7347622280784
 20
235.2238169404667
 30
0.0
 11
254.7347622280784
 21
235.2238169404667
 31
0.0
  0
LINE
  5
85C
330
1F
100
AcDbEntity
  8
0
100
AcDbLine
 10
252.7347622280784
 20
183.9738169404669
 30
0.0
 11
254.7347622280784
 21
183.9738169404669
 31
0.0
  0
LINE
  5
85D
330
1F
100
AcDbEntity
  8
0
100
AcDbLine
 10
252.7347622280784
 20
300.7238169404668
 30
0.0
 11
252.7347622280784
 21
353.9738169404668
 31
0.0
  0
LINE
  5
85E
330
1F
100
AcDbEntity
  8
0
100
AcDbLine
 10
254.7347622280784
 20
300.7238169404668
 30
0.0
 11
254.7347622280784
 21
353.9738169404668
 31
0.0
  0
LINE
  5
85F
330
1F
100
AcDbEntity
  8
0
100
AcDbLine
 10
259.7347622280784
 20
351.9738169404668
 30
0.0
 11
261.734762228078
 21
351.9738169404668
 31
0.0
  0
LINE
  5
860
330
1F
100
AcDbEntity
  8
0
100
AcDbLine
 10
259.7347622280784
 20
181.9738169404669
 30
0.0
 11
259.7347622280784
 21
235.2238169404667
 31
0.0
  0
LINE
  5
861
330
1F
100
AcDbEntity
  8
0
100
AcDbLine
 10
261.734762228078
 20
181.9738169404669
 30
0.0
 11
261.734762228078
 21
235.2238169404667
 31
0.0
  0
LINE
  5
862
330
1F
100
AcDbEntity
  8
0
100
AcDbLine
 10
259.7347622280784
 20
300.7238169404668
 30
0.0
 11
261.734762228078
 21
300.7238169404668
 31
0.0
  0
LINE
  5
863
330
1F
100
AcDbEntity
  8
0
100
AcDbLine
 10
259.7347622280784
 20
235.2238169404667
 30
0.0
 11
261.734762228078
 21
235.2238169404667
 31
0.0
  0
LINE
  5
864
330
1F
100
AcDbEntity
  8
0
100
AcDbLine
 10
259.7347622280784
 20
183.9738169404669
 30
0.0
 11
261.734762228078
 21
183.9738169404669
 31
0.0
  0
LINE
  5
865
330
1F
100
AcDbEntity
  8
0
100
AcDbLine
 10
259.7347622280784
 20
300.7238169404668
 30
0.0
 11
259.7347622280784
 21
353.9738169404668
 31
0.0
  0
LINE
  5
866
330
1F
100
AcDbEntity
  8
0
100
AcDbLine
 10
261.734762228078
 20
300.7238169404668
 30
0.0
 11
261.734762228078
 21
353.9738169404668
 31
0.0
  0
LINE
  5
867
330
1F
100
AcDbEntity
  8
0
100
AcDbLine
 10
266.734762228078
 20
351.9738169404668
 30
0.0
 11
268.734762228078
 21
351.9738169404668
 31
0.0
  0
LINE
  5
868
330
1F
100
AcDbEntity
  8
0
100
AcDbLine
 10
266.734762228078
 20
181.9738169404669
 30
0.0
 11
266.734762228078
 21
235.2238169404667
 31
0.0
  0
LINE
  5
869
330
1F
100
AcDbEntity
  8
0
100
AcDbLine
 10
268.734762228078
 20
181.9738169404669
 30
0.0
 11
268.734762228078
 21
235.2238169404667
 31
0.0
  0
LINE
  5
86A
330
1F
100
AcDbEntity
  8
0
100
AcDbLine
 10
266.734762228078
 20
300.7238169404668
 30
0.0
 11
268.734762228078
 21
300.7238169404668
 31
0.0
  0
LINE
  5
86B
330
1F
100
AcDbEntity
  8
0
100
AcDbLine
 10
266.734762228078
 20
235.2238169404667
 30
0.0
 11
268.734762228078
 21
235.2238169404667
 31
0.0
  0
LINE
  5
86C
330
1F
100
AcDbEntity
  8
0
100
AcDbLine
 10
266.734762228078
 20
183.9738169404669
 30
0.0
 11
268.734762228078
 21
183.9738169404669
 31
0.0
  0
LINE
  5
86D
330
1F
100
AcDbEntity
  8
0
100
AcDbLine
 10
266.734762228078
 20
300.7238169404668
 30
0.0
 11
266.734762228078
 21
353.9738169404668
 31
0.0
  0
LINE
  5
86E
330
1F
100
AcDbEntity
  8
0
100
AcDbLine
 10
268.734762228078
 20
300.7238169404668
 30
0.0
 11
268.734762228078
 21
353.9738169404668
 31
0.0
  0
LINE
  5
86F
330
1F
100
AcDbEntity
  8
0
100
AcDbLine
 10
273.7347622280783
 20
351.9738169404668
 30
0.0
 11
275.7347622280783
 21
351.9738169404668
 31
0.0
  0
LINE
  5
870
330
1F
100
AcDbEntity
  8
0
100
AcDbLine
 10
273.7347622280783
 20
181.9738169404669
 30
0.0
 11
273.7347622280783
 21
235.2238169404667
 31
0.0
  0
LINE
  5
871
330
1F
100
AcDbEntity
  8
0
100
AcDbLine
 10
275.7347622280783
 20
181.9738169404669
 30
0.0
 11
275.7347622280783
 21
235.2238169404667
 31
0.0
  0
LINE
  5
872
330
1F
100
AcDbEntity
  8
0
100
AcDbLine
 10
273.7347622280783
 20
300.7238169404668
 30
0.0
 11
275.7347622280783
 21
300.7238169404668
 31
0.0
  0
LINE
  5
873
330
1F
100
AcDbEntity
  8
0
100
AcDbLine
 10
273.7347622280783
 20
235.2238169404667
 30
0.0
 11
275.7347622280783
 21
235.2238169404667
 31
0.0
  0
LINE
  5
874
330
1F
100
AcDbEntity
  8
0
100
AcDbLine
 10
273.7347622280783
 20
183.9738169404669
 30
0.0
 11
275.7347622280783
 21
183.9738169404669
 31
0.0
  0
LINE
  5
875
330
1F
100
AcDbEntity
  8
0
100
AcDbLine
 10
273.7347622280783
 20
300.7238169404668
 30
0.0
 11
273.7347622280783
 21
353.9738169404668
 31
0.0
  0
LINE
  5
876
330
1F
100
AcDbEntity
  8
0
100
AcDbLine
 10
275.7347622280783
 20
300.7238169404668
 30
0.0
 11
275.7347622280783
 21
353.9738169404668
 31
0.0
  0
LINE
  5
877
330
1F
100
AcDbEntity
  8
0
100
AcDbLine
 10
280.7347622280784
 20
351.9738169404668
 30
0.0
 11
282.7347622280782
 21
351.9738169404668
 31
0.0
  0
LINE
  5
878
330
1F
100
AcDbEntity
  8
0
100
AcDbLine
 10
280.7347622280784
 20
181.9738169404669
 30
0.0
 11
280.7347622280784
 21
235.2238169404667
 31
0.0
  0
LINE
  5
879
330
1F
100
AcDbEntity
  8
0
100
AcDbLine
 10
282.7347622280782
 20
181.9738169404669
 30
0.0
 11
282.7347622280782
 21
235.2238169404667
 31
0.0
  0
LINE
  5
87A
330
1F
100
AcDbEntity
  8
0
100
AcDbLine
 10
280.7347622280784
 20
300.7238169404668
 30
0.0
 11
282.7347622280782
 21
300.7238169404668
 31
0.0
  0
LINE
  5
87B
330
1F
100
AcDbEntity
  8
0
100
AcDbLine
 10
280.7347622280784
 20
235.2238169404667
 30
0.0
 11
282.7347622280782
 21
235.2238169404667
 31
0.0
  0
LINE
  5
87C
330
1F
100
AcDbEntity
  8
0
100
AcDbLine
 10
280.7347622280784
 20
183.9738169404669
 30
0.0
 11
282.7347622280782
 21
183.9738169404669
 31
0.0
  0
LINE
  5
87D
330
1F
100
AcDbEntity
  8
0
100
AcDbLine
 10
280.7347622280784
 20
300.7238169404668
 30
0.0
 11
280.7347622280784
 21
353.9738169404668
 31
0.0
  0
LINE
  5
87E
330
1F
100
AcDbEntity
  8
0
100
AcDbLine
 10
282.7347622280782
 20
300.7238169404668
 30
0.0
 11
282.7347622280782
 21
353.9738169404668
 31
0.0
  0
LINE
  5
87F
330
1F
100
AcDbEntity
  8
0
100
AcDbLine
 10
287.7347622280784
 20
351.9738169404668
 30
0.0
 11
289.7347622280784
 21
351.9738169404668
 31
0.0
  0
LINE
  5
880
330
1F
100
AcDbEntity
  8
0
100
AcDbLine
 10
287.7347622280784
 20
181.9738169404669
 30
0.0
 11
287.7347622280784
 21
235.2238169404667
 31
0.0
  0
LINE
  5
881
330
1F
100
AcDbEntity
  8
0
100
AcDbLine
 10
289.7347622280784
 20
181.9738169404669
 30
0.0
 11
289.7347622280784
 21
235.2238169404667
 31
0.0
  0
LINE
  5
882
330
1F
100
AcDbEntity
  8
0
100
AcDbLine
 10
287.7347622280784
 20
300.7238169404668
 30
0.0
 11
289.7347622280784
 21
300.7238169404668
 31
0.0
  0
LINE
  5
883
330
1F
100
AcDbEntity
  8
0
100
AcDbLine
 10
287.7347622280784
 20
235.2238169404667
 30
0.0
 11
289.7347622280784
 21
235.2238169404667
 31
0.0
  0
LINE
  5
884
330
1F
100
AcDbEntity
  8
0
100
AcDbLine
 10
287.7347622280784
 20
183.9738169404669
 30
0.0
 11
289.7347622280784
 21
183.9738169404669
 31
0.0
  0
LINE
  5
885
330
1F
100
AcDbEntity
  8
0
100
AcDbLine
 10
287.7347622280784
 20
300.7238169404668
 30
0.0
 11
287.7347622280784
 21
353.9738169404668
 31
0.0
  0
LINE
  5
886
330
1F
100
AcDbEntity
  8
0
100
AcDbLine
 10
289.7347622280784
 20
300.7238169404668
 30
0.0
 11
289.7347622280784
 21
353.9738169404668
 31
0.0
  0
LINE
  5
887
330
1F
100
AcDbEntity
  8
0
100
AcDbLine
 10
294.7347622280783
 20
351.9738169404668
 30
0.0
 11
296.7347622280783
 21
351.9738169404668
 31
0.0
  0
LINE
  5
888
330
1F
100
AcDbEntity
  8
0
100
AcDbLine
 10
294.7347622280783
 20
181.9738169404669
 30
0.0
 11
294.7347622280783
 21
235.2238169404667
 31
0.0
  0
LINE
  5
889
330
1F
100
AcDbEntity
  8
0
100
AcDbLine
 10
296.7347622280783
 20
181.9738169404669
 30
0.0
 11
296.7347622280783
 21
235.2238169404667
 31
0.0
  0
LINE
  5
88A
330
1F
100
AcDbEntity
  8
0
100
AcDbLine
 10
294.7347622280783
 20
300.7238169404668
 30
0.0
 11
296.7347622280783
 21
300.7238169404668
 31
0.0
  0
LINE
  5
88B
330
1F
100
AcDbEntity
  8
0
100
AcDbLine
 10
294.7347622280783
 20
235.2238169404667
 30
0.0
 11
296.7347622280783
 21
235.2238169404667
 31
0.0
  0
LINE
  5
88C
330
1F
100
AcDbEntity
  8
0
100
AcDbLine
 10
294.7347622280783
 20
183.9738169404669
 30
0.0
 11
296.7347622280783
 21
183.9738169404669
 31
0.0
  0
LINE
  5
88D
330
1F
100
AcDbEntity
  8
0
100
AcDbLine
 10
294.7347622280783
 20
300.7238169404668
 30
0.0
 11
294.7347622280783
 21
353.9738169404668
 31
0.0
  0
LINE
  5
88E
330
1F
100
AcDbEntity
  8
0
100
AcDbLine
 10
296.7347622280783
 20
300.7238169404668
 30
0.0
 11
296.7347622280783
 21
353.9738169404668
 31
0.0
  0
LINE
  5
88F
330
1F
100
AcDbEntity
  8
0
100
AcDbLine
 10
301.7347622280782
 20
351.9738169404668
 30
0.0
 11
303.7347622280784
 21
351.9738169404668
 31
0.0
  0
LINE
  5
890
330
1F
100
AcDbEntity
  8
0
100
AcDbLine
 10
301.7347622280782
 20
181.9738169404669
 30
0.0
 11
301.7347622280782
 21
235.2238169404667
 31
0.0
  0
LINE
  5
891
330
1F
100
AcDbEntity
  8
0
100
AcDbLine
 10
303.7347622280784
 20
181.9738169404669
 30
0.0
 11
303.7347622280784
 21
235.2238169404667
 31
0.0
  0
LINE
  5
892
330
1F
100
AcDbEntity
  8
0
100
AcDbLine
 10
301.7347622280782
 20
300.7238169404668
 30
0.0
 11
303.7347622280784
 21
300.7238169404668
 31
0.0
  0
LINE
  5
893
330
1F
100
AcDbEntity
  8
0
100
AcDbLine
 10
301.7347622280782
 20
235.2238169404667
 30
0.0
 11
303.7347622280784
 21
235.2238169404667
 31
0.0
  0
LINE
  5
894
330
1F
100
AcDbEntity
  8
0
100
AcDbLine
 10
301.7347622280782
 20
183.9738169404669
 30
0.0
 11
303.7347622280784
 21
183.9738169404669
 31
0.0
  0
LINE
  5
895
330
1F
100
AcDbEntity
  8
0
100
AcDbLine
 10
301.7347622280782
 20
300.7238169404668
 30
0.0
 11
301.7347622280782
 21
353.9738169404668
 31
0.0
  0
LINE
  5
896
330
1F
100
AcDbEntity
  8
0
100
AcDbLine
 10
303.7347622280784
 20
300.7238169404668
 30
0.0
 11
303.7347622280784
 21
353.9738169404668
 31
0.0
  0
LINE
  5
897
330
1F
100
AcDbEntity
  8
0
100
AcDbLine
 10
231.7347622280784
 20
329.4738169404668
 30
0.0
 11
233.7347622280783
 21
329.4738169404668
 31
0.0
  0
LINE
  5
898
330
1F
100
AcDbEntity
  8
0
100
AcDbLine
 10
231.7347622280784
 20
326.4738169404667
 30
0.0
 11
233.7347622280783
 21
326.4738169404667
 31
0.0
  0
LINE
  5
899
330
1F
100
AcDbEntity
  8
0
100
AcDbLine
 10
231.7347622280784
 20
209.4738169404664
 30
0.0
 11
233.7347622280783
 21
209.4738169404664
 31
0.0
  0
LINE
  5
89A
330
1F
100
AcDbEntity
  8
0
100
AcDbLine
 10
231.7347622280784
 20
206.4738169404669
 30
0.0
 11
233.7347622280783
 21
206.4738169404669
 31
0.0
  0
LINE
  5
89B
330
1F
100
AcDbEntity
  8
0
100
AcDbLine
 10
238.7347622280784
 20
329.4738169404668
 30
0.0
 11
240.7347622280784
 21
329.4738169404668
 31
0.0
  0
LINE
  5
89C
330
1F
100
AcDbEntity
  8
0
100
AcDbLine
 10
238.7347622280784
 20
326.4738169404667
 30
0.0
 11
240.7347622280784
 21
326.4738169404667
 31
0.0
  0
LINE
  5
89D
330
1F
100
AcDbEntity
  8
0
100
AcDbLine
 10
238.7347622280784
 20
209.4738169404664
 30
0.0
 11
240.7347622280784
 21
209.4738169404664
 31
0.0
  0
LINE
  5
89E
330
1F
100
AcDbEntity
  8
0
100
AcDbLine
 10
238.7347622280784
 20
206.4738169404669
 30
0.0
 11
240.7347622280784
 21
206.4738169404669
 31
0.0
  0
LINE
  5
89F
330
1F
100
AcDbEntity
  8
0
100
AcDbLine
 10
245.734762228078
 20
329.4738169404668
 30
0.0
 11
247.7347622280784
 21
329.4738169404668
 31
0.0
  0
LINE
  5
8A0
330
1F
100
AcDbEntity
  8
0
100
AcDbLine
 10
245.734762228078
 20
326.4738169404667
 30
0.0
 11
247.7347622280784
 21
326.4738169404667
 31
0.0
  0
LINE
  5
8A1
330
1F
100
AcDbEntity
  8
0
100
AcDbLine
 10
245.734762228078
 20
209.4738169404664
 30
0.0
 11
247.7347622280784
 21
209.4738169404664
 31
0.0
  0
LINE
  5
8A2
330
1F
100
AcDbEntity
  8
0
100
AcDbLine
 10
245.734762228078
 20
206.4738169404669
 30
0.0
 11
247.7347622280784
 21
206.4738169404669
 31
0.0
  0
LINE
  5
8A3
330
1F
100
AcDbEntity
  8
0
100
AcDbLine
 10
252.7347622280784
 20
329.4738169404668
 30
0.0
 11
254.7347622280784
 21
329.4738169404668
 31
0.0
  0
LINE
  5
8A4
330
1F
100
AcDbEntity
  8
0
100
AcDbLine
 10
252.7347622280784
 20
326.4738169404667
 30
0.0
 11
254.7347622280784
 21
326.4738169404667
 31
0.0
  0
LINE
  5
8A5
330
1F
100
AcDbEntity
  8
0
100
AcDbLine
 10
252.7347622280784
 20
209.4738169404664
 30
0.0
 11
254.7347622280784
 21
209.4738169404664
 31
0.0
  0
LINE
  5
8A6
330
1F
100
AcDbEntity
  8
0
100
AcDbLine
 10
252.7347622280784
 20
206.4738169404669
 30
0.0
 11
254.7347622280784
 21
206.4738169404669
 31
0.0
  0
LINE
  5
8A7
330
1F
100
AcDbEntity
  8
0
100
AcDbLine
 10
259.7347622280784
 20
329.4738169404668
 30
0.0
 11
261.734762228078
 21
329.4738169404668
 31
0.0
  0
LINE
  5
8A8
330
1F
100
AcDbEntity
  8
0
100
AcDbLine
 10
259.7347622280784
 20
326.4738169404667
 30
0.0
 11
261.734762228078
 21
326.4738169404667
 31
0.0
  0
LINE
  5
8A9
330
1F
100
AcDbEntity
  8
0
100
AcDbLine
 10
259.7347622280784
 20
209.4738169404664
 30
0.0
 11
261.734762228078
 21
209.4738169404664
 31
0.0
  0
LINE
  5
8AA
330
1F
100
AcDbEntity
  8
0
100
AcDbLine
 10
259.7347622280784
 20
206.4738169404669
 30
0.0
 11
261.734762228078
 21
206.4738169404669
 31
0.0
  0
LINE
  5
8AB
330
1F
100
AcDbEntity
  8
0
100
AcDbLine
 10
266.734762228078
 20
329.4738169404668
 30
0.0
 11
268.734762228078
 21
329.4738169404668
 31
0.0
  0
LINE
  5
8AC
330
1F
100
AcDbEntity
  8
0
100
AcDbLine
 10
266.734762228078
 20
326.4738169404667
 30
0.0
 11
268.734762228078
 21
326.4738169404667
 31
0.0
  0
LINE
  5
8AD
330
1F
100
AcDbEntity
  8
0
100
AcDbLine
 10
266.734762228078
 20
209.4738169404664
 30
0.0
 11
268.734762228078
 21
209.4738169404664
 31
0.0
  0
LINE
  5
8AE
330
1F
100
AcDbEntity
  8
0
100
AcDbLine
 10
266.734762228078
 20
206.4738169404669
 30
0.0
 11
268.734762228078
 21
206.4738169404669
 31
0.0
  0
LINE
  5
8AF
330
1F
100
AcDbEntity
  8
0
100
AcDbLine
 10
273.7347622280783
 20
329.4738169404668
 30
0.0
 11
275.7347622280783
 21
329.4738169404668
 31
0.0
  0
LINE
  5
8B0
330
1F
100
AcDbEntity
  8
0
100
AcDbLine
 10
273.7347622280783
 20
326.4738169404667
 30
0.0
 11
275.7347622280783
 21
326.4738169404667
 31
0.0
  0
LINE
  5
8B1
330
1F
100
AcDbEntity
  8
0
100
AcDbLine
 10
273.7347622280783
 20
209.4738169404664
 30
0.0
 11
275.7347622280783
 21
209.4738169404664
 31
0.0
  0
LINE
  5
8B2
330
1F
100
AcDbEntity
  8
0
100
AcDbLine
 10
273.7347622280783
 20
206.4738169404669
 30
0.0
 11
275.7347622280783
 21
206.4738169404669
 31
0.0
  0
LINE
  5
8B3
330
1F
100
AcDbEntity
  8
0
100
AcDbLine
 10
280.7347622280784
 20
329.4738169404668
 30
0.0
 11
282.7347622280782
 21
329.4738169404668
 31
0.0
  0
LINE
  5
8B4
330
1F
100
AcDbEntity
  8
0
100
AcDbLine
 10
280.7347622280784
 20
326.4738169404667
 30
0.0
 11
282.7347622280782
 21
326.4738169404667
 31
0.0
  0
LINE
  5
8B5
330
1F
100
AcDbEntity
  8
0
100
AcDbLine
 10
280.7347622280784
 20
209.4738169404664
 30
0.0
 11
282.7347622280782
 21
209.4738169404664
 31
0.0
  0
LINE
  5
8B6
330
1F
100
AcDbEntity
  8
0
100
AcDbLine
 10
280.7347622280784
 20
206.4738169404669
 30
0.0
 11
282.7347622280782
 21
206.4738169404669
 31
0.0
  0
LINE
  5
8B7
330
1F
100
AcDbEntity
  8
0
100
AcDbLine
 10
287.7347622280784
 20
329.4738169404668
 30
0.0
 11
289.7347622280784
 21
329.4738169404668
 31
0.0
  0
LINE
  5
8B8
330
1F
100
AcDbEntity
  8
0
100
AcDbLine
 10
287.7347622280784
 20
326.4738169404667
 30
0.0
 11
289.7347622280784
 21
326.4738169404667
 31
0.0
  0
LINE
  5
8B9
330
1F
100
AcDbEntity
  8
0
100
AcDbLine
 10
287.7347622280784
 20
209.4738169404664
 30
0.0
 11
289.7347622280784
 21
209.4738169404664
 31
0.0
  0
LINE
  5
8BA
330
1F
100
AcDbEntity
  8
0
100
AcDbLine
 10
287.7347622280784
 20
206.4738169404669
 30
0.0
 11
289.7347622280784
 21
206.4738169404669
 31
0.0
  0
LINE
  5
8BB
330
1F
100
AcDbEntity
  8
0
100
AcDbLine
 10
294.7347622280783
 20
329.4738169404668
 30
0.0
 11
296.7347622280783
 21
329.4738169404668
 31
0.0
  0
LINE
  5
8BC
330
1F
100
AcDbEntity
  8
0
100
AcDbLine
 10
294.7347622280783
 20
326.4738169404667
 30
0.0
 11
296.7347622280783
 21
326.4738169404667
 31
0.0
  0
LINE
  5
8BD
330
1F
100
AcDbEntity
  8
0
100
AcDbLine
 10
294.7347622280783
 20
209.4738169404664
 30
0.0
 11
296.7347622280783
 21
209.4738169404664
 31
0.0
  0
LINE
  5
8BE
330
1F
100
AcDbEntity
  8
0
100
AcDbLine
 10
294.7347622280783
 20
206.4738169404669
 30
0.0
 11
296.7347622280783
 21
206.4738169404669
 31
0.0
  0
LINE
  5
8BF
330
1F
100
AcDbEntity
  8
0
100
AcDbLine
 10
301.7347622280782
 20
329.4738169404668
 30
0.0
 11
303.7347622280784
 21
329.4738169404668
 31
0.0
  0
LINE
  5
8C0
330
1F
100
AcDbEntity
  8
0
100
AcDbLine
 10
301.7347622280782
 20
326.4738169404667
 30
0.0
 11
303.7347622280784
 21
326.4738169404667
 31
0.0
  0
LINE
  5
8C1
330
1F
100
AcDbEntity
  8
0
100
AcDbLine
 10
301.7347622280782
 20
209.4738169404664
 30
0.0
 11
303.7347622280784
 21
209.4738169404664
 31
0.0
  0
LINE
  5
8C2
330
1F
100
AcDbEntity
  8
0
100
AcDbLine
 10
301.7347622280782
 20
206.4738169404669
 30
0.0
 11
303.7347622280784
 21
206.4738169404669
 31
0.0
  0
LINE
  5
8C3
330
1F
100
AcDbEntity
  8
0
100
AcDbLine
 10
281.7347622280784
 20
181.9738169404669
 30
0.0
 11
281.7347622280773
 21
181.4738169404669
 31
0.0
  0
LINE
  5
8C4
330
1F
100
AcDbEntity
  8
0
100
AcDbLine
 10
226.7347622280784
 20
181.4738169404669
 30
0.0
 11
281.7347622280784
 21
181.4738169404669
 31
0.0
  0
LINE
  5
8C5
330
1F
100
AcDbEntity
  8
0
100
AcDbLine
 10
327.1226160712452
 20
180.9738169404669
 30
0.0
 11
327.1226160712466
 21
354.9738169404668
 31
0.0
  0
LINE
  5
8C6
330
1F
100
AcDbEntity
  8
0
100
AcDbLine
 10
206.3347622280784
 20
221.6738176741571
 30
0.0
 11
206.3347622280784
 21
201.4738176741571
 31
0.0
  0
LINE
  5
8C7
330
1F
100
AcDbEntity
  8
0
100
AcDbLine
 10
207.2347622280783
 20
197.9738176741569
 30
0.0
 11
206.7347622280784
 21
198.4738176741571
 31
0.0
  0
LINE
  5
8C8
330
1F
100
AcDbEntity
  8
0
100
AcDbLine
 10
206.7347622280784
 20
199.3738176741569
 30
0.0
 11
206.7347622280784
 21
198.4738176741571
 31
0.0
  0
LINE
  5
8C9
330
1F
100
AcDbEntity
  8
0
100
AcDbLine
 10
208.0347622280785
 20
197.9738176741569
 30
0.0
 11
207.2347622280783
 21
197.9738176741569
 31
0.0
  0
ARC
  5
8CA
330
1F
100
AcDbEntity
  8
0
100
AcDbCircle
 10
207.7347622280785
 20
199.3738176741569
 30
0.0
 40
1.0
100
AcDbArc
 50
90.0
 51
180.0
  0
LINE
  5
8CB
330
1F
100
AcDbEntity
  8
0
100
AcDbLine
 10
209.7347622280784
 20
200.373817674157
 30
0.0
 11
207.7347622280785
 21
200.373817674157
 31
0.0
  0
LINE
  5
8CC
330
1F
100
AcDbEntity
  8
0
100
AcDbLine
 10
209.7347622280784
 20
199.1738176741571
 30
0.0
 11
208.0347622280785
 21
199.1738176741571
 31
0.0
  0
LINE
  5
8CD
330
1F
100
AcDbEntity
  8
0
100
AcDbLine
 10
209.7347622280784
 20
201.4738176741571
 30
0.0
 11
206.3347622280784
 21
201.4738176741571
 31
0.0
  0
LINE
  5
8CE
330
1F
100
AcDbEntity
  8
0
100
AcDbLine
 10
208.0347622280785
 20
197.9738176741569
 30
0.0
 11
208.0347622280785
 21
199.1738176741571
 31
0.0
  0
LINE
  5
8CF
330
1F
100
AcDbEntity
  8
0
100
AcDbLine
 10
207.2347622280787
 20
225.1738176741572
 30
0.0
 11
206.7347622280788
 21
224.6738176741573
 31
0.0
  0
LINE
  5
8D0
330
1F
100
AcDbEntity
  8
0
100
AcDbLine
 10
206.7347622280788
 20
224.6738176741573
 30
0.0
 11
206.7347622280788
 21
223.773817674157
 31
0.0
  0
LINE
  5
8D1
330
1F
100
AcDbEntity
  8
0
100
AcDbLine
 10
208.0347622280785
 20
225.1738176741572
 30
0.0
 11
207.2347622280787
 21
225.1738176741572
 31
0.0
  0
ARC
  5
8D2
330
1F
100
AcDbEntity
  8
0
100
AcDbCircle
 10
207.7347622280788
 20
223.7738176741573
 30
0.0
 40
1.0
100
AcDbArc
 50
180.0
 51
270.0
  0
LINE
  5
8D3
330
1F
100
AcDbEntity
  8
0
100
AcDbLine
 10
209.7347622280784
 20
222.7738176741572
 30
0.0
 11
207.7347622280788
 21
222.7738176741572
 31
0.0
  0
LINE
  5
8D4
330
1F
100
AcDbEntity
  8
0
100
AcDbLine
 10
206.3347622280784
 20
221.6738176741571
 30
0.0
 11
209.7347622280784
 21
221.6738176741571
 31
0.0
  0
LINE
  5
8D5
330
1F
100
AcDbEntity
  8
0
100
AcDbLine
 10
209.7347622280784
 20
223.9738176741571
 30
0.0
 11
208.0347622280784
 21
223.9738176741571
 31
0.0
  0
LINE
  5
8D6
330
1F
100
AcDbEntity
  8
0
100
AcDbLine
 10
208.0347622280785
 20
223.9738176741571
 30
0.0
 11
208.0347622280785
 21
225.1738176741572
 31
0.0
  0
LINE
  5
8D7
330
1F
100
AcDbEntity
  8
0
100
AcDbLine
 10
209.7347622280784
 20
185.9738176741569
 30
0.0
 11
207.2347622280783
 21
185.9738176741569
 31
0.0
  0
LINE
  5
8D8
330
1F
100
AcDbEntity
  8
0
100
AcDbLine
 10
207.2347622280783
 20
185.9738176741569
 30
0.0
 11
207.2347622280783
 21
191.4738176741569
 31
0.0
  0
LINE
  5
8D9
330
1F
100
AcDbEntity
  8
0
100
AcDbLine
 10
207.2347622280783
 20
191.4738176741569
 30
0.0
 11
209.7347622280784
 21
191.4738176741569
 31
0.0
  0
LINE
  5
8DA
330
1F
100
AcDbEntity
  8
0
100
AcDbLine
 10
209.7347622280784
 20
226.6138169404669
 30
0.0
 11
208.7347622280783
 21
226.6138169404669
 31
0.0
  0
LINE
  5
8DB
330
1F
100
AcDbEntity
  8
0
100
AcDbLine
 10
208.7347622280783
 20
226.6138169404669
 30
0.0
 11
208.7347622280783
 21
223.9738176741571
 31
0.0
  0
LINE
  5
8DC
330
1F
100
AcDbEntity
  8
0
100
AcDbLine
 10
203.1347622280783
 20
276.9738169404669
 30
0.0
 11
207.7347622280785
 21
276.9738169404669
 31
0.0
  0
LINE
  5
8DD
330
1F
100
AcDbEntity
  8
0
100
AcDbLine
 10
209.7347622280784
 20
301.133816940467
 30
0.0
 11
203.1347622280783
 21
301.133816940467
 31
0.0
  0
LINE
  5
8DE
330
1F
100
AcDbEntity
  8
0
100
AcDbLine
 10
203.1347622280783
 20
301.133816940467
 30
0.0
 11
203.1347622280783
 21
276.9738169404669
 31
0.0
  0
LINE
  5
8DF
330
1F
100
AcDbEntity
  8
0
100
AcDbLine
 10
204.4347622280783
 20
235.8138169404669
 30
0.0
 11
204.4347622280783
 21
264.2738169404669
 31
0.0
  0
LINE
  5
8E0
330
1F
100
AcDbEntity
  8
0
100
AcDbLine
 10
204.4347622280783
 20
239.9238169404668
 30
0.0
 11
208.734762228078
 21
239.9238169404668
 31
0.0
  0
LINE
  5
8E1
330
1F
100
AcDbEntity
  8
0
100
AcDbLine
 10
208.734762228078
 20
235.8138169404669
 30
0.0
 11
204.4347622280783
 21
235.8138169404669
 31
0.0
  0
LINE
  5
8E2
330
1F
100
AcDbEntity
  8
0
100
AcDbLine
 10
204.4347622280783
 20
260.1638169404669
 30
0.0
 11
209.7347622280784
 21
260.1638169404669
 31
0.0
  0
LINE
  5
8E3
330
1F
100
AcDbEntity
  8
0
100
AcDbLine
 10
204.4347622280783
 20
255.1638169404669
 30
0.0
 11
209.7347622280784
 21
255.1638169404669
 31
0.0
  0
LINE
  5
8E4
330
1F
100
AcDbEntity
  8
0
100
AcDbLine
 10
204.4347622280783
 20
247.5438169404668
 30
0.0
 11
209.7347622280784
 21
247.5438169404668
 31
0.0
  0
LINE
  5
8E5
330
1F
100
AcDbEntity
  8
0
100
AcDbLine
 10
204.4347622280783
 20
252.5438169404669
 30
0.0
 11
209.7347622280784
 21
252.5438169404667
 31
0.0
  0
LINE
  5
8E6
330
1F
100
AcDbEntity
  8
0
100
AcDbLine
 10
204.4347622280783
 20
244.9238169404669
 30
0.0
 11
208.9347622280785
 21
244.9238169404669
 31
0.0
  0
LINE
  5
8E7
330
1F
100
AcDbEntity
  8
0
100
AcDbLine
 10
208.9347622280785
 20
264.2738169404669
 30
0.0
 11
204.4347622280783
 21
264.2738169404669
 31
0.0
  0
LINE
  5
8E8
330
1F
100
AcDbEntity
  8
0
100
AcDbLine
 10
252.7347622280784
 20
351.9738169404668
 30
0.0
 11
254.7347622280784
 21
351.9738169404668
 31
0.0
  0
LINE
  5
8E9
330
1F
100
AcDbEntity
  8
0
100
AcDbLine
 10
325.7347622280773
 20
354.9738169404668
 30
0.0
 11
325.7347622280773
 21
364.9738169404668
 31
0.0
  0
LINE
  5
8EA
330
1F
100
AcDbEntity
  8
0
100
AcDbLine
 10
209.734762228078
 20
180.9738169404669
 30
0.0
 11
327.1226160712461
 21
180.9738169404669
 31
0.0
  0
LINE
  5
8F2
330
1F
100
AcDbEntity
  8
0
100
AcDbLine
 10
208.7347622280783
 20
222.7738176741572
 30
0.0
 11
208.7347622280783
 21
221.6738176741571
 31
0.0
  0
LINE
  5
8F3
330
1F
100
AcDbEntity
  8
0
100
AcDbLine
 10
208.7347622280783
 20
201.4738176741571
 30
0.0
 11
208.7347622280783
 21
200.373817674157
 31
0.0
  0
LINE
  5
8F4
330
1F
100
AcDbEntity
  8
0
100
AcDbLine
 10
208.734762228078
 20
199.1738176741571
 30
0.0
 11
208.7347622280783
 21
191.4738176741569
 31
0.0
  0
LINE
  5
8F5
330
1F
100
AcDbEntity
  8
0
100
AcDbLine
 10
209.7347622280784
 20
322.4138169404668
 30
0.0
 11
208.7304002872273
 21
322.4138169404668
 31
0.0
  0
LINE
  5
8F6
330
1F
100
AcDbEntity
  8
0
100
AcDbLine
 10
209.7347622280784
 20
233.1738176741573
 30
0.0
 11
208.7347622280783
 21
233.1738176741573
 31
0.0
  0
LINE
  5
8F7
330
1F
100
AcDbEntity
  8
0
100
AcDbLine
 10
208.7347622280783
 20
233.1738176741573
 30
0.0
 11
208.734762228078
 21
241.5738176741573
 31
0.0
  0
LINE
  5
8F8
330
1F
100
AcDbEntity
  8
0
100
AcDbLine
 10
208.734762228078
 20
241.5738176741573
 30
0.0
 11
209.7347622280784
 21
241.5738176741573
 31
0.0
  0
LINE
  5
8F9
330
1F
100
AcDbEntity
  8
0
100
AcDbLine
 10
209.7347622280784
 20
243.073817674157
 30
0.0
 11
208.9347622280785
 21
243.073817674157
 31
0.0
  0
LINE
  5
8FA
330
1F
100
AcDbEntity
  8
0
100
AcDbLine
 10
208.9347622280785
 20
243.073817674157
 30
0.0
 11
208.9347622280785
 21
246.0738176741573
 31
0.0
  0
LINE
  5
8FB
330
1F
100
AcDbEntity
  8
0
100
AcDbLine
 10
208.9347622280785
 20
246.0738176741573
 30
0.0
 11
209.7347622280784
 21
246.0738176741573
 31
0.0
  0
LINE
  5
8FC
330
1F
100
AcDbEntity
  8
0
100
AcDbLine
 10
209.7347622280784
 20
263.0738176741571
 30
0.0
 11
208.9347622280785
 21
263.0738176741571
 31
0.0
  0
LINE
  5
8FD
330
1F
100
AcDbEntity
  8
0
100
AcDbLine
 10
208.9347622280785
 20
263.0738176741571
 30
0.0
 11
208.9347622280785
 21
266.073817674157
 31
0.0
  0
LINE
  5
8FE
330
1F
100
AcDbEntity
  8
0
100
AcDbLine
 10
208.9347622280785
 20
266.073817674157
 30
0.0
 11
209.7347622280784
 21
266.073817674157
 31
0.0
  0
LINE
  5
8FF
330
1F
100
AcDbEntity
  8
0
  6
CONTINUOUS
100
AcDbLine
 10
208.7304002872273
 20
322.4138169404668
 30
0.0
 11
208.7304002872273
 21
307.0138169404668
 31
0.0
  0
LINE
  5
900
330
1F
100
AcDbEntity
  8
0
  6
CONTINUOUS
100
AcDbLine
 10
208.7304002872273
 20
307.0138169404668
 30
0.0
 11
209.7347622280784
 21
307.0138169404668
 31
0.0
  0
LWPOLYLINE
  5
901
330
1F
100
AcDbEntity
  8
0
100
AcDbPolyline
 90
        4
 70
     1
 43
0.0
 10
207.7347622280785
 20
306.9047603448906
 10
209.7347622280785
 20
306.9047603448906
 10
209.7347622280785
 20
301.8818130029406
 10
207.7347622280785
 20
301.8818130029406
  0
LWPOLYLINE
  5
902
330
1F
100
AcDbEntity
  8
0
100
AcDbPolyline
 90
        4
 70
     1
 43
0.0
 10
207.7347622280785
 20
281.9153265029401
 10
209.7347622280785
 20
281.9153265029401
 10
209.7347622280785
 20
276.8923791609901
 10
207.7347622280785
 20
276.8923791609901
  0
LWPOLYLINE
  5
903
330
1F
100
AcDbEntity
  8
0
100
AcDbPolyline
 90
        4
 70
     1
 43
0.0
 10
207.7347622280785
 20
299.2422828029406
 10
209.7347622280785
 20
299.2422828029406
 10
209.7347622280785
 20
284.5552247175811
 10
207.7347622280785
 20
284.5552247175811
  0
LINE
  5
A4F
330
1F
100
AcDbEntity
  8
2_カバ_
  6
DASHDOT
100
AcDbLine
 10
89.34602261496092
 20
81.97381694046788
 30
0.0
 11
78.78487664192992
 21
81.97381694046788
 31
0.0
  0
CIRCLE
  5
A50
330
1F
100
AcDbEntity
  8
2_カバ_
  6
CONTINUOUS
100
AcDbCircle
 10
86.68454962301487
 20
81.97381694046788
 30
0.0
 40
1.25
  0
LINE
  5
A51
330
1F
100
AcDbEntity
  8
2_カバ_
  6
CONTINUOUS
100
AcDbLine
 10
67.18454962301492
 20
103.9738169404668
 30
0.0
 11
109.1845496230147
 21
103.9738169404668
 31
0.0
  0
LINE
  5
A52
330
1F
100
AcDbEntity
  8
2_カバ_
  6
CONTINUOUS
100
AcDbLine
 10
108.1845496230149
 20
98.97381694046687
 30
0.0
 11
67.18454962301492
 21
98.97381694046687
 31
0.0
  0
LINE
  5
A53
330
1F
100
AcDbEntity
  8
2_カバ_
  6
CONTINUOUS
100
AcDbLine
 10
108.1845496230149
 20
96.97381694046688
 30
0.0
 11
67.18454962301492
 21
96.97381694046688
 31
0.0
  0
LINE
  5
A54
330
1F
100
AcDbEntity
  8
2_カバ_
  6
CONTINUOUS
100
AcDbLine
 10
108.1845496230149
 20
70.97381694046688
 30
0.0
 11
67.1845496230149
 21
70.97381694046688
 31
0.0
  0
LINE
  5
A55
330
1F
100
AcDbEntity
  8
2_カバ_
  6
CONTINUOUS
100
AcDbLine
 10
108.1845496230149
 20
68.9738169404669
 30
0.0
 11
67.1845496230149
 21
68.9738169404669
 31
0.0
  0
LINE
  5
A56
330
1F
100
AcDbEntity
  8
2_カバ_
  6
CONTINUOUS
100
AcDbLine
 10
108.1845496230149
 20
63.97381694046688
 30
0.0
 11
67.1845496230149
 21
63.97381694046785
 31
0.0
  0
LINE
  5
A57
330
1F
100
AcDbEntity
  8
2_カバ_
  6
CONTINUOUS
100
AcDbLine
 10
108.1845496230149
 20
61.97381694046688
 30
0.0
 11
67.1845496230149
 21
61.97381694046688
 31
0.0
  0
LINE
  5
A58
330
1F
100
AcDbEntity
  8
2_カバ_
  6
CONTINUOUS
100
AcDbLine
 10
108.1845496230149
 20
56.97381694046688
 30
0.0
 11
67.1845496230149
 21
56.97381694046688
 31
0.0
  0
LINE
  5
A59
330
1F
100
AcDbEntity
  8
2_カバ_
  6
CONTINUOUS
100
AcDbLine
 10
108.1845496230149
 20
54.97381694046689
 30
0.0
 11
67.1845496230149
 21
54.97381694046689
 31
0.0
  0
LINE
  5
A5A
330
1F
100
AcDbEntity
  8
2_カバ_
  6
CONTINUOUS
100
AcDbLine
 10
105.6845496230149
 20
48.97381694046689
 30
0.0
 11
84.68454962301489
 21
48.97381694046689
 31
0.0
  0
LINE
  5
A5B
330
1F
100
AcDbEntity
  8
2_カバ_
  6
CONTINUOUS
100
AcDbLine
 10
84.68454962301489
 20
63.97381694046688
 30
0.0
 11
84.68454962301489
 21
68.9738169404669
 31
0.0
  0
LINE
  5
A5C
330
1F
100
AcDbEntity
  8
2_カバ_
  6
CONTINUOUS
100
AcDbLine
 10
84.18454962301487
 20
49.97381694046689
 30
0.0
 11
67.1845496230149
 21
49.97381694046689
 31
0.0
  0
LINE
  5
A5D
330
1F
100
AcDbEntity
  8
2_カバ_
  6
CONTINUOUS
100
AcDbLine
 10
84.18454962301487
 20
47.97381694046689
 30
0.0
 11
67.1845496230149
 21
47.97381694046689
 31
0.0
  0
LINE
  5
A5E
330
1F
100
AcDbEntity
  8
2_カバ_
  6
CONTINUOUS
100
AcDbLine
 10
84.68454962301489
 20
48.97381694046689
 30
0.0
 11
84.68454962301489
 21
54.97381694046689
 31
0.0
  0
LINE
  5
A5F
330
1F
100
AcDbEntity
  8
2_カバ_
  6
CONTINUOUS
100
AcDbLine
 10
84.18454962301487
 20
47.97381694046689
 30
0.0
 11
84.18454962301487
 21
49.97381694046689
 31
0.0
  0
LINE
  5
A60
330
1F
100
AcDbEntity
  8
2_カバ_
  6
CONTINUOUS
100
AcDbLine
 10
84.68454962301489
 20
56.97381694046688
 30
0.0
 11
84.68454962301489
 21
61.97381694046688
 31
0.0
  0
LINE
  5
A61
330
1F
100
AcDbEntity
  8
2_カバ_
  6
CONTINUOUS
100
AcDbLine
 10
84.18454962301487
 20
91.97381694046688
 30
0.0
 11
67.18454962301492
 21
91.97381694046688
 31
0.0
  0
LINE
  5
A62
330
1F
100
AcDbEntity
  8
2_カバ_
  6
CONTINUOUS
100
AcDbLine
 10
84.18454962301487
 20
89.97381694046687
 30
0.0
 11
67.18454962301492
 21
89.97381694046687
 31
0.0
  0
LINE
  5
A63
330
1F
100
AcDbEntity
  8
2_カバ_
  6
CONTINUOUS
100
AcDbLine
 10
84.18454962301487
 20
84.97381694046689
 30
0.0
 11
67.18454962301492
 21
84.97381694046689
 31
0.0
  0
LINE
  5
A64
330
1F
100
AcDbEntity
  8
2_カバ_
  6
CONTINUOUS
100
AcDbLine
 10
84.18454962301487
 20
82.9738169404669
 30
0.0
 11
67.18454962301492
 21
82.9738169404669
 31
0.0
  0
LINE
  5
A65
330
1F
100
AcDbEntity
  8
2_カバ_
  6
CONTINUOUS
100
AcDbLine
 10
84.18454962301487
 20
77.97381694046689
 30
0.0
 11
67.18454962301492
 21
77.97381694046689
 31
0.0
  0
LINE
  5
A66
330
1F
100
AcDbEntity
  8
2_カバ_
  6
CONTINUOUS
100
AcDbLine
 10
84.18454962301487
 20
75.97381694046688
 30
0.0
 11
67.18454962301492
 21
75.97381694046688
 31
0.0
  0
LINE
  5
A67
330
1F
100
AcDbEntity
  8
2_カバ_
  6
CONTINUOUS
100
AcDbLine
 10
84.18454962301487
 20
82.9738169404669
 30
0.0
 11
84.18454962301487
 21
84.97381694046689
 31
0.0
  0
LINE
  5
A68
330
1F
100
AcDbEntity
  8
2_カバ_
  6
CONTINUOUS
100
AcDbLine
 10
84.68454962301489
 20
70.97381694046688
 30
0.0
 11
84.68454962301489
 21
96.97381694046688
 31
0.0
  0
LINE
  5
A69
330
1F
100
AcDbEntity
  8
2_カバ_
  6
DASHDOT
100
AcDbLine
 10
86.68454962301487
 20
85.10321751685589
 30
0.0
 11
86.68454962301487
 21
79.01837618313584
 31
0.0
  0
LINE
  5
A6A
330
1F
100
AcDbEntity
  8
2_カバ_
  6
CONTINUOUS
100
AcDbLine
 10
84.18454962301487
 20
75.97381694046688
 30
0.0
 11
84.18454962301487
 21
77.97381694046689
 31
0.0
  0
LINE
  5
A6B
330
1F
100
AcDbEntity
  8
2_カバ_
  6
CONTINUOUS
100
AcDbLine
 10
84.18454962301487
 20
89.97381694046687
 30
0.0
 11
84.18454962301487
 21
91.97381694046688
 31
0.0
  0
LINE
  5
A6C
330
1F
100
AcDbEntity
  8
2_カバ_
  6
CONTINUOUS
100
AcDbLine
 10
84.68454962301489
 20
98.97381694046687
 30
0.0
 11
84.68454962301489
 21
103.9738169404668
 31
0.0
  0
LINE
  5
A6D
330
1F
100
AcDbEntity
  8
2_カバ_
  6
CONTINUOUS
100
AcDbLine
 10
105.6845496230149
 20
68.9738169404669
 30
0.0
 11
105.6845496230149
 21
63.97381694046688
 31
0.0
  0
LINE
  5
A6E
330
1F
100
AcDbEntity
  8
2_カバ_
  6
CONTINUOUS
100
AcDbLine
 10
100.1845496230149
 20
53.47381694046688
 30
0.0
 11
90.18454962301488
 21
53.47381694046688
 31
0.0
  0
LINE
  5
A6F
330
1F
100
AcDbEntity
  8
2_カバ_
  6
CONTINUOUS
100
AcDbLine
 10
90.18454962301488
 20
49.97381694046689
 30
0.0
 11
100.1845496230149
 21
49.97381694046689
 31
0.0
  0
ARC
  5
A70
330
1F
100
AcDbEntity
  8
2_カバ_
  6
CONTINUOUS
100
AcDbCircle
 10
90.18454962301488
 20
52.97381694046785
 30
0.0
 40
0.5
100
AcDbArc
 50
90.0
 51
180.0
  0
ARC
  5
A71
330
1F
100
AcDbEntity
  8
2_カバ_
  6
CONTINUOUS
100
AcDbCircle
 10
90.18454962301488
 20
50.47381694046689
 30
0.0
 40
0.5
100
AcDbArc
 50
180.0
 51
270.0
  0
LINE
  5
A72
330
1F
100
AcDbEntity
  8
2_カバ_
  6
CONTINUOUS
100
AcDbLine
 10
89.68454962301489
 20
52.97381694046785
 30
0.0
 11
89.68454962301489
 21
50.47381694046689
 31
0.0
  0
ARC
  5
A73
330
1F
100
AcDbEntity
  8
2_カバ_
  6
CONTINUOUS
100
AcDbCircle
 10
100.1845496230149
 20
52.97381694046689
 30
0.0
 40
0.5
100
AcDbArc
 50
0.0
 51
90.0
  0
ARC
  5
A74
330
1F
100
AcDbEntity
  8
2_カバ_
  6
CONTINUOUS
100
AcDbCircle
 10
100.1845496230149
 20
50.47381694046689
 30
0.0
 40
0.5
100
AcDbArc
 50
270.0
 51
0.0
  0
LINE
  5
A75
330
1F
100
AcDbEntity
  8
2_カバ_
  6
CONTINUOUS
100
AcDbLine
 10
100.6845496230146
 20
50.47381694046689
 30
0.0
 11
100.6845496230146
 21
52.97381694046689
 31
0.0
  0
LINE
  5
A76
330
1F
100
AcDbEntity
  8
2_カバ_
  6
CONTINUOUS
100
AcDbLine
 10
105.6845496230149
 20
54.97381694046689
 30
0.0
 11
105.6845496230149
 21
48.97381694046689
 31
0.0
  0
LINE
  5
A77
330
1F
100
AcDbEntity
  8
2_カバ_
  6
CONTINUOUS
100
AcDbLine
 10
108.1845496230149
 20
49.97381694046689
 30
0.0
 11
106.1845496230149
 21
49.97381694046689
 31
0.0
  0
LINE
  5
A78
330
1F
100
AcDbEntity
  8
2_カバ_
  6
CONTINUOUS
100
AcDbLine
 10
108.1845496230149
 20
47.97381694046689
 30
0.0
 11
106.1845496230149
 21
47.97381694046689
 31
0.0
  0
LINE
  5
A79
330
1F
100
AcDbEntity
  8
2_カバ_
  6
CONTINUOUS
100
AcDbLine
 10
107.1845496230149
 20
47.97381694046689
 30
0.0
 11
107.1845496230149
 21
49.97381694046689
 31
0.0
  0
LINE
  5
A7A
330
1F
100
AcDbEntity
  8
2_カバ_
  6
CONTINUOUS
100
AcDbLine
 10
106.1845496230149
 20
47.97381694046689
 30
0.0
 11
106.1845496230149
 21
49.97381694046689
 31
0.0
  0
LINE
  5
A7B
330
1F
100
AcDbEntity
  8
2_カバ_
  6
CONTINUOUS
100
AcDbLine
 10
105.6845496230149
 20
61.97381694046688
 30
0.0
 11
105.6845496230149
 21
56.97381694046786
 31
0.0
  0
LINE
  5
A7C
330
1F
100
AcDbEntity
  8
2_カバ_
  6
CONTINUOUS
100
AcDbLine
 10
107.1845496230149
 20
54.97381694046689
 30
0.0
 11
107.1845496230149
 21
56.97381694046688
 31
0.0
  0
LINE
  5
A7D
330
1F
100
AcDbEntity
  8
2_カバ_
  6
CONTINUOUS
100
AcDbLine
 10
106.1845496230149
 20
54.97381694046689
 30
0.0
 11
106.1845496230149
 21
56.97381694046688
 31
0.0
  0
LINE
  5
A7E
330
1F
100
AcDbEntity
  8
2_カバ_
  6
CONTINUOUS
100
AcDbLine
 10
107.1845496230149
 20
61.97381694046688
 30
0.0
 11
107.1845496230149
 21
63.97381694046688
 31
0.0
  0
LINE
  5
A7F
330
1F
100
AcDbEntity
  8
2_カバ_
  6
CONTINUOUS
100
AcDbLine
 10
106.1845496230149
 20
61.97381694046688
 30
0.0
 11
106.1845496230149
 21
63.97381694046688
 31
0.0
  0
LINE
  5
A80
330
1F
100
AcDbEntity
  8
2_カバ_
  6
CONTINUOUS
100
AcDbLine
 10
107.1845496230149
 20
96.97381694046688
 30
0.0
 11
107.1845496230149
 21
98.97381694046687
 31
0.0
  0
LINE
  5
A81
330
1F
100
AcDbEntity
  8
2_カバ_
  6
CONTINUOUS
100
AcDbLine
 10
106.1845496230149
 20
96.97381694046688
 30
0.0
 11
106.1845496230149
 21
98.97381694046687
 31
0.0
  0
LINE
  5
A82
330
1F
100
AcDbEntity
  8
2_カバ_
  6
CONTINUOUS
100
AcDbLine
 10
104.1845496230149
 20
92.47381694046687
 30
0.0
 11
101.6845496230146
 21
92.47381694046783
 31
0.0
  0
LINE
  5
A83
330
1F
100
AcDbEntity
  8
2_カバ_
  6
CONTINUOUS
100
AcDbLine
 10
104.1845496230149
 20
86.47381694046687
 30
0.0
 11
101.6845496230146
 21
86.47381694046687
 31
0.0
  0
LINE
  5
A84
330
1F
100
AcDbEntity
  8
2_カバ_
  6
DASHDOT
100
AcDbLine
 10
100.1056597409639
 20
89.47381694046688
 30
0.0
 11
106.8541677470189
 21
89.47381694046688
 31
0.0
  0
LINE
  5
A85
330
1F
100
AcDbEntity
  8
2_カバ_
  6
CONTINUOUS
100
AcDbLine
 10
101.1845496230149
 20
91.97381694046786
 30
0.0
 11
101.1845496230149
 21
86.97381694046688
 31
0.0
  0
ARC
  5
A86
330
1F
100
AcDbEntity
  8
2_カバ_
  6
CONTINUOUS
100
AcDbCircle
 10
101.6845496230146
 20
86.97381694046688
 30
0.0
 40
0.5
100
AcDbArc
 50
180.0
 51
270.0
  0
ARC
  5
A87
330
1F
100
AcDbEntity
  8
2_カバ_
  6
CONTINUOUS
100
AcDbCircle
 10
101.6845496230146
 20
91.97381694046786
 30
0.0
 40
0.5
100
AcDbArc
 50
89.99999999999673
 51
180.0
  0
LINE
  5
A88
330
1F
100
AcDbEntity
  8
2_カバ_
  6
CONTINUOUS
100
AcDbLine
 10
107.1845496230149
 20
82.9738169404669
 30
0.0
 11
107.1845496230149
 21
84.97381694046689
 31
0.0
  0
LINE
  5
A89
330
1F
100
AcDbEntity
  8
2_カバ_
  6
CONTINUOUS
100
AcDbLine
 10
106.1845496230149
 20
82.9738169404669
 30
0.0
 11
106.1845496230149
 21
84.97381694046689
 31
0.0
  0
LINE
  5
A8A
330
1F
100
AcDbEntity
  8
2_カバ_
  6
CONTINUOUS
100
AcDbLine
 10
105.6845496230149
 20
96.97381694046688
 30
0.0
 11
105.6845496230149
 21
70.97381694046784
 31
0.0
  0
LINE
  5
A8B
330
1F
100
AcDbEntity
  8
2_カバ_
  6
CONTINUOUS
100
AcDbLine
 10
107.1845496230149
 20
75.97381694046688
 30
0.0
 11
107.1845496230149
 21
77.97381694046784
 31
0.0
  0
LINE
  5
A8C
330
1F
100
AcDbEntity
  8
2_カバ_
  6
CONTINUOUS
100
AcDbLine
 10
106.1845496230149
 20
75.97381694046688
 30
0.0
 11
106.1845496230149
 21
77.97381694046784
 31
0.0
  0
LINE
  5
A8D
330
1F
100
AcDbEntity
  8
2_カバ_
  6
CONTINUOUS
100
AcDbLine
 10
108.1845496230149
 20
75.97381694046688
 30
0.0
 11
106.1845496230149
 21
75.97381694046688
 31
0.0
  0
LINE
  5
A8E
330
1F
100
AcDbEntity
  8
2_カバ_
  6
CONTINUOUS
100
AcDbLine
 10
107.1845496230149
 20
68.9738169404669
 30
0.0
 11
107.1845496230149
 21
70.97381694046688
 31
0.0
  0
LINE
  5
A8F
330
1F
100
AcDbEntity
  8
2_カバ_
  6
CONTINUOUS
100
AcDbLine
 10
106.1845496230149
 20
68.9738169404669
 30
0.0
 11
106.1845496230149
 21
70.97381694046688
 31
0.0
  0
LINE
  5
A90
330
1F
100
AcDbEntity
  8
2_カバ_
  6
CONTINUOUS
100
AcDbLine
 10
108.1845496230149
 20
82.9738169404669
 30
0.0
 11
106.1845496230149
 21
82.9738169404669
 31
0.0
  0
LINE
  5
A91
330
1F
100
AcDbEntity
  8
2_カバ_
  6
CONTINUOUS
100
AcDbLine
 10
108.1845496230149
 20
77.97381694046689
 30
0.0
 11
106.1845496230149
 21
77.97381694046689
 31
0.0
  0
LINE
  5
A92
330
1F
100
AcDbEntity
  8
2_カバ_
  6
CONTINUOUS
100
AcDbLine
 10
107.1845496230149
 20
89.97381694046687
 30
0.0
 11
107.1845496230149
 21
91.97381694046688
 31
0.0
  0
LINE
  5
A93
330
1F
100
AcDbEntity
  8
2_カバ_
  6
CONTINUOUS
100
AcDbLine
 10
104.6845496230146
 20
86.97381694046688
 30
0.0
 11
104.6845496230146
 21
91.97381694046688
 31
0.0
  0
LINE
  5
A94
330
1F
100
AcDbEntity
  8
2_カバ_
  6
CONTINUOUS
100
AcDbLine
 10
106.1845496230149
 20
89.97381694046687
 30
0.0
 11
106.1845496230149
 21
91.97381694046688
 31
0.0
  0
LINE
  5
A95
330
1F
100
AcDbEntity
  8
2_カバ_
  6
CONTINUOUS
100
AcDbLine
 10
108.1845496230149
 20
84.97381694046689
 30
0.0
 11
106.1845496230149
 21
84.97381694046689
 31
0.0
  0
LINE
  5
A96
330
1F
100
AcDbEntity
  8
2_カバ_
  6
CONTINUOUS
100
AcDbLine
 10
108.1845496230149
 20
89.97381694046687
 30
0.0
 11
106.1845496230149
 21
89.97381694046687
 31
0.0
  0
ARC
  5
A97
330
1F
100
AcDbEntity
  8
2_カバ_
  6
CONTINUOUS
100
AcDbCircle
 10
104.1845496230149
 20
86.97381694046688
 30
0.0
 40
0.5
100
AcDbArc
 50
270.0
 51
0.0
  0
LINE
  5
A98
330
1F
100
AcDbEntity
  8
2_カバ_
  6
CONTINUOUS
100
AcDbLine
 10
108.1845496230149
 20
91.97381694046688
 30
0.0
 11
106.1845496230149
 21
91.97381694046688
 31
0.0
  0
ARC
  5
A99
330
1F
100
AcDbEntity
  8
2_カバ_
  6
CONTINUOUS
100
AcDbCircle
 10
104.1845496230149
 20
91.97381694046688
 30
0.0
 40
0.5
100
AcDbArc
 50
0.0
 51
90.0
  0
LINE
  5
A9A
330
1F
100
AcDbEntity
  8
2_カバ_
  6
CONTINUOUS
100
AcDbLine
 10
105.6845496230149
 20
103.9738169404668
 30
0.0
 11
105.6845496230149
 21
98.97381694046687
 31
0.0
  0
MTEXT
  5
AF2
330
1F
100
AcDbEntity
  8
0
100
AcDbMText
 10
37.35447028274575
 20
405.2030835018817
 30
0.0
 40
10.0
 41
0.0
 71
     1
 72
     5
  1
SCON-CA-400I~750I-PR-*-1/2\PSCON-CA-100SI~750SI-PR-*-1/2
1001
ACAD
1000
MTEXTBEGIN
1070
    73
1070
     1
1070
    44
1040
1.0
1070
    74
1070
     0
1000
MTEXTEND
1000
MTEXTBEGIN
1070
    73
1070
     1
1070
    44
1040
1.0
1070
    74
1070
     0
1000
MTEXTEND
1000
MTEXTBEGIN
1070
    73
1070
     1
1070
    44
1040
1.0
1070
    74
1070
     0
1000
MTEXTEND
1000
MTEXTBEGIN
1070
    73
1070
     1
1070
    44
1040
1.0
1070
    74
1070
     0
1000
MTEXTEND
  0
ENDSEC
  0
SECTION
  2
OBJECTS
  0
DICTIONARY
  5
C
330
0
100
AcDbDictionary
  3
ACAD_GROUP
350
D
  3
ACAD_LAYOUT
350
1A
  3
ACAD_MLINESTYLE
350
17
  3
ACAD_PLOTSETTINGS
350
19
  3
ACAD_PLOTSTYLENAME
350
E
  3
ACDBHEADERROUNDTRIPXREC
350
B70
  3
ACDBVARIABLEDICTIONARY
350
9CD
  0
DICTIONARY
  5
A7
330
2
100
AcDbDictionary
280
     1
  3
ACAD_LAYERSTATES
360
A8
  0
DICTIONARY
  5
9F3
330
1F
100
AcDbDictionary
280
     1
  3
ACAD_LAYOUTSELFREF
360
B91
  0
DICTIONARY
  5
9F1
330
1B
100
AcDbDictionary
280
     1
  3
ACAD_LAYOUTSELFREF
360
B90
  0
DICTIONARY
  5
D
102
{ACAD_REACTORS
330
C
102
}
330
C
100
AcDbDictionary
  0
DICTIONARY
  5
1A
102
{ACAD_REACTORS
330
C
102
}
330
C
100
AcDbDictionary
  0
DICTIONARY
  5
17
102
{ACAD_REACTORS
330
C
102
}
330
C
100
AcDbDictionary
  3
STANDARD
350
18
  0
DICTIONARY
  5
19
102
{ACAD_REACTORS
330
C
102
}
330
C
100
AcDbDictionary
  0
ACDBDICTIONARYWDFLT
  5
E
102
{ACAD_REACTORS
330
C
102
}
330
C
100
AcDbDictionary
281
     1
  3
Normal
350
F
100
AcDbDictionaryWithDefault
340
F
  0
DICTIONARY
  5
B70
102
{ACAD_REACTORS
330
C
102
}
330
C
100
AcDbDictionary
  3
CEPSNTYPE
350
B7A
  3
FINGERPRINTGUID
350
B7B
  3
HYPERLINKBASE
350
B73
  3
INSUNITS
350
B79
  3
LAYOUTDICT
350
B75
  3
LWETCUNION
350
B78
  3
PLOTSETDICT
350
B76
  3
PLOTSTYLNAMDICT
350
B77
  3
PSVPSCALE
350
B7D
  3
PUCSBASE
350
B80
  3
PUCSORGBACK
350
B86
  3
PUCSORGBOTTOM
350
B82
  3
PUCSORGFRONT
350
B85
  3
PUCSORGLEFT
350
B83
  3
PUCSORGRIGHT
350
B84
  3
PUCSORGTOP
350
B81
  3
PUCSORTHOREF
350
B7E
  3
PUCSORTHOVIEW
350
B7F
  3
STYLESHEET
350
B74
  3
TSTACKALIGN
350
B71
  3
TSTACKSIZE
350
B72
  3
UCSBASE
350
B89
  3
UCSORGBACK
350
B8F
  3
UCSORGBOTTOM
350
B8B
  3
UCSORGFRONT
350
B8E
  3
UCSORGLEFT
350
B8C
  3
UCSORGRIGHT
350
B8D
  3
UCSORGTOP
350
B8A
  3
UCSORTHOREF
350
B87
  3
UCSORTHOVIEW
350
B88
  3
VERSIONGUID
350
B7C
  0
DICTIONARY
  5
9CD
102
{ACAD_REACTORS
330
C
102
}
330
C
100
AcDbDictionary
  3
DIMASSOC
350
9CF
  3
HIDETEXT
350
9CE
  0
DICTIONARY
  5
A8
102
{ACAD_REACTORS
330
A7
102
}
330
A7
100
AcDbDictionary
  0
XRECORD
  5
B91
102
{ACAD_REACTORS
330
9F3
102
}
330
9F3
100
AcDbXrecord
340
1F
  0
XRECORD
  5
B90
102
{ACAD_REACTORS
330
9F1
102
}
330
9F1
100
AcDbXrecord
340
1B
  0
MLINESTYLE
  5
18
102
{ACAD_REACTORS
330
17
102
}
330
17
100
AcDbMlineStyle
  2
STANDARD
 70
     0
  3

 62
   256
 51
90.0
 52
90.0
 71
     2
 49
0.5
 62
   256
  6
BYLAYER
 49
-0.5
 62
   256
  6
BYLAYER
  0
ACDBPLACEHOLDER
  5
F
102
{ACAD_REACTORS
330
E
102
}
330
E
100
AcDbPlaceHolder
280
     0
  0
XRECORD
  5
B7A
102
{ACAD_REACTORS
330
B70
102
}
330
B70
100
AcDbXrecord
 90
        0
  0
XRECORD
  5
B7B
102
{ACAD_REACTORS
330
B70
102
}
330
B70
100
AcDbXrecord
  1
{912446BA-B41B-444A-BC5B-56CC5D5A4704}
  0
XRECORD
  5
B73
102
{ACAD_REACTORS
330
B70
102
}
330
B70
100
AcDbXrecord
  1

  0
XRECORD
  5
B79
102
{ACAD_REACTORS
330
B70
102
}
330
B70
100
AcDbXrecord
 90
        4
  0
XRECORD
  5
B75
102
{ACAD_REACTORS
330
B70
102
}
330
B70
100
AcDbXrecord
340
1A
  0
XRECORD
  5
B78
102
{ACAD_REACTORS
330
B70
102
}
330
B70
100
AcDbXrecord
 90
    10781
  0
XRECORD
  5
B76
102
{ACAD_REACTORS
330
B70
102
}
330
B70
100
AcDbXrecord
340
19
  0
XRECORD
  5
B77
102
{ACAD_REACTORS
330
B70
102
}
330
B70
100
AcDbXrecord
340
E
  0
XRECORD
  5
B7D
102
{ACAD_REACTORS
330
B70
102
}
330
B70
100
AcDbXrecord
 40
0.0
  0
XRECORD
  5
B80
102
{ACAD_REACTORS
330
B70
102
}
330
B70
100
AcDbXrecord
340
0
  0
XRECORD
  5
B86
102
{ACAD_REACTORS
330
B70
102
}
330
B70
100
AcDbXrecord
 10
0.0
 20
0.0
 30
0.0
  0
XRECORD
  5
B82
102
{ACAD_REACTORS
330
B70
102
}
330
B70
100
AcDbXrecord
 10
0.0
 20
0.0
 30
0.0
  0
XRECORD
  5
B85
102
{ACAD_REACTORS
330
B70
102
}
330
B70
100
AcDbXrecord
 10
0.0
 20
0.0
 30
0.0
  0
XRECORD
  5
B83
102
{ACAD_REACTORS
330
B70
102
}
330
B70
100
AcDbXrecord
 10
0.0
 20
0.0
 30
0.0
  0
XRECORD
  5
B84
102
{ACAD_REACTORS
330
B70
102
}
330
B70
100
AcDbXrecord
 10
0.0
 20
0.0
 30
0.0
  0
XRECORD
  5
B81
102
{ACAD_REACTORS
330
B70
102
}
330
B70
100
AcDbXrecord
 10
0.0
 20
0.0
 30
0.0
  0
XRECORD
  5
B7E
102
{ACAD_REACTORS
330
B70
102
}
330
B70
100
AcDbXrecord
340
0
  0
XRECORD
  5
B7F
102
{ACAD_REACTORS
330
B70
102
}
330
B70
100
AcDbXrecord
 70
     0
  0
XRECORD
  5
B74
102
{ACAD_REACTORS
330
B70
102
}
330
B70
100
AcDbXrecord
  1

  0
XRECORD
  5
B71
102
{ACAD_REACTORS
330
B70
102
}
330
B70
100
AcDbXrecord
 90
        1
  0
XRECORD
  5
B72
102
{ACAD_REACTORS
330
B70
102
}
330
B70
100
AcDbXrecord
 90
       70
  0
XRECORD
  5
B89
102
{ACAD_REACTORS
330
B70
102
}
330
B70
100
AcDbXrecord
340
0
  0
XRECORD
  5
B8F
102
{ACAD_REACTORS
330
B70
102
}
330
B70
100
AcDbXrecord
 10
0.0
 20
0.0
 30
0.0
  0
XRECORD
  5
B8B
102
{ACAD_REACTORS
330
B70
102
}
330
B70
100
AcDbXrecord
 10
0.0
 20
0.0
 30
0.0
  0
XRECORD
  5
B8E
102
{ACAD_REACTORS
330
B70
102
}
330
B70
100
AcDbXrecord
 10
0.0
 20
0.0
 30
0.0
  0
XRECORD
  5
B8C
102
{ACAD_REACTORS
330
B70
102
}
330
B70
100
AcDbXrecord
 10
0.0
 20
0.0
 30
0.0
  0
XRECORD
  5
B8D
102
{ACAD_REACTORS
330
B70
102
}
330
B70
100
AcDbXrecord
 10
0.0
 20
0.0
 30
0.0
  0
XRECORD
  5
B8A
102
{ACAD_REACTORS
330
B70
102
}
330
B70
100
AcDbXrecord
 10
0.0
 20
0.0
 30
0.0
  0
XRECORD
  5
B87
102
{ACAD_REACTORS
330
B70
102
}
330
B70
100
AcDbXrecord
340
0
  0
XRECORD
  5
B88
102
{ACAD_REACTORS
330
B70
102
}
330
B70
100
AcDbXrecord
 70
     0
  0
XRECORD
  5
B7C
102
{ACAD_REACTORS
330
B70
102
}
330
B70
100
AcDbXrecord
  1
{A173ECD8-D62B-4D89-AC90-B6B8C4287C13}
  0
DICTIONARYVAR
  5
9CF
102
{ACAD_REACTORS
330
9CD
102
}
330
9CD
100
DictionaryVariables
280
     0
  1
2
  0
DICTIONARYVAR
  5
9CE
102
{ACAD_REACTORS
330
9CD
102
}
330
9CD
100
DictionaryVariables
280
     0
  1
1
  0
ENDSEC
  0
EOF
